ISO-10303-21;
HEADER;
FILE_DESCRIPTION (( 'STEP AP214' ),
    '1' );
FILE_NAME ('01737.STEP',
    '2023-06-22T14:46:10',
    ( '' ),
    ( '' ),
    'SwSTEP 2.0',
    'SolidWorks 2023',
    '' );
FILE_SCHEMA (( 'AUTOMOTIVE_DESIGN' ));
ENDSEC;

DATA;
#1 = LINE ( 'NONE', #194, #125 ) ;
#2 = AXIS2_PLACEMENT_3D ( 'NONE', #96, #210, #286 ) ;
#3 = DIRECTION ( 'NONE',  ( -0.000000000000000000, -1.000000000000000000, -0.000000000000000000 ) ) ;
#4 = CARTESIAN_POINT ( 'NONE',  ( 0.000000000000000000, 0.000000000000000000, 0.000000000000000000 ) ) ;
#5 = FILL_AREA_STYLE ('',( #219 ) ) ;
#6 = DIRECTION ( 'NONE',  ( 0.000000000000000000, 1.000000000000000000, 0.000000000000000000 ) ) ;
#7 = ORIENTED_EDGE ( 'NONE', *, *, #197, .T. ) ;
#8 = APPLICATION_CONTEXT ( 'automotive_design' ) ;
#9 = ADVANCED_BREP_SHAPE_REPRESENTATION ( '01737', ( #255, #52, #152 ), #181 ) ;
#10 = PLANE ( 'NONE',  #187 ) ;
#11 = EDGE_LOOP ( 'NONE', ( #21, #242, #91, #178 ) ) ;
#12 = CIRCLE ( 'NONE', #2, 0.5000000000000000000 ) ;
#13 =( LENGTH_UNIT ( ) NAMED_UNIT ( * ) SI_UNIT ( $, .METRE. ) );
#14 = LINE ( 'NONE', #86, #47 ) ;
#15 = SURFACE_SIDE_STYLE ('',( #69 ) ) ;
#16 = PRESENTATION_LAYER_ASSIGNMENT (  '', '', ( #186 ) ) ;
#17 = AXIS2_PLACEMENT_3D ( 'NONE', #44, #6, #130 ) ;
#18 = PRODUCT_DEFINITION_FORMATION_WITH_SPECIFIED_SOURCE ( 'ANY', '', #189, .NOT_KNOWN. ) ;
#19 = APPLICATION_PROTOCOL_DEFINITION ( 'draft international standard', 'automotive_design', 1998, #8 ) ;
#20 = ADVANCED_FACE ( 'NONE', ( #114 ), #48, .T. ) ;
#21 = ORIENTED_EDGE ( 'NONE', *, *, #285, .T. ) ;
#22 =( LENGTH_UNIT ( ) NAMED_UNIT ( * ) SI_UNIT ( $, .METRE. ) );
#23 =( GEOMETRIC_REPRESENTATION_CONTEXT ( 3 ) GLOBAL_UNCERTAINTY_ASSIGNED_CONTEXT ( ( #270 ) ) GLOBAL_UNIT_ASSIGNED_CONTEXT ( ( #227, #299, #84 ) ) REPRESENTATION_CONTEXT ( 'NONE', 'WORKASPACE' ) );
#24 = LENGTH_MEASURE_WITH_UNIT ( LENGTH_MEASURE( 0.02539999999999999897 ), #26 );
#25 = DIRECTION ( 'NONE',  ( -1.000000000000000000, 0.000000000000000000, 0.000000000000000000 ) ) ;
#26 =( LENGTH_UNIT ( ) NAMED_UNIT ( * ) SI_UNIT ( $, .METRE. ) );
#27 =( NAMED_UNIT ( * ) PLANE_ANGLE_UNIT ( ) SI_UNIT ( $, .RADIAN. ) );
#28 = PRODUCT_DEFINITION_SHAPE ( 'NONE', 'NONE',  #115 ) ;
#29 = ORIENTED_EDGE ( 'NONE', *, *, #254, .T. ) ;
#30 =( GEOMETRIC_REPRESENTATION_CONTEXT ( 3 ) GLOBAL_UNCERTAINTY_ASSIGNED_CONTEXT ( ( #193 ) ) GLOBAL_UNIT_ASSIGNED_CONTEXT ( ( #271, #147, #171 ) ) REPRESENTATION_CONTEXT ( 'NONE', 'WORKASPACE' ) );
#31 = PLANE ( 'NONE',  #17 ) ;
#32 = FACE_OUTER_BOUND ( 'NONE', #266, .T. ) ;
#33 = DIMENSIONAL_EXPONENTS ( 1.000000000000000000, 0.000000000000000000, 0.000000000000000000, 0.000000000000000000, 0.000000000000000000, 0.000000000000000000, 0.000000000000000000 ) ;
#34 = DIRECTION ( 'NONE',  ( -0.000000000000000000, -1.000000000000000000, -0.000000000000000000 ) ) ;
#35 = UNCERTAINTY_MEASURE_WITH_UNIT (LENGTH_MEASURE( 1.000000000000000082E-05 ), #272, 'distance_accuracy_value', 'NONE');
#36 = SURFACE_SIDE_STYLE ('',( #100 ) ) ;
#37 =( GEOMETRIC_REPRESENTATION_CONTEXT ( 3 ) GLOBAL_UNCERTAINTY_ASSIGNED_CONTEXT ( ( #180 ) ) GLOBAL_UNIT_ASSIGNED_CONTEXT ( ( #110, #155, #74 ) ) REPRESENTATION_CONTEXT ( 'NONE', 'WORKASPACE' ) );
#38 =( LENGTH_UNIT ( ) NAMED_UNIT ( * ) SI_UNIT ( $, .METRE. ) );
#39 = CARTESIAN_POINT ( 'NONE',  ( 6.123233995736766036E-17, 0.000000000000000000, 0.5000000000000000000 ) ) ;
#40 = EDGE_LOOP ( 'NONE', ( #133, #42, #277, #262 ) ) ;
#41 = DIRECTION ( 'NONE',  ( 1.113315271952139481E-16, 1.000000000000000000, -0.000000000000000000 ) ) ;
#42 = ORIENTED_EDGE ( 'NONE', *, *, #109, .T. ) ;
#43 = CARTESIAN_POINT ( 'NONE',  ( 0.5000000000000001110, 4.000000000000000000, 6.123233995736764803E-17 ) ) ;
#44 = CARTESIAN_POINT ( 'NONE',  ( 0.000000000000000000, 1.250000000000000000, 0.000000000000000000 ) ) ;
#45 = UNCERTAINTY_MEASURE_WITH_UNIT (LENGTH_MEASURE( 1.000000000000000082E-05 ), #190, 'distance_accuracy_value', 'NONE');
#46 =( NAMED_UNIT ( * ) SI_UNIT ( $, .STERADIAN. ) SOLID_ANGLE_UNIT ( ) );
#47 = VECTOR ( 'NONE', #275, 39.37007874015748143 ) ;
#48 = CYLINDRICAL_SURFACE ( 'NONE', #173, 0.4999999999999998335 ) ;
#49 = CARTESIAN_POINT ( 'NONE',  ( 3.061616997868383634E-16, 4.000000000000000000, 0.000000000000000000 ) ) ;
#50 = DIRECTION ( 'NONE',  ( 0.000000000000000000, 0.000000000000000000, 1.000000000000000000 ) ) ;
#51 = FACE_OUTER_BOUND ( 'NONE', #11, .T. ) ;
#52 = MANIFOLD_SOLID_BREP ( 'Revolve - Tool Body (Straight Shanked)', #204 ) ;
#53 = FACE_OUTER_BOUND ( 'NONE', #261, .T. ) ;
#54 = DIRECTION ( 'NONE',  ( 1.113315271952139481E-16, 1.000000000000000000, -0.000000000000000000 ) ) ;
#55 = DIRECTION ( 'NONE',  ( 0.000000000000000000, 0.000000000000000000, -1.000000000000000000 ) ) ;
#56 = CARTESIAN_POINT ( 'NONE',  ( 0.000000000000000000, 0.000000000000000000, 0.000000000000000000 ) ) ;
#57 = CIRCLE ( 'NONE', #289, 0.5000000000000000000 ) ;
#58 = DIRECTION ( 'NONE',  ( -1.000000000000000000, 0.000000000000000000, 0.000000000000000000 ) ) ;
#59 = EDGE_CURVE ( 'NONE', #87, #244, #72, .T. ) ;
#60 =( NAMED_UNIT ( * ) SI_UNIT ( $, .STERADIAN. ) SOLID_ANGLE_UNIT ( ) );
#61 = PRODUCT_DEFINITION_CONTEXT ( 'detailed design', #263, 'design' ) ;
#62 = DIRECTION ( 'NONE',  ( 0.000000000000000000, 0.000000000000000000, -1.000000000000000000 ) ) ;
#63 = MECHANICAL_DESIGN_GEOMETRIC_PRESENTATION_REPRESENTATION (  '', ( #186 ), #64 ) ;
#64 =( GEOMETRIC_REPRESENTATION_CONTEXT ( 3 ) GLOBAL_UNCERTAINTY_ASSIGNED_CONTEXT ( ( #282 ) ) GLOBAL_UNIT_ASSIGNED_CONTEXT ( ( #284, #27, #208 ) ) REPRESENTATION_CONTEXT ( 'NONE', 'WORKASPACE' ) );
#65 = LINE ( 'NONE', #276, #116 ) ;
#66 = PRESENTATION_LAYER_ASSIGNMENT (  '', '', ( #93 ) ) ;
#67 =( NAMED_UNIT ( * ) SI_UNIT ( $, .STERADIAN. ) SOLID_ANGLE_UNIT ( ) );
#68 = ORIENTED_EDGE ( 'NONE', *, *, #59, .F. ) ;
#69 = SURFACE_STYLE_FILL_AREA ( #236 ) ;
#70 = ORIENTED_EDGE ( 'NONE', *, *, #165, .F. ) ;
#71 = CARTESIAN_POINT ( 'NONE',  ( 6.123233995736766036E-17, 1.250000000000000000, 0.5000000000000000000 ) ) ;
#72 = CIRCLE ( 'NONE', #215, 0.4999999999999997224 ) ;
#73 = FILL_AREA_STYLE_COLOUR ( '', #78 ) ;
#74 =( NAMED_UNIT ( * ) SI_UNIT ( $, .STERADIAN. ) SOLID_ANGLE_UNIT ( ) );
#75 = DIRECTION ( 'NONE',  ( -1.000000000000000000, 0.000000000000000000, 0.000000000000000000 ) ) ;
#76 = DIRECTION ( 'NONE',  ( -0.000000000000000000, -1.000000000000000000, -0.000000000000000000 ) ) ;
#77 = ORIENTED_EDGE ( 'NONE', *, *, #59, .T. ) ;
#78 = COLOUR_RGB ( '',1.000000000000000000, 0.000000000000000000, 0.000000000000000000 ) ;
#79 = CARTESIAN_POINT ( 'NONE',  ( -0.4999999999999994449, 4.000000000000000000, 0.000000000000000000 ) ) ;
#80 = FILL_AREA_STYLE ('',( #103 ) ) ;
#81 =( NAMED_UNIT ( * ) PLANE_ANGLE_UNIT ( ) SI_UNIT ( $, .RADIAN. ) );
#82 = CIRCLE ( 'NONE', #108, 0.4999999999999997224 ) ;
#83 = CARTESIAN_POINT ( 'NONE',  ( 0.000000000000000000, 1.250000000000000000, 0.000000000000000000 ) ) ;
#84 =( NAMED_UNIT ( * ) SI_UNIT ( $, .STERADIAN. ) SOLID_ANGLE_UNIT ( ) );
#85 = AXIS2_PLACEMENT_3D ( 'NONE', #123, #295, #274 ) ;
#86 = CARTESIAN_POINT ( 'NONE',  ( 0.000000000000000000, 0.000000000000000000, -0.5000000000000000000 ) ) ;
#87 = VERTEX_POINT ( 'NONE', #79 ) ;
#88 = DIRECTION ( 'NONE',  ( 0.000000000000000000, 0.000000000000000000, -1.000000000000000000 ) ) ;
#89 = EDGE_LOOP ( 'NONE', ( #131, #241, #68, #176 ) ) ;
#90 = LENGTH_MEASURE_WITH_UNIT ( LENGTH_MEASURE( 0.02539999999999999897 ), #13 );
#91 = ORIENTED_EDGE ( 'NONE', *, *, #254, .F. ) ;
#92 = DIRECTION ( 'NONE',  ( 1.113315271952139481E-16, 1.000000000000000000, -0.000000000000000000 ) ) ;
#93 = STYLED_ITEM ( 'NONE', ( #138 ), #206 ) ;
#94 = CARTESIAN_POINT ( 'NONE',  ( 3.061616997868383634E-16, 4.000000000000000000, 0.000000000000000000 ) ) ;
#95 = CARTESIAN_POINT ( 'NONE',  ( 0.5000000000000001110, 1.250000000000000000, 6.123233995736766036E-17 ) ) ;
#96 = CARTESIAN_POINT ( 'NONE',  ( 0.000000000000000000, 1.250000000000000000, 0.000000000000000000 ) ) ;
#97 = DIRECTION ( 'NONE',  ( 1.113315271952139481E-16, 1.000000000000000000, -0.000000000000000000 ) ) ;
#98 = COLOUR_RGB ( '',1.000000000000000000, 0.000000000000000000, 0.000000000000000000 ) ;
#99 = LENGTH_MEASURE_WITH_UNIT ( LENGTH_MEASURE( 0.02539999999999999897 ), #38 );
#100 = SURFACE_STYLE_FILL_AREA ( #5 ) ;
#101 = SURFACE_STYLE_USAGE ( .BOTH. , #154 ) ;
#102 = AXIS2_PLACEMENT_3D ( 'NONE', #105, #296, #88 ) ;
#103 = FILL_AREA_STYLE_COLOUR ( '', #205 ) ;
#104 = CARTESIAN_POINT ( 'NONE',  ( 0.000000000000000000, 0.000000000000000000, 0.000000000000000000 ) ) ;
#105 = CARTESIAN_POINT ( 'NONE',  ( 0.000000000000000000, 0.000000000000000000, 0.000000000000000000 ) ) ;
#106 = VERTEX_POINT ( 'NONE', #264 ) ;
#107 = PLANE ( 'NONE',  #257 ) ;
#108 = AXIS2_PLACEMENT_3D ( 'NONE', #124, #161, #128 ) ;
#109 = EDGE_CURVE ( 'NONE', #139, #304, #12, .T. ) ;
#110 =( CONVERSION_BASED_UNIT ( 'INCH', #90 ) LENGTH_UNIT ( ) NAMED_UNIT ( #117 ) );
#111 = CARTESIAN_POINT ( 'NONE',  ( 0.5000000000000001110, 4.000000000000000000, 6.123233995736766036E-17 ) ) ;
#112 =( GEOMETRIC_REPRESENTATION_CONTEXT ( 3 ) GLOBAL_UNCERTAINTY_ASSIGNED_CONTEXT ( ( #35 ) ) GLOBAL_UNIT_ASSIGNED_CONTEXT ( ( #272, #309, #60 ) ) REPRESENTATION_CONTEXT ( 'NONE', 'WORKASPACE' ) );
#113 = DIRECTION ( 'NONE',  ( 1.000000000000000000, 0.000000000000000000, 0.000000000000000000 ) ) ;
#114 = FACE_OUTER_BOUND ( 'NONE', #89, .T. ) ;
#115 = PRODUCT_DEFINITION ( 'UNKNOWN', '', #18, #61 ) ;
#116 = VECTOR ( 'NONE', #41, 39.37007874015748143 ) ;
#117 = DIMENSIONAL_EXPONENTS ( 1.000000000000000000, 0.000000000000000000, 0.000000000000000000, 0.000000000000000000, 0.000000000000000000, 0.000000000000000000, 0.000000000000000000 ) ;
#118 = ORIENTED_EDGE ( 'NONE', *, *, #213, .T. ) ;
#119 = EDGE_LOOP ( 'NONE', ( #29, #118 ) ) ;
#120 = VECTOR ( 'NONE', #177, 39.37007874015748143 ) ;
#121 = DIMENSIONAL_EXPONENTS ( 1.000000000000000000, 0.000000000000000000, 0.000000000000000000, 0.000000000000000000, 0.000000000000000000, 0.000000000000000000, 0.000000000000000000 ) ;
#122 = PLANE ( 'NONE',  #85 ) ;
#123 = CARTESIAN_POINT ( 'NONE',  ( 0.5000000000000000000, 4.000000000000000000, 0.000000000000000000 ) ) ;
#124 = CARTESIAN_POINT ( 'NONE',  ( 3.061616997868383634E-16, 4.000000000000000000, 0.000000000000000000 ) ) ;
#125 = VECTOR ( 'NONE', #294, 39.37007874015748143 ) ;
#126 = SURFACE_STYLE_FILL_AREA ( #80 ) ;
#127 = SURFACE_SIDE_STYLE ('',( #175 ) ) ;
#128 = DIRECTION ( 'NONE',  ( -1.000000000000000000, 0.000000000000000000, 0.000000000000000000 ) ) ;
#129 = MECHANICAL_DESIGN_GEOMETRIC_PRESENTATION_REPRESENTATION (  '', ( #195 ), #23 ) ;
#130 = DIRECTION ( 'NONE',  ( 0.000000000000000000, -0.000000000000000000, 1.000000000000000000 ) ) ;
#131 = ORIENTED_EDGE ( 'NONE', *, *, #167, .T. ) ;
#132 = CARTESIAN_POINT ( 'NONE',  ( 0.000000000000000000, 1.250000000000000000, -0.5000000000000000000 ) ) ;
#133 = ORIENTED_EDGE ( 'NONE', *, *, #259, .F. ) ;
#134 = PRESENTATION_STYLE_ASSIGNMENT (( #153 ) ) ;
#135 = CIRCLE ( 'NONE', #225, 0.5000000000000000000 ) ;
#136 = ORIENTED_EDGE ( 'NONE', *, *, #285, .F. ) ;
#137 = ADVANCED_FACE ( 'NONE', ( #166 ), #306, .T. ) ;
#138 = PRESENTATION_STYLE_ASSIGNMENT (( #240 ) ) ;
#139 = VERTEX_POINT ( 'NONE', #95 ) ;
#140 = MECHANICAL_DESIGN_GEOMETRIC_PRESENTATION_REPRESENTATION (  '', ( #273 ), #30 ) ;
#141 = CYLINDRICAL_SURFACE ( 'NONE', #243, 0.5000000000000000000 ) ;
#142 = PRESENTATION_LAYER_ASSIGNMENT (  '', '', ( #163 ) ) ;
#143 = SURFACE_SIDE_STYLE ('',( #220 ) ) ;
#144 = DIRECTION ( 'NONE',  ( -1.000000000000000000, 0.000000000000000000, 0.000000000000000000 ) ) ;
#145 = EDGE_CURVE ( 'NONE', #297, #300, #200, .T. ) ;
#146 = UNCERTAINTY_MEASURE_WITH_UNIT (LENGTH_MEASURE( 1.000000000000000082E-05 ), #211, 'distance_accuracy_value', 'NONE');
#147 =( NAMED_UNIT ( * ) PLANE_ANGLE_UNIT ( ) SI_UNIT ( $, .RADIAN. ) );
#148 = AXIS2_PLACEMENT_3D ( 'NONE', #268, #54, #144 ) ;
#149 = DIRECTION ( 'NONE',  ( -0.000000000000000000, -1.000000000000000000, -0.000000000000000000 ) ) ;
#150 = LENGTH_MEASURE_WITH_UNIT ( LENGTH_MEASURE( 0.02539999999999999897 ), #169 );
#151 = ADVANCED_FACE ( 'NONE', ( #51 ), #141, .T. ) ;
#152 = AXIS2_PLACEMENT_3D ( 'NONE', #265, #50, #113 ) ;
#153 = SURFACE_STYLE_USAGE ( .BOTH. , #127 ) ;
#154 = SURFACE_SIDE_STYLE ('',( #126 ) ) ;
#155 =( NAMED_UNIT ( * ) PLANE_ANGLE_UNIT ( ) SI_UNIT ( $, .RADIAN. ) );
#156 = ADVANCED_FACE ( 'NONE', ( #224 ), #122, .F. ) ;
#157 = LINE ( 'NONE', #43, #120 ) ;
#158 = MECHANICAL_DESIGN_GEOMETRIC_PRESENTATION_REPRESENTATION (  '', ( #93 ), #112 ) ;
#159 = FILL_AREA_STYLE_COLOUR ( '', #260 ) ;
#160 = ADVANCED_FACE ( 'NONE', ( #32 ), #248, .T. ) ;
#161 = DIRECTION ( 'NONE',  ( 1.113315271952139481E-16, 1.000000000000000000, -0.000000000000000000 ) ) ;
#162 = APPLICATION_PROTOCOL_DEFINITION ( 'draft international standard', 'automotive_design', 1998, #263 ) ;
#163 = STYLED_ITEM ( 'NONE', ( #134 ), #255 ) ;
#164 = SURFACE_STYLE_FILL_AREA ( #287 ) ;
#165 = EDGE_CURVE ( 'NONE', #297, #232, #1, .T. ) ;
#166 = FACE_OUTER_BOUND ( 'NONE', #40, .T. ) ;
#167 = EDGE_CURVE ( 'NONE', #304, #139, #135, .T. ) ;
#168 = DIRECTION ( 'NONE',  ( 0.000000000000000000, 0.000000000000000000, -1.000000000000000000 ) ) ;
#169 =( LENGTH_UNIT ( ) NAMED_UNIT ( * ) SI_UNIT ( $, .METRE. ) );
#170 = DIRECTION ( 'NONE',  ( 1.113315271952139481E-16, 1.000000000000000000, -0.000000000000000000 ) ) ;
#171 =( NAMED_UNIT ( * ) SI_UNIT ( $, .STERADIAN. ) SOLID_ANGLE_UNIT ( ) );
#172 = LENGTH_MEASURE_WITH_UNIT ( LENGTH_MEASURE( 0.02539999999999999897 ), #226 );
#173 = AXIS2_PLACEMENT_3D ( 'NONE', #94, #290, #25 ) ;
#174 = PRESENTATION_LAYER_ASSIGNMENT (  '', '', ( #281 ) ) ;
#175 = SURFACE_STYLE_FILL_AREA ( #201 ) ;
#176 = ORIENTED_EDGE ( 'NONE', *, *, #231, .F. ) ;
#177 = DIRECTION ( 'NONE',  ( 1.113315271952139481E-16, 1.000000000000000000, -0.000000000000000000 ) ) ;
#178 = ORIENTED_EDGE ( 'NONE', *, *, #222, .F. ) ;
#179 = DIRECTION ( 'NONE',  ( -0.000000000000000000, -1.000000000000000000, -0.000000000000000000 ) ) ;
#180 = UNCERTAINTY_MEASURE_WITH_UNIT (LENGTH_MEASURE( 1.000000000000000082E-05 ), #110, 'distance_accuracy_value', 'NONE');
#181 =( GEOMETRIC_REPRESENTATION_CONTEXT ( 3 ) GLOBAL_UNCERTAINTY_ASSIGNED_CONTEXT ( ( #146 ) ) GLOBAL_UNIT_ASSIGNED_CONTEXT ( ( #211, #258, #46 ) ) REPRESENTATION_CONTEXT ( 'NONE', 'WORKASPACE' ) );
#182 = LENGTH_MEASURE_WITH_UNIT ( LENGTH_MEASURE( 0.02539999999999999897 ), #22 );
#183 = PRESENTATION_STYLE_ASSIGNMENT (( #246 ) ) ;
#184 = PRODUCT_CONTEXT ( 'NONE', #8, 'mechanical' ) ;
#185 = EDGE_LOOP ( 'NONE', ( #77, #7 ) ) ;
#186 = STYLED_ITEM ( 'NONE', ( #183 ), #52 ) ;
#187 = AXIS2_PLACEMENT_3D ( 'NONE', #198, #92, #256 ) ;
#188 = DIMENSIONAL_EXPONENTS ( 1.000000000000000000, 0.000000000000000000, 0.000000000000000000, 0.000000000000000000, 0.000000000000000000, 0.000000000000000000, 0.000000000000000000 ) ;
#189 = PRODUCT ( '01737', '01737', '', ( #184 ) ) ;
#190 =( CONVERSION_BASED_UNIT ( 'INCH', #172 ) LENGTH_UNIT ( ) NAMED_UNIT ( #267 ) );
#191 = DIRECTION ( 'NONE',  ( 0.000000000000000000, -1.000000000000000000, -0.000000000000000000 ) ) ;
#192 = SURFACE_STYLE_USAGE ( .BOTH. , #36 ) ;
#193 = UNCERTAINTY_MEASURE_WITH_UNIT (LENGTH_MEASURE( 1.000000000000000082E-05 ), #271, 'distance_accuracy_value', 'NONE');
#194 = CARTESIAN_POINT ( 'NONE',  ( 6.123233995736766036E-17, 0.000000000000000000, 0.5000000000000000000 ) ) ;
#195 = STYLED_ITEM ( 'NONE', ( #218 ), #217 ) ;
#196 = FILL_AREA_STYLE_COLOUR ( '', #230 ) ;
#197 = EDGE_CURVE ( 'NONE', #244, #87, #82, .T. ) ;
#198 = CARTESIAN_POINT ( 'NONE',  ( 3.098677236904665650E-33, 1.250000000000000000, 0.000000000000000000 ) ) ;
#199 = ORIENTED_EDGE ( 'NONE', *, *, #109, .F. ) ;
#200 = CIRCLE ( 'NONE', #238, 0.5000000000000000000 ) ;
#201 = FILL_AREA_STYLE ('',( #159 ) ) ;
#202 = CARTESIAN_POINT ( 'NONE',  ( 0.000000000000000000, 1.250000000000000000, 0.000000000000000000 ) ) ;
#203 = FACE_OUTER_BOUND ( 'NONE', #119, .T. ) ;
#204 = CLOSED_SHELL ( 'NONE', ( #20, #250, #137, #156 ) ) ;
#205 = COLOUR_RGB ( '',1.000000000000000000, 0.000000000000000000, 0.000000000000000000 ) ;
#206 = ADVANCED_FACE ( 'NONE', ( #203 ), #107, .T. ) ;
#207 = CARTESIAN_POINT ( 'NONE',  ( 0.000000000000000000, 1.250000000000000000, 0.000000000000000000 ) ) ;
#208 =( NAMED_UNIT ( * ) SI_UNIT ( $, .STERADIAN. ) SOLID_ANGLE_UNIT ( ) );
#209 =( GEOMETRIC_REPRESENTATION_CONTEXT ( 3 ) GLOBAL_UNCERTAINTY_ASSIGNED_CONTEXT ( ( #45 ) ) GLOBAL_UNIT_ASSIGNED_CONTEXT ( ( #190, #81, #67 ) ) REPRESENTATION_CONTEXT ( 'NONE', 'WORKASPACE' ) );
#210 = DIRECTION ( 'NONE',  ( 1.113315271952139481E-16, 1.000000000000000000, -0.000000000000000000 ) ) ;
#211 =( CONVERSION_BASED_UNIT ( 'INCH', #24 ) LENGTH_UNIT ( ) NAMED_UNIT ( #223 ) );
#212 = ORIENTED_EDGE ( 'NONE', *, *, #145, .F. ) ;
#213 = EDGE_CURVE ( 'NONE', #232, #106, #57, .T. ) ;
#214 = SURFACE_SIDE_STYLE ('',( #164 ) ) ;
#215 = AXIS2_PLACEMENT_3D ( 'NONE', #49, #97, #75 ) ;
#216 = PRESENTATION_STYLE_ASSIGNMENT (( #101 ) ) ;
#217 = ADVANCED_FACE ( 'NONE', ( #53 ), #31, .T. ) ;
#218 = PRESENTATION_STYLE_ASSIGNMENT (( #245 ) ) ;
#219 = FILL_AREA_STYLE_COLOUR ( '', #98 ) ;
#220 = SURFACE_STYLE_FILL_AREA ( #247 ) ;
#221 = DIRECTION ( 'NONE',  ( 0.000000000000000000, 0.000000000000000000, -1.000000000000000000 ) ) ;
#222 = EDGE_CURVE ( 'NONE', #300, #106, #14, .T. ) ;
#223 = DIMENSIONAL_EXPONENTS ( 1.000000000000000000, 0.000000000000000000, 0.000000000000000000, 0.000000000000000000, 0.000000000000000000, 0.000000000000000000, 0.000000000000000000 ) ;
#224 = FACE_OUTER_BOUND ( 'NONE', #185, .T. ) ;
#225 = AXIS2_PLACEMENT_3D ( 'NONE', #83, #170, #58 ) ;
#226 =( LENGTH_UNIT ( ) NAMED_UNIT ( * ) SI_UNIT ( $, .METRE. ) );
#227 =( CONVERSION_BASED_UNIT ( 'INCH', #301 ) LENGTH_UNIT ( ) NAMED_UNIT ( #121 ) );
#228 = EDGE_LOOP ( 'NONE', ( #229, #199 ) ) ;
#229 = ORIENTED_EDGE ( 'NONE', *, *, #167, .F. ) ;
#230 = COLOUR_RGB ( '',1.000000000000000000, 0.000000000000000000, 0.000000000000000000 ) ;
#231 = EDGE_CURVE ( 'NONE', #304, #87, #65, .T. ) ;
#232 = VERTEX_POINT ( 'NONE', #39 ) ;
#233 = DIMENSIONAL_EXPONENTS ( 1.000000000000000000, 0.000000000000000000, 0.000000000000000000, 0.000000000000000000, 0.000000000000000000, 0.000000000000000000, 0.000000000000000000 ) ;
#234 = CARTESIAN_POINT ( 'NONE',  ( -0.5000000000000000000, 1.250000000000000000, 0.000000000000000000 ) ) ;
#235 = ORIENTED_EDGE ( 'NONE', *, *, #145, .T. ) ;
#236 = FILL_AREA_STYLE ('',( #73 ) ) ;
#237 = MECHANICAL_DESIGN_GEOMETRIC_PRESENTATION_REPRESENTATION (  '', ( #281 ), #209 ) ;
#238 = AXIS2_PLACEMENT_3D ( 'NONE', #207, #76, #168 ) ;
#239 = AXIS2_PLACEMENT_3D ( 'NONE', #202, #179, #279 ) ;
#240 = SURFACE_STYLE_USAGE ( .BOTH. , #15 ) ;
#241 = ORIENTED_EDGE ( 'NONE', *, *, #259, .T. ) ;
#242 = ORIENTED_EDGE ( 'NONE', *, *, #165, .T. ) ;
#243 = AXIS2_PLACEMENT_3D ( 'NONE', #56, #3, #62 ) ;
#244 = VERTEX_POINT ( 'NONE', #111 ) ;
#245 = SURFACE_STYLE_USAGE ( .BOTH. , #143 ) ;
#246 = SURFACE_STYLE_USAGE ( .BOTH. , #214 ) ;
#247 = FILL_AREA_STYLE ('',( #196 ) ) ;
#248 = CYLINDRICAL_SURFACE ( 'NONE', #302, 0.5000000000000000000 ) ;
#249 = PRESENTATION_STYLE_ASSIGNMENT (( #192 ) ) ;
#250 = ADVANCED_FACE ( 'NONE', ( #278 ), #10, .F. ) ;
#251 = CLOSED_SHELL ( 'NONE', ( #151, #217, #160, #206 ) ) ;
#252 = PRESENTATION_LAYER_ASSIGNMENT (  '', '', ( #273 ) ) ;
#253 = MECHANICAL_DESIGN_GEOMETRIC_PRESENTATION_REPRESENTATION (  '', ( #163 ), #37 ) ;
#254 = EDGE_CURVE ( 'NONE', #106, #232, #293, .T. ) ;
#255 = MANIFOLD_SOLID_BREP ( 'Revolve - Cutting Edge', #251 ) ;
#256 = DIRECTION ( 'NONE',  ( -1.000000000000000000, 1.113315271952139481E-16, 0.000000000000000000 ) ) ;
#257 = AXIS2_PLACEMENT_3D ( 'NONE', #4, #191, #55 ) ;
#258 =( NAMED_UNIT ( * ) PLANE_ANGLE_UNIT ( ) SI_UNIT ( $, .RADIAN. ) );
#259 = EDGE_CURVE ( 'NONE', #139, #244, #157, .T. ) ;
#260 = COLOUR_RGB ( '',0.7921568627450980005, 0.8196078431372548767, 0.9333333333333333481 ) ;
#261 = EDGE_LOOP ( 'NONE', ( #136, #212 ) ) ;
#262 = ORIENTED_EDGE ( 'NONE', *, *, #197, .F. ) ;
#263 = APPLICATION_CONTEXT ( 'automotive_design' ) ;
#264 = CARTESIAN_POINT ( 'NONE',  ( 0.000000000000000000, 0.000000000000000000, -0.5000000000000000000 ) ) ;
#265 = CARTESIAN_POINT ( 'NONE',  ( 0.000000000000000000, 0.000000000000000000, 0.000000000000000000 ) ) ;
#266 = EDGE_LOOP ( 'NONE', ( #70, #235, #305, #280 ) ) ;
#267 = DIMENSIONAL_EXPONENTS ( 1.000000000000000000, 0.000000000000000000, 0.000000000000000000, 0.000000000000000000, 0.000000000000000000, 0.000000000000000000, 0.000000000000000000 ) ;
#268 = CARTESIAN_POINT ( 'NONE',  ( 3.061616997868383634E-16, 4.000000000000000000, 0.000000000000000000 ) ) ;
#269 = DIRECTION ( 'NONE',  ( 0.000000000000000000, 0.000000000000000000, -1.000000000000000000 ) ) ;
#270 = UNCERTAINTY_MEASURE_WITH_UNIT (LENGTH_MEASURE( 1.000000000000000082E-05 ), #227, 'distance_accuracy_value', 'NONE');
#271 =( CONVERSION_BASED_UNIT ( 'INCH', #99 ) LENGTH_UNIT ( ) NAMED_UNIT ( #33 ) );
#272 =( CONVERSION_BASED_UNIT ( 'INCH', #150 ) LENGTH_UNIT ( ) NAMED_UNIT ( #188 ) );
#273 = STYLED_ITEM ( 'NONE', ( #216 ), #151 ) ;
#274 = DIRECTION ( 'NONE',  ( 1.000000000000000000, -1.113315271952139481E-16, 0.000000000000000000 ) ) ;
#275 = DIRECTION ( 'NONE',  ( -0.000000000000000000, -1.000000000000000000, -0.000000000000000000 ) ) ;
#276 = CARTESIAN_POINT ( 'NONE',  ( -0.4999999999999996114, 4.000000000000000000, 0.000000000000000000 ) ) ;
#277 = ORIENTED_EDGE ( 'NONE', *, *, #231, .T. ) ;
#278 = FACE_OUTER_BOUND ( 'NONE', #228, .T. ) ;
#279 = DIRECTION ( 'NONE',  ( 0.000000000000000000, 0.000000000000000000, -1.000000000000000000 ) ) ;
#280 = ORIENTED_EDGE ( 'NONE', *, *, #213, .F. ) ;
#281 = STYLED_ITEM ( 'NONE', ( #249 ), #160 ) ;
#282 = UNCERTAINTY_MEASURE_WITH_UNIT (LENGTH_MEASURE( 1.000000000000000082E-05 ), #284, 'distance_accuracy_value', 'NONE');
#283 = SHAPE_DEFINITION_REPRESENTATION ( #28, #9 ) ;
#284 =( CONVERSION_BASED_UNIT ( 'INCH', #182 ) LENGTH_UNIT ( ) NAMED_UNIT ( #233 ) );
#285 = EDGE_CURVE ( 'NONE', #300, #297, #303, .T. ) ;
#286 = DIRECTION ( 'NONE',  ( -1.000000000000000000, 0.000000000000000000, 0.000000000000000000 ) ) ;
#287 = FILL_AREA_STYLE ('',( #307 ) ) ;
#288 = COLOUR_RGB ( '',0.7921568627450980005, 0.8196078431372548767, 0.9333333333333333481 ) ;
#289 = AXIS2_PLACEMENT_3D ( 'NONE', #104, #149, #269 ) ;
#290 = DIRECTION ( 'NONE',  ( 1.113315271952139481E-16, 1.000000000000000000, -0.000000000000000000 ) ) ;
#291 = PRODUCT_RELATED_PRODUCT_CATEGORY ( 'part', '', ( #189 ) ) ;
#292 =( LENGTH_UNIT ( ) NAMED_UNIT ( * ) SI_UNIT ( $, .METRE. ) );
#293 = CIRCLE ( 'NONE', #102, 0.5000000000000000000 ) ;
#294 = DIRECTION ( 'NONE',  ( -0.000000000000000000, -1.000000000000000000, -0.000000000000000000 ) ) ;
#295 = DIRECTION ( 'NONE',  ( -1.113315271952139481E-16, -1.000000000000000000, 0.000000000000000000 ) ) ;
#296 = DIRECTION ( 'NONE',  ( -0.000000000000000000, -1.000000000000000000, -0.000000000000000000 ) ) ;
#297 = VERTEX_POINT ( 'NONE', #71 ) ;
#298 = PRESENTATION_LAYER_ASSIGNMENT (  '', '', ( #195 ) ) ;
#299 =( NAMED_UNIT ( * ) PLANE_ANGLE_UNIT ( ) SI_UNIT ( $, .RADIAN. ) );
#300 = VERTEX_POINT ( 'NONE', #132 ) ;
#301 = LENGTH_MEASURE_WITH_UNIT ( LENGTH_MEASURE( 0.02539999999999999897 ), #292 );
#302 = AXIS2_PLACEMENT_3D ( 'NONE', #308, #34, #221 ) ;
#303 = CIRCLE ( 'NONE', #239, 0.5000000000000000000 ) ;
#304 = VERTEX_POINT ( 'NONE', #234 ) ;
#305 = ORIENTED_EDGE ( 'NONE', *, *, #222, .T. ) ;
#306 = CYLINDRICAL_SURFACE ( 'NONE', #148, 0.4999999999999998335 ) ;
#307 = FILL_AREA_STYLE_COLOUR ( '', #288 ) ;
#308 = CARTESIAN_POINT ( 'NONE',  ( 0.000000000000000000, 0.000000000000000000, 0.000000000000000000 ) ) ;
#309 =( NAMED_UNIT ( * ) PLANE_ANGLE_UNIT ( ) SI_UNIT ( $, .RADIAN. ) );
ENDSEC;
END-ISO-10303-21;
