ISO-10303-21;
HEADER;
FILE_DESCRIPTION (( 'STEP AP214' ),
    '1' );
FILE_NAME ('Micro_SBM-625-3X.STEP',
    '2021-09-02T17:03:34',
    ( '' ),
    ( '' ),
    'SwSTEP 2.0',
    'SolidWorks 2020',
    '' );
FILE_SCHEMA (( 'AUTOMOTIVE_DESIGN' ));
ENDSEC;

DATA;
#1 = SHAPE_DEFINITION_REPRESENTATION ( #286, #309 ) ;
#2 = VERTEX_POINT ( 'NONE', #103 ) ;
#3 = DIRECTION ( 'NONE',  ( 1.000000000000000000, 0.0000000000000000000, 0.0000000000000000000 ) ) ;
#4 = EDGE_CURVE ( 'NONE', #238, #143, #66, .T. ) ;
#5 = AXIS2_PLACEMENT_3D ( 'NONE', #257, #10, #233 ) ;
#6 = ORIENTED_EDGE ( 'NONE', *, *, #11, .T. ) ;
#7 = EDGE_CURVE ( 'NONE', #17, #173, #232, .T. ) ;
#8 = ORIENTED_EDGE ( 'NONE', *, *, #62, .F. ) ;
#9 = EDGE_LOOP ( 'NONE', ( #276, #153 ) ) ;
#10 = DIRECTION ( 'NONE',  ( -0.0000000000000000000, -0.0000000000000000000, -1.000000000000000000 ) ) ;
#11 = EDGE_CURVE ( 'NONE', #299, #275, #281, .T. ) ;
#12 = ORIENTED_EDGE ( 'NONE', *, *, #18, .T. ) ;
#13 = EDGE_LOOP ( 'NONE', ( #123, #179, #167, #96 ) ) ;
#14 = CIRCLE ( 'NONE', #221, 0.2499999999999998890 ) ;
#15 = AXIS2_PLACEMENT_3D ( 'NONE', #225, #321, #3 ) ;
#16 = CARTESIAN_POINT ( 'NONE',  ( 0.0000000000000000000, 0.0000000000000000000, 1.699999999999999956 ) ) ;
#17 = VERTEX_POINT ( 'NONE', #99 ) ;
#18 = EDGE_CURVE ( 'NONE', #145, #198, #100, .T. ) ;
#19 = DIRECTION ( 'NONE',  ( 0.0000000000000000000, 0.0000000000000000000, 1.000000000000000000 ) ) ;
#20 = PRESENTATION_LAYER_ASSIGNMENT (  '', '', ( #130 ) ) ;
#21 = DIRECTION ( 'NONE',  ( 1.000000000000000000, 0.0000000000000000000, 0.0000000000000000000 ) ) ;
#22 = DIRECTION ( 'NONE',  ( -0.0000000000000000000, -0.0000000000000000000, -1.000000000000000000 ) ) ;
#23 = DIRECTION ( 'NONE',  ( -0.0000000000000000000, -0.0000000000000000000, -1.000000000000000000 ) ) ;
#24 = UNCERTAINTY_MEASURE_WITH_UNIT (LENGTH_MEASURE( 1.000000000000000082E-05 ), #274, 'distance_accuracy_value', 'NONE');
#25 = DIRECTION ( 'NONE',  ( -1.000000000000000000, 0.0000000000000000000, 0.0000000000000000000 ) ) ;
#26 = VECTOR ( 'NONE', #199, 39.37007874015748143 ) ;
#27 = PRESENTATION_STYLE_ASSIGNMENT (( #187 ) ) ;
#28 = ORIENTED_EDGE ( 'NONE', *, *, #135, .T. ) ;
#29 = ORIENTED_EDGE ( 'NONE', *, *, #226, .F. ) ;
#30 = CARTESIAN_POINT ( 'NONE',  ( 0.2974999999999997646, 3.735172737399425174E-17, 4.000000000000000000 ) ) ;
#31 = AXIS2_PLACEMENT_3D ( 'NONE', #263, #127, #25 ) ;
#32 = ADVANCED_FACE ( 'NONE', ( #204 ), #39, .T. ) ;
#33 = DIRECTION ( 'NONE',  ( 1.000000000000000000, 0.0000000000000000000, 0.0000000000000000000 ) ) ;
#34 = EDGE_LOOP ( 'NONE', ( #126, #202, #336, #262, #43 ) ) ;
#35 = DIMENSIONAL_EXPONENTS ( 1.000000000000000000, 0.0000000000000000000, 0.0000000000000000000, 0.0000000000000000000, 0.0000000000000000000, 0.0000000000000000000, 0.0000000000000000000 ) ;
#36 = VERTEX_POINT ( 'NONE', #73 ) ;
#37 = AXIS2_PLACEMENT_3D ( 'NONE', #78, #293, #51 ) ;
#38 =( GEOMETRIC_REPRESENTATION_CONTEXT ( 3 ) GLOBAL_UNCERTAINTY_ASSIGNED_CONTEXT ( ( #108 ) ) GLOBAL_UNIT_ASSIGNED_CONTEXT ( ( #217, #219, #297 ) ) REPRESENTATION_CONTEXT ( 'NONE', 'WORKASPACE' ) );
#39 = CYLINDRICAL_SURFACE ( 'NONE', #312, 0.3125000000000000000 ) ;
#40 = CARTESIAN_POINT ( 'NONE',  ( 0.3437499999999997224, 0.0000000000000000000, 2.049999999999995826 ) ) ;
#41 = ORIENTED_EDGE ( 'NONE', *, *, #339, .T. ) ;
#42 = FILL_AREA_STYLE ('',( #190 ) ) ;
#43 = ORIENTED_EDGE ( 'NONE', *, *, #339, .F. ) ;
#44 = AXIS2_PLACEMENT_3D ( 'NONE', #283, #284, #150 ) ;
#45 = EDGE_CURVE ( 'NONE', #238, #145, #81, .T. ) ;
#46 = DIRECTION ( 'NONE',  ( 0.0000000000000000000, 0.0000000000000000000, 1.000000000000000000 ) ) ;
#47 = DIRECTION ( 'NONE',  ( -1.000000000000000000, 0.0000000000000000000, 0.0000000000000000000 ) ) ;
#48 = LINE ( 'NONE', #210, #266 ) ;
#49 = EDGE_CURVE ( 'NONE', #36, #218, #97, .T. ) ;
#50 = AXIS2_PLACEMENT_3D ( 'NONE', #195, #162, #53 ) ;
#51 = DIRECTION ( 'NONE',  ( -1.000000000000000000, 0.0000000000000000000, 0.0000000000000000000 ) ) ;
#52 = DIRECTION ( 'NONE',  ( -1.000000000000000000, 0.0000000000000000000, 0.0000000000000000000 ) ) ;
#53 = DIRECTION ( 'NONE',  ( -1.000000000000000000, 0.0000000000000000000, 0.0000000000000000000 ) ) ;
#54 = PRESENTATION_STYLE_ASSIGNMENT (( #178 ) ) ;
#55 = FILL_AREA_STYLE ('',( #320 ) ) ;
#56 = AXIS2_PLACEMENT_3D ( 'NONE', #209, #131, #287 ) ;
#57 = PRESENTATION_LAYER_ASSIGNMENT (  '', '', ( #267 ) ) ;
#58 = DIRECTION ( 'NONE',  ( -0.0000000000000000000, -0.0000000000000000000, -1.000000000000000000 ) ) ;
#59 = DIRECTION ( 'NONE',  ( 0.0000000000000000000, 1.000000000000000000, 0.0000000000000000000 ) ) ;
#60 = LENGTH_MEASURE_WITH_UNIT ( LENGTH_MEASURE( 0.02539999999999999897 ), #250 );
#61 = FACE_OUTER_BOUND ( 'NONE', #306, .T. ) ;
#62 = EDGE_CURVE ( 'NONE', #143, #198, #241, .T. ) ;
#63 = AXIS2_PLACEMENT_3D ( 'NONE', #16, #125, #335 ) ;
#64 = ORIENTED_EDGE ( 'NONE', *, *, #18, .F. ) ;
#65 = APPLICATION_PROTOCOL_DEFINITION ( 'draft international standard', 'automotive_design', 1998, #149 ) ;
#66 = LINE ( 'NONE', #234, #119 ) ;
#67 = EDGE_LOOP ( 'NONE', ( #29, #28, #310, #120 ) ) ;
#68 = CONICAL_SURFACE ( 'NONE', #136, 0.3437499999999997224, 0.08904958263449799793 ) ;
#69 = AXIS2_PLACEMENT_3D ( 'NONE', #223, #58, #277 ) ;
#70 = DIRECTION ( 'NONE',  ( -1.000000000000000000, 0.0000000000000000000, 0.0000000000000000000 ) ) ;
#71 = VERTEX_POINT ( 'NONE', #258 ) ;
#72 = SURFACE_SIDE_STYLE ('',( #122 ) ) ;
#73 = CARTESIAN_POINT ( 'NONE',  ( 0.0000000000000000000, 0.2499999999999999167, 0.5000000000000001110 ) ) ;
#74 = ADVANCED_FACE ( 'NONE', ( #152 ), #157, .T. ) ;
#75 = FACE_OUTER_BOUND ( 'NONE', #114, .T. ) ;
#76 = CIRCLE ( 'NONE', #147, 0.3125000000000000000 ) ;
#77 = FACE_OUTER_BOUND ( 'NONE', #200, .T. ) ;
#78 = CARTESIAN_POINT ( 'NONE',  ( 0.0000000000000000000, 0.0000000000000000000, 4.000000000000000000 ) ) ;
#79 = DIRECTION ( 'NONE',  ( -0.0000000000000000000, -0.0000000000000000000, -1.000000000000000000 ) ) ;
#80 = CLOSED_SHELL ( 'NONE', ( #185, #32, #116, #220, #211, #331, #239, #343, #244, #101, #74 ) ) ;
#81 = CIRCLE ( 'NONE', #5, 0.2499999999999998890 ) ;
#82 = CARTESIAN_POINT ( 'NONE',  ( 3.061616997868381785E-17, -0.2499999999999999167, 0.5000000000000001110 ) ) ;
#83 = CARTESIAN_POINT ( 'NONE',  ( 0.0000000000000000000, 0.0000000000000000000, 0.3125000000000000000 ) ) ;
#84 = EDGE_CURVE ( 'NONE', #36, #2, #14, .T. ) ;
#85 = ORIENTED_EDGE ( 'NONE', *, *, #7, .F. ) ;
#86 = VECTOR ( 'NONE', #296, 39.37007874015748143 ) ;
#87 = MECHANICAL_DESIGN_GEOMETRIC_PRESENTATION_REPRESENTATION (  '', ( #130 ), #98 ) ;
#88 = ORIENTED_EDGE ( 'NONE', *, *, #278, .T. ) ;
#89 = LINE ( 'NONE', #168, #175 ) ;
#90 = EDGE_CURVE ( 'NONE', #173, #275, #164, .T. ) ;
#91 = ORIENTED_EDGE ( 'NONE', *, *, #261, .F. ) ;
#92 = SPHERICAL_SURFACE ( 'NONE', #166, 0.3125000000000000000 ) ;
#93 = CIRCLE ( 'NONE', #69, 0.2499999999999998890 ) ;
#94 = DIMENSIONAL_EXPONENTS ( 1.000000000000000000, 0.0000000000000000000, 0.0000000000000000000, 0.0000000000000000000, 0.0000000000000000000, 0.0000000000000000000, 0.0000000000000000000 ) ;
#95 = ORIENTED_EDGE ( 'NONE', *, *, #291, .F. ) ;
#96 = ORIENTED_EDGE ( 'NONE', *, *, #135, .F. ) ;
#97 = CIRCLE ( 'NONE', #183, 0.3125000000000000000 ) ;
#98 =( GEOMETRIC_REPRESENTATION_CONTEXT ( 3 ) GLOBAL_UNCERTAINTY_ASSIGNED_CONTEXT ( ( #24 ) ) GLOBAL_UNIT_ASSIGNED_CONTEXT ( ( #274, #203, #305 ) ) REPRESENTATION_CONTEXT ( 'NONE', 'WORKASPACE' ) );
#99 = CARTESIAN_POINT ( 'NONE',  ( -0.2974999999999997646, 0.0000000000000000000, 4.000000000000000000 ) ) ;
#100 = LINE ( 'NONE', #40, #338 ) ;
#101 = ADVANCED_FACE ( 'NONE', ( #311 ), #107, .T. ) ;
#102 = PRODUCT ( 'Micro_SBM-625-3X', 'Micro_SBM-625-3X', '', ( #228 ) ) ;
#103 = CARTESIAN_POINT ( 'NONE',  ( 0.2499999999999998890, 3.061616997868381785E-17, 0.5000000000000001110 ) ) ;
#104 = DIRECTION ( 'NONE',  ( 0.0000000000000000000, 0.0000000000000000000, 1.000000000000000000 ) ) ;
#105 = CONICAL_SURFACE ( 'NONE', #188, 0.3437499999999997224, 0.08904958263449799793 ) ;
#106 = DIRECTION ( 'NONE',  ( 0.0000000000000000000, 0.0000000000000000000, -1.000000000000000000 ) ) ;
#107 = PLANE ( 'NONE',  #213 ) ;
#108 = UNCERTAINTY_MEASURE_WITH_UNIT (LENGTH_MEASURE( 1.000000000000000082E-05 ), #217, 'distance_accuracy_value', 'NONE');
#109 = DIRECTION ( 'NONE',  ( 1.000000000000000000, 0.0000000000000000000, 0.0000000000000000000 ) ) ;
#110 = CARTESIAN_POINT ( 'NONE',  ( 0.3125000000000000000, 0.0000000000000000000, 1.699999999999999956 ) ) ;
#111 = ORIENTED_EDGE ( 'NONE', *, *, #295, .F. ) ;
#112 = DIRECTION ( 'NONE',  ( -0.0000000000000000000, -0.0000000000000000000, -1.000000000000000000 ) ) ;
#113 =( CONVERSION_BASED_UNIT ( 'INCH', #60 ) LENGTH_UNIT ( ) NAMED_UNIT ( #94 ) );
#114 = EDGE_LOOP ( 'NONE', ( #285, #206, #325, #229 ) ) ;
#115 = CIRCLE ( 'NONE', #196, 0.2974999999999997646 ) ;
#116 = ADVANCED_FACE ( 'NONE', ( #245 ), #156, .T. ) ;
#117 =( NAMED_UNIT ( * ) PLANE_ANGLE_UNIT ( ) SI_UNIT ( $, .RADIAN. ) );
#118 = ORIENTED_EDGE ( 'NONE', *, *, #90, .F. ) ;
#119 = VECTOR ( 'NONE', #334, 39.37007874015748854 ) ;
#120 = ORIENTED_EDGE ( 'NONE', *, *, #62, .T. ) ;
#121 = ORIENTED_EDGE ( 'NONE', *, *, #197, .T. ) ;
#122 = SURFACE_STYLE_FILL_AREA ( #42 ) ;
#123 = ORIENTED_EDGE ( 'NONE', *, *, #11, .F. ) ;
#124 = DIRECTION ( 'NONE',  ( -0.0000000000000000000, -0.0000000000000000000, -1.000000000000000000 ) ) ;
#125 = DIRECTION ( 'NONE',  ( 0.0000000000000000000, 0.0000000000000000000, 1.000000000000000000 ) ) ;
#126 = ORIENTED_EDGE ( 'NONE', *, *, #45, .T. ) ;
#127 = DIRECTION ( 'NONE',  ( -0.0000000000000000000, -0.0000000000000000000, -1.000000000000000000 ) ) ;
#128 = FACE_OUTER_BOUND ( 'NONE', #254, .T. ) ;
#129 = CARTESIAN_POINT ( 'NONE',  ( 0.0000000000000000000, 0.0000000000000000000, 3.984999999999999876 ) ) ;
#130 = STYLED_ITEM ( 'NONE', ( #27 ), #273 ) ;
#131 = DIRECTION ( 'NONE',  ( 1.000000000000000000, 0.0000000000000000000, 0.0000000000000000000 ) ) ;
#132 = DIRECTION ( 'NONE',  ( -0.0000000000000000000, -0.0000000000000000000, -1.000000000000000000 ) ) ;
#133 = UNCERTAINTY_MEASURE_WITH_UNIT (LENGTH_MEASURE( 1.000000000000000082E-05 ), #113, 'distance_accuracy_value', 'NONE');
#134 = DIRECTION ( 'NONE',  ( -1.000000000000000000, 0.0000000000000000000, 0.0000000000000000000 ) ) ;
#135 = EDGE_CURVE ( 'NONE', #275, #173, #142, .T. ) ;
#136 = AXIS2_PLACEMENT_3D ( 'NONE', #337, #104, #208 ) ;
#137 = PRODUCT_DEFINITION_FORMATION_WITH_SPECIFIED_SOURCE ( 'ANY', '', #102, .NOT_KNOWN. ) ;
#138 = DIRECTION ( 'NONE',  ( 0.0000000000000000000, 0.0000000000000000000, 1.000000000000000000 ) ) ;
#139 = CARTESIAN_POINT ( 'NONE',  ( 0.2499999999999998890, 3.061616997868381785E-17, 0.0000000000000000000 ) ) ;
#140 = LINE ( 'NONE', #192, #235 ) ;
#141 = ORIENTED_EDGE ( 'NONE', *, *, #151, .T. ) ;
#142 = CIRCLE ( 'NONE', #207, 0.3125000000000000000 ) ;
#143 = VERTEX_POINT ( 'NONE', #158 ) ;
#144 = FACE_OUTER_BOUND ( 'NONE', #280, .T. ) ;
#145 = VERTEX_POINT ( 'NONE', #159 ) ;
#146 = EDGE_LOOP ( 'NONE', ( #249, #253, #88, #307 ) ) ;
#147 = AXIS2_PLACEMENT_3D ( 'NONE', #319, #289, #154 ) ;
#148 = CARTESIAN_POINT ( 'NONE',  ( 0.0000000000000000000, 0.0000000000000000000, 4.000000000000000000 ) ) ;
#149 = APPLICATION_CONTEXT ( 'automotive_design' ) ;
#150 = DIRECTION ( 'NONE',  ( 1.000000000000000000, 0.0000000000000000000, 0.0000000000000000000 ) ) ;
#151 = EDGE_CURVE ( 'NONE', #145, #238, #256, .T. ) ;
#152 = FACE_OUTER_BOUND ( 'NONE', #13, .T. ) ;
#153 = ORIENTED_EDGE ( 'NONE', *, *, #160, .T. ) ;
#154 = DIRECTION ( 'NONE',  ( -1.224646799147353207E-16, 1.000000000000000000, 0.0000000000000000000 ) ) ;
#155 = CARTESIAN_POINT ( 'NONE',  ( 0.0000000000000000000, 1.913510623667739463E-17, 0.0000000000000000000 ) ) ;
#156 = CYLINDRICAL_SURFACE ( 'NONE', #292, 0.2499999999999998890 ) ;
#157 = CONICAL_SURFACE ( 'NONE', #316, 0.2974999999999997646, 0.7853981633974482790 ) ;
#158 = CARTESIAN_POINT ( 'NONE',  ( -0.3125000000000000000, 3.827021247335478926E-17, 1.699999999999999956 ) ) ;
#159 = CARTESIAN_POINT ( 'NONE',  ( 0.2499999999999998890, 0.0000000000000000000, 1.000000000000000000 ) ) ;
#160 = EDGE_CURVE ( 'NONE', #299, #17, #115, .T. ) ;
#161 = CARTESIAN_POINT ( 'NONE',  ( 0.0000000000000000000, 0.0000000000000000000, 4.000000000000000000 ) ) ;
#162 = DIRECTION ( 'NONE',  ( -0.0000000000000000000, -0.0000000000000000000, -1.000000000000000000 ) ) ;
#163 = LINE ( 'NONE', #139, #86 ) ;
#164 = CIRCLE ( 'NONE', #301, 0.3125000000000000000 ) ;
#165 = VERTEX_POINT ( 'NONE', #82 ) ;
#166 = AXIS2_PLACEMENT_3D ( 'NONE', #83, #300, #59 ) ;
#167 = ORIENTED_EDGE ( 'NONE', *, *, #7, .T. ) ;
#168 = CARTESIAN_POINT ( 'NONE',  ( -0.3125000000000000000, 0.0000000000000000000, 4.000000000000000000 ) ) ;
#169 = LENGTH_MEASURE_WITH_UNIT ( LENGTH_MEASURE( 0.02539999999999999897 ), #328 );
#170 = ORIENTED_EDGE ( 'NONE', *, *, #160, .F. ) ;
#171 = PRODUCT_DEFINITION ( 'UNKNOWN', '', #137, #270 ) ;
#172 = ORIENTED_EDGE ( 'NONE', *, *, #278, .F. ) ;
#173 = VERTEX_POINT ( 'NONE', #315 ) ;
#174 = CIRCLE ( 'NONE', #272, 0.2499999999999998890 ) ;
#175 = VECTOR ( 'NONE', #191, 39.37007874015748143 ) ;
#176 = DIRECTION ( 'NONE',  ( 0.0000000000000000000, 0.0000000000000000000, 1.000000000000000000 ) ) ;
#177 = ORIENTED_EDGE ( 'NONE', *, *, #49, .T. ) ;
#178 = SURFACE_STYLE_USAGE ( .BOTH. , #72 ) ;
#179 = ORIENTED_EDGE ( 'NONE', *, *, #326, .F. ) ;
#180 = SPHERICAL_SURFACE ( 'NONE', #56, 0.3125000000000000000 ) ;
#181 = CARTESIAN_POINT ( 'NONE',  ( 0.0000000000000000000, 0.0000000000000000000, 3.984999999999999876 ) ) ;
#182 = CYLINDRICAL_SURFACE ( 'NONE', #37, 0.3125000000000000000 ) ;
#183 = AXIS2_PLACEMENT_3D ( 'NONE', #330, #70, #176 ) ;
#184 = DIRECTION ( 'NONE',  ( 1.000000000000000000, 0.0000000000000000000, 0.0000000000000000000 ) ) ;
#185 = ADVANCED_FACE ( 'NONE', ( #340 ), #324, .T. ) ;
#186 = DIRECTION ( 'NONE',  ( 0.0000000000000000000, 0.0000000000000000000, -1.000000000000000000 ) ) ;
#187 = SURFACE_STYLE_USAGE ( .BOTH. , #216 ) ;
#188 = AXIS2_PLACEMENT_3D ( 'NONE', #288, #290, #184 ) ;
#189 = LENGTH_MEASURE_WITH_UNIT ( LENGTH_MEASURE( 0.02539999999999999897 ), #345 );
#190 = FILL_AREA_STYLE_COLOUR ( '', #231 ) ;
#191 = DIRECTION ( 'NONE',  ( -0.0000000000000000000, -0.0000000000000000000, -1.000000000000000000 ) ) ;
#192 = CARTESIAN_POINT ( 'NONE',  ( -0.2499999999999998890, 0.0000000000000000000, 0.0000000000000000000 ) ) ;
#193 =( NAMED_UNIT ( * ) SI_UNIT ( $, .STERADIAN. ) SOLID_ANGLE_UNIT ( ) );
#194 = EDGE_LOOP ( 'NONE', ( #170, #6, #118, #85 ) ) ;
#195 = CARTESIAN_POINT ( 'NONE',  ( 0.0000000000000000000, 0.0000000000000000000, 0.0000000000000000000 ) ) ;
#196 = AXIS2_PLACEMENT_3D ( 'NONE', #317, #46, #21 ) ;
#197 = EDGE_CURVE ( 'NONE', #71, #36, #174, .T. ) ;
#198 = VERTEX_POINT ( 'NONE', #110 ) ;
#199 = DIRECTION ( 'NONE',  ( -0.7071067811865475727, 0.0000000000000000000, -0.7071067811865474617 ) ) ;
#200 = EDGE_LOOP ( 'NONE', ( #302, #322, #12, #8 ) ) ;
#201 = CIRCLE ( 'NONE', #15, 0.2974999999999997646 ) ;
#202 = ORIENTED_EDGE ( 'NONE', *, *, #261, .T. ) ;
#203 =( NAMED_UNIT ( * ) PLANE_ANGLE_UNIT ( ) SI_UNIT ( $, .RADIAN. ) );
#204 = FACE_OUTER_BOUND ( 'NONE', #146, .T. ) ;
#205 = DIMENSIONAL_EXPONENTS ( 1.000000000000000000, 0.0000000000000000000, 0.0000000000000000000, 0.0000000000000000000, 0.0000000000000000000, 0.0000000000000000000, 0.0000000000000000000 ) ;
#206 = ORIENTED_EDGE ( 'NONE', *, *, #308, .T. ) ;
#207 = AXIS2_PLACEMENT_3D ( 'NONE', #129, #214, #264 ) ;
#208 = DIRECTION ( 'NONE',  ( 1.000000000000000000, 0.0000000000000000000, 0.0000000000000000000 ) ) ;
#209 = CARTESIAN_POINT ( 'NONE',  ( 0.0000000000000000000, 0.0000000000000000000, 0.3125000000000000000 ) ) ;
#210 = CARTESIAN_POINT ( 'NONE',  ( 0.3125000000000000000, 3.827021247335478926E-17, 4.000000000000000000 ) ) ;
#211 = ADVANCED_FACE ( 'NONE', ( #75 ), #180, .T. ) ;
#212 = APPLICATION_CONTEXT ( 'automotive_design' ) ;
#213 = AXIS2_PLACEMENT_3D ( 'NONE', #268, #19, #265 ) ;
#214 = DIRECTION ( 'NONE',  ( 0.0000000000000000000, 0.0000000000000000000, -1.000000000000000000 ) ) ;
#215 = CIRCLE ( 'NONE', #63, 0.3125000000000000000 ) ;
#216 = SURFACE_SIDE_STYLE ('',( #248 ) ) ;
#217 =( CONVERSION_BASED_UNIT ( 'INCH', #189 ) LENGTH_UNIT ( ) NAMED_UNIT ( #35 ) );
#218 = VERTEX_POINT ( 'NONE', #155 ) ;
#219 =( NAMED_UNIT ( * ) PLANE_ANGLE_UNIT ( ) SI_UNIT ( $, .RADIAN. ) );
#220 = ADVANCED_FACE ( 'NONE', ( #128 ), #68, .T. ) ;
#221 = AXIS2_PLACEMENT_3D ( 'NONE', #269, #22, #47 ) ;
#222 = CIRCLE ( 'NONE', #31, 0.2499999999999998890 ) ;
#223 = CARTESIAN_POINT ( 'NONE',  ( 0.0000000000000000000, 0.0000000000000000000, 0.5000000000000001110 ) ) ;
#224 = ORIENTED_EDGE ( 'NONE', *, *, #308, .F. ) ;
#225 = CARTESIAN_POINT ( 'NONE',  ( 0.0000000000000000000, 0.0000000000000000000, 4.000000000000000000 ) ) ;
#226 = EDGE_CURVE ( 'NONE', #275, #198, #48, .T. ) ;
#227 = ORIENTED_EDGE ( 'NONE', *, *, #295, .T. ) ;
#228 = PRODUCT_CONTEXT ( 'NONE', #212, 'mechanical' ) ;
#229 = ORIENTED_EDGE ( 'NONE', *, *, #49, .F. ) ;
#230 = AXIS2_PLACEMENT_3D ( 'NONE', #344, #186, #240 ) ;
#231 = COLOUR_RGB ( '',0.7921568627450980005, 0.8196078431372548767, 0.9333333333333333481 ) ;
#232 = LINE ( 'NONE', #327, #26 ) ;
#233 = DIRECTION ( 'NONE',  ( -1.000000000000000000, 0.0000000000000000000, 0.0000000000000000000 ) ) ;
#234 = CARTESIAN_POINT ( 'NONE',  ( -0.3437499999999997224, 4.209723372069023183E-17, 2.049999999999995826 ) ) ;
#235 = VECTOR ( 'NONE', #112, 39.37007874015748143 ) ;
#236 = DIRECTION ( 'NONE',  ( -1.000000000000000000, 0.0000000000000000000, 0.0000000000000000000 ) ) ;
#237 = CARTESIAN_POINT ( 'NONE',  ( 0.3125000000000000000, 3.827021247335478926E-17, 3.984999999999999876 ) ) ;
#238 = VERTEX_POINT ( 'NONE', #313 ) ;
#239 = ADVANCED_FACE ( 'NONE', ( #77 ), #105, .T. ) ;
#240 = DIRECTION ( 'NONE',  ( -1.000000000000000000, 0.0000000000000000000, 0.0000000000000000000 ) ) ;
#241 = CIRCLE ( 'NONE', #44, 0.3125000000000000000 ) ;
#242 = MECHANICAL_DESIGN_GEOMETRIC_PRESENTATION_REPRESENTATION (  '', ( #267 ), #260 ) ;
#243 = DIRECTION ( 'NONE',  ( 0.0000000000000000000, 0.0000000000000000000, -1.000000000000000000 ) ) ;
#244 = ADVANCED_FACE ( 'NONE', ( #314 ), #182, .T. ) ;
#245 = FACE_OUTER_BOUND ( 'NONE', #34, .T. ) ;
#246 = CARTESIAN_POINT ( 'NONE',  ( 0.0000000000000000000, 0.0000000000000000000, 1.000000000000000000 ) ) ;
#247 = DIRECTION ( 'NONE',  ( -1.000000000000000000, 0.0000000000000000000, 0.0000000000000000000 ) ) ;
#248 = SURFACE_STYLE_FILL_AREA ( #55 ) ;
#249 = ORIENTED_EDGE ( 'NONE', *, *, #90, .T. ) ;
#250 =( LENGTH_UNIT ( ) NAMED_UNIT ( * ) SI_UNIT ( $, .METRE. ) );
#251 = VECTOR ( 'NONE', #304, 39.37007874015748143 ) ;
#252 = AXIS2_PLACEMENT_3D ( 'NONE', #279, #138, #33 ) ;
#253 = ORIENTED_EDGE ( 'NONE', *, *, #226, .T. ) ;
#254 = EDGE_LOOP ( 'NONE', ( #255, #323, #172, #64 ) ) ;
#255 = ORIENTED_EDGE ( 'NONE', *, *, #45, .F. ) ;
#256 = CIRCLE ( 'NONE', #333, 0.2499999999999998890 ) ;
#257 = CARTESIAN_POINT ( 'NONE',  ( 0.0000000000000000000, 0.0000000000000000000, 1.000000000000000000 ) ) ;
#258 = CARTESIAN_POINT ( 'NONE',  ( -0.2499999999999998890, 0.0000000000000000000, 0.5000000000000001110 ) ) ;
#259 = CARTESIAN_POINT ( 'NONE',  ( 0.2974999999999997646, 3.643324227463372038E-17, 4.000000000000000000 ) ) ;
#260 =( GEOMETRIC_REPRESENTATION_CONTEXT ( 3 ) GLOBAL_UNCERTAINTY_ASSIGNED_CONTEXT ( ( #133 ) ) GLOBAL_UNIT_ASSIGNED_CONTEXT ( ( #113, #117, #193 ) ) REPRESENTATION_CONTEXT ( 'NONE', 'WORKASPACE' ) );
#261 = EDGE_CURVE ( 'NONE', #145, #2, #163, .T. ) ;
#262 = ORIENTED_EDGE ( 'NONE', *, *, #197, .F. ) ;
#263 = CARTESIAN_POINT ( 'NONE',  ( 0.0000000000000000000, 0.0000000000000000000, 0.5000000000000001110 ) ) ;
#264 = DIRECTION ( 'NONE',  ( 1.000000000000000000, 0.0000000000000000000, 0.0000000000000000000 ) ) ;
#265 = DIRECTION ( 'NONE',  ( 1.000000000000000000, 0.0000000000000000000, -0.0000000000000000000 ) ) ;
#266 = VECTOR ( 'NONE', #79, 39.37007874015748143 ) ;
#267 = STYLED_ITEM ( 'NONE', ( #54 ), #309 ) ;
#268 = CARTESIAN_POINT ( 'NONE',  ( 0.0000000000000000000, 0.0000000000000000000, 4.000000000000000000 ) ) ;
#269 = CARTESIAN_POINT ( 'NONE',  ( 0.0000000000000000000, 0.0000000000000000000, 0.5000000000000001110 ) ) ;
#270 = PRODUCT_DEFINITION_CONTEXT ( 'detailed design', #149, 'design' ) ;
#271 = CARTESIAN_POINT ( 'NONE',  ( 0.0000000000000000000, 0.0000000000000000000, 0.5000000000000001110 ) ) ;
#272 = AXIS2_PLACEMENT_3D ( 'NONE', #271, #294, #52 ) ;
#273 = MANIFOLD_SOLID_BREP ( 'Cut-Revolve3', #80 ) ;
#274 =( CONVERSION_BASED_UNIT ( 'INCH', #169 ) LENGTH_UNIT ( ) NAMED_UNIT ( #205 ) );
#275 = VERTEX_POINT ( 'NONE', #237 ) ;
#276 = ORIENTED_EDGE ( 'NONE', *, *, #326, .T. ) ;
#277 = DIRECTION ( 'NONE',  ( -1.000000000000000000, 0.0000000000000000000, 0.0000000000000000000 ) ) ;
#278 = EDGE_CURVE ( 'NONE', #198, #143, #215, .T. ) ;
#279 = CARTESIAN_POINT ( 'NONE',  ( 0.0000000000000000000, 0.0000000000000000000, 0.0000000000000000000 ) ) ;
#280 = EDGE_LOOP ( 'NONE', ( #95, #227, #121, #177 ) ) ;
#281 = LINE ( 'NONE', #259, #251 ) ;
#282 = COLOUR_RGB ( '',0.7921568627450980005, 0.8196078431372548767, 0.9333333333333333481 ) ;
#283 = CARTESIAN_POINT ( 'NONE',  ( 0.0000000000000000000, 0.0000000000000000000, 1.699999999999999956 ) ) ;
#284 = DIRECTION ( 'NONE',  ( 0.0000000000000000000, 0.0000000000000000000, 1.000000000000000000 ) ) ;
#285 = ORIENTED_EDGE ( 'NONE', *, *, #84, .T. ) ;
#286 = PRODUCT_DEFINITION_SHAPE ( 'NONE', 'NONE',  #171 ) ;
#287 = DIRECTION ( 'NONE',  ( 0.0000000000000000000, 1.000000000000000000, 0.0000000000000000000 ) ) ;
#288 = CARTESIAN_POINT ( 'NONE',  ( 0.0000000000000000000, 0.0000000000000000000, 2.049999999999995826 ) ) ;
#289 = DIRECTION ( 'NONE',  ( 1.000000000000000000, 1.224646799147353207E-16, -0.0000000000000000000 ) ) ;
#290 = DIRECTION ( 'NONE',  ( 0.0000000000000000000, 0.0000000000000000000, 1.000000000000000000 ) ) ;
#291 = EDGE_CURVE ( 'NONE', #165, #218, #76, .T. ) ;
#292 = AXIS2_PLACEMENT_3D ( 'NONE', #341, #132, #247 ) ;
#293 = DIRECTION ( 'NONE',  ( -0.0000000000000000000, -0.0000000000000000000, -1.000000000000000000 ) ) ;
#294 = DIRECTION ( 'NONE',  ( -0.0000000000000000000, -0.0000000000000000000, -1.000000000000000000 ) ) ;
#295 = EDGE_CURVE ( 'NONE', #165, #71, #222, .T. ) ;
#296 = DIRECTION ( 'NONE',  ( -0.0000000000000000000, -0.0000000000000000000, -1.000000000000000000 ) ) ;
#297 =( NAMED_UNIT ( * ) SI_UNIT ( $, .STERADIAN. ) SOLID_ANGLE_UNIT ( ) );
#298 = CYLINDRICAL_SURFACE ( 'NONE', #50, 0.2499999999999998890 ) ;
#299 = VERTEX_POINT ( 'NONE', #30 ) ;
#300 = DIRECTION ( 'NONE',  ( 1.000000000000000000, 0.0000000000000000000, 0.0000000000000000000 ) ) ;
#301 = AXIS2_PLACEMENT_3D ( 'NONE', #181, #243, #109 ) ;
#302 = ORIENTED_EDGE ( 'NONE', *, *, #4, .F. ) ;
#303 = PRODUCT_RELATED_PRODUCT_CATEGORY ( 'part', '', ( #102 ) ) ;
#304 = DIRECTION ( 'NONE',  ( 0.7071067811865475727, 8.659560562354932858E-17, -0.7071067811865474617 ) ) ;
#305 =( NAMED_UNIT ( * ) SI_UNIT ( $, .STERADIAN. ) SOLID_ANGLE_UNIT ( ) );
#306 = EDGE_LOOP ( 'NONE', ( #91, #141, #41, #111, #224 ) ) ;
#307 = ORIENTED_EDGE ( 'NONE', *, *, #318, .F. ) ;
#308 = EDGE_CURVE ( 'NONE', #2, #165, #93, .T. ) ;
#309 = ADVANCED_BREP_SHAPE_REPRESENTATION ( 'Micro_SBM-625-3X', ( #273, #252 ), #38 ) ;
#310 = ORIENTED_EDGE ( 'NONE', *, *, #318, .T. ) ;
#311 = FACE_OUTER_BOUND ( 'NONE', #9, .T. ) ;
#312 = AXIS2_PLACEMENT_3D ( 'NONE', #148, #124, #236 ) ;
#313 = CARTESIAN_POINT ( 'NONE',  ( -0.2499999999999998890, 3.444319122601930356E-17, 1.000000000000000000 ) ) ;
#314 = FACE_OUTER_BOUND ( 'NONE', #67, .T. ) ;
#315 = CARTESIAN_POINT ( 'NONE',  ( -0.3125000000000000000, 0.0000000000000000000, 3.984999999999999876 ) ) ;
#316 = AXIS2_PLACEMENT_3D ( 'NONE', #161, #106, #342 ) ;
#317 = CARTESIAN_POINT ( 'NONE',  ( 0.0000000000000000000, 0.0000000000000000000, 4.000000000000000000 ) ) ;
#318 = EDGE_CURVE ( 'NONE', #173, #143, #89, .T. ) ;
#319 = CARTESIAN_POINT ( 'NONE',  ( 0.0000000000000000000, 0.0000000000000000000, 0.3125000000000000000 ) ) ;
#320 = FILL_AREA_STYLE_COLOUR ( '', #282 ) ;
#321 = DIRECTION ( 'NONE',  ( 0.0000000000000000000, 0.0000000000000000000, 1.000000000000000000 ) ) ;
#322 = ORIENTED_EDGE ( 'NONE', *, *, #151, .F. ) ;
#323 = ORIENTED_EDGE ( 'NONE', *, *, #4, .T. ) ;
#324 = CONICAL_SURFACE ( 'NONE', #230, 0.2974999999999997646, 0.7853981633974482790 ) ;
#325 = ORIENTED_EDGE ( 'NONE', *, *, #291, .T. ) ;
#326 = EDGE_CURVE ( 'NONE', #17, #299, #201, .T. ) ;
#327 = CARTESIAN_POINT ( 'NONE',  ( -0.2974999999999997646, 0.0000000000000000000, 4.000000000000000000 ) ) ;
#328 =( LENGTH_UNIT ( ) NAMED_UNIT ( * ) SI_UNIT ( $, .METRE. ) );
#329 = APPLICATION_PROTOCOL_DEFINITION ( 'draft international standard', 'automotive_design', 1998, #212 ) ;
#330 = CARTESIAN_POINT ( 'NONE',  ( 0.0000000000000000000, 0.0000000000000000000, 0.3125000000000000000 ) ) ;
#331 = ADVANCED_FACE ( 'NONE', ( #144 ), #92, .T. ) ;
#332 = DIRECTION ( 'NONE',  ( 0.08893193797450570093, 0.0000000000000000000, 0.9960377053144617854 ) ) ;
#333 = AXIS2_PLACEMENT_3D ( 'NONE', #246, #23, #134 ) ;
#334 = DIRECTION ( 'NONE',  ( -0.08893193797450570093, 1.089102131824493708E-17, 0.9960377053144617854 ) ) ;
#335 = DIRECTION ( 'NONE',  ( 1.000000000000000000, 0.0000000000000000000, 0.0000000000000000000 ) ) ;
#336 = ORIENTED_EDGE ( 'NONE', *, *, #84, .F. ) ;
#337 = CARTESIAN_POINT ( 'NONE',  ( 0.0000000000000000000, 0.0000000000000000000, 2.049999999999995826 ) ) ;
#338 = VECTOR ( 'NONE', #332, 39.37007874015748854 ) ;
#339 = EDGE_CURVE ( 'NONE', #238, #71, #140, .T. ) ;
#340 = FACE_OUTER_BOUND ( 'NONE', #194, .T. ) ;
#341 = CARTESIAN_POINT ( 'NONE',  ( 0.0000000000000000000, 0.0000000000000000000, 0.0000000000000000000 ) ) ;
#342 = DIRECTION ( 'NONE',  ( -1.000000000000000000, 0.0000000000000000000, 0.0000000000000000000 ) ) ;
#343 = ADVANCED_FACE ( 'NONE', ( #61 ), #298, .T. ) ;
#344 = CARTESIAN_POINT ( 'NONE',  ( 0.0000000000000000000, 0.0000000000000000000, 4.000000000000000000 ) ) ;
#345 =( LENGTH_UNIT ( ) NAMED_UNIT ( * ) SI_UNIT ( $, .METRE. ) );
ENDSEC;
END-ISO-10303-21;
