ISO-10303-21;
HEADER;
FILE_DESCRIPTION (( 'STEP AP214' ),
    '1' );
FILE_NAME ('83832.STEP',
    '2023-07-05T16:14:38',
    ( '' ),
    ( '' ),
    'SwSTEP 2.0',
    'SolidWorks 2023',
    '' );
FILE_SCHEMA (( 'AUTOMOTIVE_DESIGN' ));
ENDSEC;

DATA;
#1 = DIRECTION ( 'NONE',  ( -1.215909390471913142E-16, 1.000000000000000000, -0.000000000000000000 ) ) ;
#2 = EDGE_CURVE ( 'NONE', #166, #167, #200, .T. ) ;
#3 = DIRECTION ( 'NONE',  ( -5.452639220268612365E-18, -1.000000000000000000, -0.000000000000000000 ) ) ;
#4 = CLOSED_SHELL ( 'NONE', ( #222, #42, #92, #201 ) ) ;
#5 =( GEOMETRIC_REPRESENTATION_CONTEXT ( 3 ) GLOBAL_UNCERTAINTY_ASSIGNED_CONTEXT ( ( #248 ) ) GLOBAL_UNIT_ASSIGNED_CONTEXT ( ( #241, #78, #21 ) ) REPRESENTATION_CONTEXT ( 'NONE', 'WORKASPACE' ) );
#6 = EDGE_LOOP ( 'NONE', ( #207, #244, #190 ) ) ;
#7 = DIRECTION ( 'NONE',  ( -1.000000000000000000, 0.000000000000000000, 0.000000000000000000 ) ) ;
#8 = SURFACE_STYLE_FILL_AREA ( #101 ) ;
#9 = LINE ( 'NONE', #40, #184 ) ;
#10 = UNCERTAINTY_MEASURE_WITH_UNIT (LENGTH_MEASURE( 1.000000000000000082E-05 ), #112, 'distance_accuracy_value', 'NONE');
#11 = AXIS2_PLACEMENT_3D ( 'NONE', #159, #77, #183 ) ;
#12 = ORIENTED_EDGE ( 'NONE', *, *, #115, .F. ) ;
#13 = PRODUCT_CONTEXT ( 'NONE', #192, 'mechanical' ) ;
#14 = COLOUR_RGB ( '',0.7921568627450980005, 0.8196078431372548767, 0.9333333333333333481 ) ;
#15 = FACE_OUTER_BOUND ( 'NONE', #44, .T. ) ;
#16 = DIMENSIONAL_EXPONENTS ( 1.000000000000000000, 0.000000000000000000, 0.000000000000000000, 0.000000000000000000, 0.000000000000000000, 0.000000000000000000, 0.000000000000000000 ) ;
#17 = PRESENTATION_LAYER_ASSIGNMENT (  '', '', ( #202 ) ) ;
#18 = FILL_AREA_STYLE ('',( #145 ) ) ;
#19 = SURFACE_STYLE_FILL_AREA ( #100 ) ;
#20 = PLANE ( 'NONE',  #165 ) ;
#21 =( NAMED_UNIT ( * ) SI_UNIT ( $, .STERADIAN. ) SOLID_ANGLE_UNIT ( ) );
#22 = CARTESIAN_POINT ( 'NONE',  ( 7.870206804039943619E-19, 0.1443375672974056556, 0.000000000000000000 ) ) ;
#23 = VERTEX_POINT ( 'NONE', #119 ) ;
#24 = FILL_AREA_STYLE_COLOUR ( '', #14 ) ;
#25 = EDGE_LOOP ( 'NONE', ( #38, #81, #86, #116 ) ) ;
#26 = ORIENTED_EDGE ( 'NONE', *, *, #217, .T. ) ;
#27 = LINE ( 'NONE', #169, #263 ) ;
#28 = CARTESIAN_POINT ( 'NONE',  ( 2.146708354436461711E-16, 39.37007874015748143, 0.000000000000000000 ) ) ;
#29 = ORIENTED_EDGE ( 'NONE', *, *, #204, .F. ) ;
#30 = FILL_AREA_STYLE ('',( #146 ) ) ;
#31 = SURFACE_SIDE_STYLE ('',( #208 ) ) ;
#32 = CLOSED_SHELL ( 'NONE', ( #164, #253, #194 ) ) ;
#33 = LENGTH_MEASURE_WITH_UNIT ( LENGTH_MEASURE( 0.02539999999999999897 ), #237 );
#34 = LENGTH_MEASURE_WITH_UNIT ( LENGTH_MEASURE( 0.02539999999999999897 ), #220 );
#35 = FILL_AREA_STYLE ('',( #151 ) ) ;
#36 = DIRECTION ( 'NONE',  ( -1.000000000000000000, -1.365923996832133088E-16, 0.000000000000000000 ) ) ;
#37 = CARTESIAN_POINT ( 'NONE',  ( -6.123233995736772199E-17, 3.000000000000000444, 0.000000000000000000 ) ) ;
#38 = ORIENTED_EDGE ( 'NONE', *, *, #107, .T. ) ;
#39 = PLANE ( 'NONE',  #138 ) ;
#40 = CARTESIAN_POINT ( 'NONE',  ( 0.000000000000000000, 0.000000000000000000, 0.000000000000000000 ) ) ;
#41 = MECHANICAL_DESIGN_GEOMETRIC_PRESENTATION_REPRESENTATION (  '', ( #113 ), #214 ) ;
#42 = ADVANCED_FACE ( 'NONE', ( #187 ), #250, .F. ) ;
#43 = DIRECTION ( 'NONE',  ( 1.000000000000000000, 0.000000000000000000, 0.000000000000000000 ) ) ;
#44 = EDGE_LOOP ( 'NONE', ( #221, #61, #26 ) ) ;
#45 = MECHANICAL_DESIGN_GEOMETRIC_PRESENTATION_REPRESENTATION (  '', ( #202 ), #149 ) ;
#46 =( CONVERSION_BASED_UNIT ( 'INCH', #33 ) LENGTH_UNIT ( ) NAMED_UNIT ( #233 ) );
#47 = DIMENSIONAL_EXPONENTS ( 1.000000000000000000, 0.000000000000000000, 0.000000000000000000, 0.000000000000000000, 0.000000000000000000, 0.000000000000000000, 0.000000000000000000 ) ;
#48 =( NAMED_UNIT ( * ) SI_UNIT ( $, .STERADIAN. ) SOLID_ANGLE_UNIT ( ) );
#49 = CIRCLE ( 'NONE', #11, 0.2500000000000000555 ) ;
#50 = DIRECTION ( 'NONE',  ( -1.000000000000000000, 0.000000000000000000, 0.000000000000000000 ) ) ;
#51 = SURFACE_SIDE_STYLE ('',( #238 ) ) ;
#52 = EDGE_CURVE ( 'NONE', #246, #64, #62, .T. ) ;
#53 = AXIS2_PLACEMENT_3D ( 'NONE', #131, #182, #7 ) ;
#54 = FILL_AREA_STYLE_COLOUR ( '', #105 ) ;
#55 = PRODUCT_DEFINITION_SHAPE ( 'NONE', 'NONE',  #153 ) ;
#56 = CARTESIAN_POINT ( 'NONE',  ( 0.2500000000000000000, 3.000000000000000444, 3.061616997868382402E-17 ) ) ;
#57 =( LENGTH_UNIT ( ) NAMED_UNIT ( * ) SI_UNIT ( $, .METRE. ) );
#58 = MECHANICAL_DESIGN_GEOMETRIC_PRESENTATION_REPRESENTATION (  '', ( #249 ), #84 ) ;
#59 = UNCERTAINTY_MEASURE_WITH_UNIT (LENGTH_MEASURE( 1.000000000000000082E-05 ), #178, 'distance_accuracy_value', 'NONE');
#60 = CARTESIAN_POINT ( 'NONE',  ( 2.859903368367275526E-16, 0.1443375672974054336, 0.000000000000000000 ) ) ;
#61 = ORIENTED_EDGE ( 'NONE', *, *, #230, .T. ) ;
#62 = LINE ( 'NONE', #102, #161 ) ;
#63 = ORIENTED_EDGE ( 'NONE', *, *, #217, .F. ) ;
#64 = VERTEX_POINT ( 'NONE', #135 ) ;
#65 = SURFACE_SIDE_STYLE ('',( #8 ) ) ;
#66 = UNCERTAINTY_MEASURE_WITH_UNIT (LENGTH_MEASURE( 1.000000000000000082E-05 ), #46, 'distance_accuracy_value', 'NONE');
#67 = DIRECTION ( 'NONE',  ( -1.215909390471913142E-16, 1.000000000000000000, -0.000000000000000000 ) ) ;
#68 = EDGE_CURVE ( 'NONE', #223, #166, #9, .T. ) ;
#69 = DIRECTION ( 'NONE',  ( -1.215909390471913142E-16, 1.000000000000000000, -0.000000000000000000 ) ) ;
#70 =( NAMED_UNIT ( * ) SI_UNIT ( $, .STERADIAN. ) SOLID_ANGLE_UNIT ( ) );
#71 = COLOUR_RGB ( '',1.000000000000000000, 0.000000000000000000, 0.000000000000000000 ) ;
#72 = CARTESIAN_POINT ( 'NONE',  ( 2.859903368367275526E-16, 0.1443375672974054336, 0.000000000000000000 ) ) ;
#73 = CARTESIAN_POINT ( 'NONE',  ( 2.146708354436461711E-16, 39.37007874015748143, 0.000000000000000000 ) ) ;
#74 = CIRCLE ( 'NONE', #219, 0.2499999999999997224 ) ;
#75 = SURFACE_SIDE_STYLE ('',( #176 ) ) ;
#76 = PRESENTATION_LAYER_ASSIGNMENT (  '', '', ( #206 ) ) ;
#77 = DIRECTION ( 'NONE',  ( -1.215909390471913142E-16, 1.000000000000000000, -0.000000000000000000 ) ) ;
#78 =( NAMED_UNIT ( * ) PLANE_ANGLE_UNIT ( ) SI_UNIT ( $, .RADIAN. ) );
#79 = FACE_OUTER_BOUND ( 'NONE', #99, .T. ) ;
#80 = DIRECTION ( 'NONE',  ( 1.000000000000000000, 0.000000000000000000, 0.000000000000000000 ) ) ;
#81 = ORIENTED_EDGE ( 'NONE', *, *, #115, .T. ) ;
#82 = MANIFOLD_SOLID_BREP ( 'Revolve - Cutting Edge', #32 ) ;
#83 = DIRECTION ( 'NONE',  ( 0.8660254037844397068, 0.4999999999999979461, 1.060575238724908024E-16 ) ) ;
#84 =( GEOMETRIC_REPRESENTATION_CONTEXT ( 3 ) GLOBAL_UNCERTAINTY_ASSIGNED_CONTEXT ( ( #59 ) ) GLOBAL_UNIT_ASSIGNED_CONTEXT ( ( #178, #130, #70 ) ) REPRESENTATION_CONTEXT ( 'NONE', 'WORKASPACE' ) );
#85 = CARTESIAN_POINT ( 'NONE',  ( -6.123233995736772199E-17, 3.000000000000000444, 0.000000000000000000 ) ) ;
#86 = ORIENTED_EDGE ( 'NONE', *, *, #132, .F. ) ;
#87 = MANIFOLD_SOLID_BREP ( 'Revolve - Tool Body (Pointed)', #4 ) ;
#88 = DIRECTION ( 'NONE',  ( 0.000000000000000000, 0.000000000000000000, 1.000000000000000000 ) ) ;
#89 = AXIS2_PLACEMENT_3D ( 'NONE', #118, #225, #43 ) ;
#90 = MECHANICAL_DESIGN_GEOMETRIC_PRESENTATION_REPRESENTATION (  '', ( #109 ), #5 ) ;
#91 = AXIS2_PLACEMENT_3D ( 'NONE', #257, #88, #168 ) ;
#92 = ADVANCED_FACE ( 'NONE', ( #106 ), #94, .T. ) ;
#93 = PRESENTATION_LAYER_ASSIGNMENT (  '', '', ( #109 ) ) ;
#94 = CYLINDRICAL_SURFACE ( 'NONE', #157, 0.2499999999999998890 ) ;
#95 =( NAMED_UNIT ( * ) PLANE_ANGLE_UNIT ( ) SI_UNIT ( $, .RADIAN. ) );
#96 = LENGTH_MEASURE_WITH_UNIT ( LENGTH_MEASURE( 0.02539999999999999897 ), #265 );
#97 = CARTESIAN_POINT ( 'NONE',  ( 0.2500000000000000000, 3.000000000000000444, 0.000000000000000000 ) ) ;
#98 = FACE_OUTER_BOUND ( 'NONE', #137, .T. ) ;
#99 = EDGE_LOOP ( 'NONE', ( #63, #134 ) ) ;
#100 = FILL_AREA_STYLE ('',( #54 ) ) ;
#101 = FILL_AREA_STYLE ('',( #24 ) ) ;
#102 = CARTESIAN_POINT ( 'NONE',  ( -0.2499999999999999722, 3.000000000000000444, 0.000000000000000000 ) ) ;
#103 = ADVANCED_BREP_SHAPE_REPRESENTATION ( '83832', ( #82, #87, #91 ), #158 ) ;
#104 = ORIENTED_EDGE ( 'NONE', *, *, #52, .T. ) ;
#105 = COLOUR_RGB ( '',1.000000000000000000, 0.000000000000000000, 0.000000000000000000 ) ;
#106 = FACE_OUTER_BOUND ( 'NONE', #170, .T. ) ;
#107 = EDGE_CURVE ( 'NONE', #246, #23, #111, .T. ) ;
#108 = SURFACE_STYLE_USAGE ( .BOTH. , #31 ) ;
#109 = STYLED_ITEM ( 'NONE', ( #140 ), #82 ) ;
#110 = PRODUCT_DEFINITION_FORMATION_WITH_SPECIFIED_SOURCE ( 'ANY', '', #211, .NOT_KNOWN. ) ;
#111 = CIRCLE ( 'NONE', #123, 0.2499999999999997224 ) ;
#112 =( CONVERSION_BASED_UNIT ( 'INCH', #96 ) LENGTH_UNIT ( ) NAMED_UNIT ( #155 ) );
#113 = STYLED_ITEM ( 'NONE', ( #239 ), #164 ) ;
#114 =( NAMED_UNIT ( * ) PLANE_ANGLE_UNIT ( ) SI_UNIT ( $, .RADIAN. ) );
#115 = EDGE_CURVE ( 'NONE', #23, #199, #27, .T. ) ;
#116 = ORIENTED_EDGE ( 'NONE', *, *, #52, .F. ) ;
#117 =( CONVERSION_BASED_UNIT ( 'INCH', #34 ) LENGTH_UNIT ( ) NAMED_UNIT ( #122 ) );
#118 = CARTESIAN_POINT ( 'NONE',  ( 7.870206804039943619E-19, 0.1443375672974056556, 0.000000000000000000 ) ) ;
#119 = CARTESIAN_POINT ( 'NONE',  ( 0.2500000000000000000, 0.1443375672974054613, 3.061616997868382402E-17 ) ) ;
#120 = COLOUR_RGB ( '',1.000000000000000000, 0.000000000000000000, 0.000000000000000000 ) ;
#121 = FACE_OUTER_BOUND ( 'NONE', #6, .T. ) ;
#122 = DIMENSIONAL_EXPONENTS ( 1.000000000000000000, 0.000000000000000000, 0.000000000000000000, 0.000000000000000000, 0.000000000000000000, 0.000000000000000000, 0.000000000000000000 ) ;
#123 = AXIS2_PLACEMENT_3D ( 'NONE', #72, #228, #205 ) ;
#124 = SURFACE_STYLE_USAGE ( .BOTH. , #51 ) ;
#125 =( NAMED_UNIT ( * ) SI_UNIT ( $, .STERADIAN. ) SOLID_ANGLE_UNIT ( ) );
#126 = MECHANICAL_DESIGN_GEOMETRIC_PRESENTATION_REPRESENTATION (  '', ( #206 ), #180 ) ;
#127 = LENGTH_MEASURE_WITH_UNIT ( LENGTH_MEASURE( 0.02539999999999999897 ), #57 );
#128 =( NAMED_UNIT ( * ) SI_UNIT ( $, .STERADIAN. ) SOLID_ANGLE_UNIT ( ) );
#129 = PRODUCT_RELATED_PRODUCT_CATEGORY ( 'part', '', ( #211 ) ) ;
#130 =( NAMED_UNIT ( * ) PLANE_ANGLE_UNIT ( ) SI_UNIT ( $, .RADIAN. ) );
#131 = CARTESIAN_POINT ( 'NONE',  ( -6.123233995736772199E-17, 3.000000000000000444, 0.000000000000000000 ) ) ;
#132 = EDGE_CURVE ( 'NONE', #64, #199, #209, .T. ) ;
#133 = CYLINDRICAL_SURFACE ( 'NONE', #53, 0.2499999999999998890 ) ;
#134 = ORIENTED_EDGE ( 'NONE', *, *, #2, .F. ) ;
#135 = CARTESIAN_POINT ( 'NONE',  ( -0.2500000000000001110, 3.000000000000000444, 0.000000000000000000 ) ) ;
#136 = COLOUR_RGB ( '',0.7921568627450980005, 0.8196078431372548767, 0.9333333333333333481 ) ;
#137 = EDGE_LOOP ( 'NONE', ( #226, #203 ) ) ;
#138 = AXIS2_PLACEMENT_3D ( 'NONE', #22, #215, #243 ) ;
#139 = UNCERTAINTY_MEASURE_WITH_UNIT (LENGTH_MEASURE( 1.000000000000000082E-05 ), #175, 'distance_accuracy_value', 'NONE');
#140 = PRESENTATION_STYLE_ASSIGNMENT (( #247 ) ) ;
#141 = DIRECTION ( 'NONE',  ( -1.000000000000000000, 0.000000000000000000, 0.000000000000000000 ) ) ;
#142 = EDGE_LOOP ( 'NONE', ( #163, #252 ) ) ;
#143 = DIRECTION ( 'NONE',  ( -1.215909390471913142E-16, 1.000000000000000000, -0.000000000000000000 ) ) ;
#144 = AXIS2_PLACEMENT_3D ( 'NONE', #229, #185, #227 ) ;
#145 = FILL_AREA_STYLE_COLOUR ( '', #71 ) ;
#146 = FILL_AREA_STYLE_COLOUR ( '', #120 ) ;
#147 =( LENGTH_UNIT ( ) NAMED_UNIT ( * ) SI_UNIT ( $, .METRE. ) );
#148 = AXIS2_PLACEMENT_3D ( 'NONE', #242, #3, #80 ) ;
#149 =( GEOMETRIC_REPRESENTATION_CONTEXT ( 3 ) GLOBAL_UNCERTAINTY_ASSIGNED_CONTEXT ( ( #10 ) ) GLOBAL_UNIT_ASSIGNED_CONTEXT ( ( #112, #264, #128 ) ) REPRESENTATION_CONTEXT ( 'NONE', 'WORKASPACE' ) );
#150 = DIRECTION ( 'NONE',  ( 5.452639220268612365E-18, 1.000000000000000000, 0.000000000000000000 ) ) ;
#151 = FILL_AREA_STYLE_COLOUR ( '', #136 ) ;
#152 = LENGTH_MEASURE_WITH_UNIT ( LENGTH_MEASURE( 0.02539999999999999897 ), #255 );
#153 = PRODUCT_DEFINITION ( 'UNKNOWN', '', #110, #191 ) ;
#154 = FACE_OUTER_BOUND ( 'NONE', #25, .T. ) ;
#155 = DIMENSIONAL_EXPONENTS ( 1.000000000000000000, 0.000000000000000000, 0.000000000000000000, 0.000000000000000000, 0.000000000000000000, 0.000000000000000000, 0.000000000000000000 ) ;
#156 = PRESENTATION_LAYER_ASSIGNMENT (  '', '', ( #249 ) ) ;
#157 = AXIS2_PLACEMENT_3D ( 'NONE', #85, #67, #141 ) ;
#158 =( GEOMETRIC_REPRESENTATION_CONTEXT ( 3 ) GLOBAL_UNCERTAINTY_ASSIGNED_CONTEXT ( ( #172 ) ) GLOBAL_UNIT_ASSIGNED_CONTEXT ( ( #117, #114, #224 ) ) REPRESENTATION_CONTEXT ( 'NONE', 'WORKASPACE' ) );
#159 = CARTESIAN_POINT ( 'NONE',  ( -6.123233995736772199E-17, 3.000000000000000444, 0.000000000000000000 ) ) ;
#160 = CARTESIAN_POINT ( 'NONE',  ( 0.000000000000000000, 0.000000000000000000, 0.000000000000000000 ) ) ;
#161 = VECTOR ( 'NONE', #188, 39.37007874015748143 ) ;
#162 = LINE ( 'NONE', #245, #189 ) ;
#163 = ORIENTED_EDGE ( 'NONE', *, *, #107, .F. ) ;
#164 = ADVANCED_FACE ( 'NONE', ( #121 ), #251, .T. ) ;
#165 = AXIS2_PLACEMENT_3D ( 'NONE', #97, #218, #179 ) ;
#166 = VERTEX_POINT ( 'NONE', #213 ) ;
#167 = VERTEX_POINT ( 'NONE', #262 ) ;
#168 = DIRECTION ( 'NONE',  ( 1.000000000000000000, 0.000000000000000000, 0.000000000000000000 ) ) ;
#169 = CARTESIAN_POINT ( 'NONE',  ( 0.2499999999999998335, 3.000000000000000444, 3.061616997868381785E-17 ) ) ;
#170 = EDGE_LOOP ( 'NONE', ( #12, #195, #104, #29 ) ) ;
#171 = AXIS2_PLACEMENT_3D ( 'NONE', #73, #150, #50 ) ;
#172 = UNCERTAINTY_MEASURE_WITH_UNIT (LENGTH_MEASURE( 1.000000000000000082E-05 ), #117, 'distance_accuracy_value', 'NONE');
#173 = APPLICATION_CONTEXT ( 'automotive_design' ) ;
#174 = DIMENSIONAL_EXPONENTS ( 1.000000000000000000, 0.000000000000000000, 0.000000000000000000, 0.000000000000000000, 0.000000000000000000, 0.000000000000000000, 0.000000000000000000 ) ;
#175 =( CONVERSION_BASED_UNIT ( 'INCH', #152 ) LENGTH_UNIT ( ) NAMED_UNIT ( #16 ) );
#176 = SURFACE_STYLE_FILL_AREA ( #30 ) ;
#177 = AXIS2_PLACEMENT_3D ( 'NONE', #28, #232, #212 ) ;
#178 =( CONVERSION_BASED_UNIT ( 'INCH', #127 ) LENGTH_UNIT ( ) NAMED_UNIT ( #174 ) );
#179 = DIRECTION ( 'NONE',  ( 1.000000000000000000, 1.215909390471913142E-16, 0.000000000000000000 ) ) ;
#180 =( GEOMETRIC_REPRESENTATION_CONTEXT ( 3 ) GLOBAL_UNCERTAINTY_ASSIGNED_CONTEXT ( ( #66 ) ) GLOBAL_UNIT_ASSIGNED_CONTEXT ( ( #46, #193, #48 ) ) REPRESENTATION_CONTEXT ( 'NONE', 'WORKASPACE' ) );
#181 = DIRECTION ( 'NONE',  ( -0.8660254037844397068, 0.4999999999999979461, 0.000000000000000000 ) ) ;
#182 = DIRECTION ( 'NONE',  ( -1.215909390471913142E-16, 1.000000000000000000, -0.000000000000000000 ) ) ;
#183 = DIRECTION ( 'NONE',  ( -1.000000000000000000, 0.000000000000000000, 0.000000000000000000 ) ) ;
#184 = VECTOR ( 'NONE', #83, 39.37007874015748854 ) ;
#185 = DIRECTION ( 'NONE',  ( -1.215909390471913142E-16, 1.000000000000000000, 0.000000000000000000 ) ) ;
#186 = PRESENTATION_STYLE_ASSIGNMENT (( #216 ) ) ;
#187 = FACE_OUTER_BOUND ( 'NONE', #142, .T. ) ;
#188 = DIRECTION ( 'NONE',  ( -1.215909390471913142E-16, 1.000000000000000000, -0.000000000000000000 ) ) ;
#189 = VECTOR ( 'NONE', #181, 39.37007874015748854 ) ;
#190 = ORIENTED_EDGE ( 'NONE', *, *, #2, .T. ) ;
#191 = PRODUCT_DEFINITION_CONTEXT ( 'detailed design', #173, 'design' ) ;
#192 = APPLICATION_CONTEXT ( 'automotive_design' ) ;
#193 =( NAMED_UNIT ( * ) PLANE_ANGLE_UNIT ( ) SI_UNIT ( $, .RADIAN. ) );
#194 = ADVANCED_FACE ( 'NONE', ( #15 ), #198, .T. ) ;
#195 = ORIENTED_EDGE ( 'NONE', *, *, #234, .T. ) ;
#196 = CIRCLE ( 'NONE', #148, 0.2499999999999999722 ) ;
#197 = SURFACE_SIDE_STYLE ('',( #19 ) ) ;
#198 = CONICAL_SURFACE ( 'NONE', #171, 68.19097667594041923, 1.047197551196600074 ) ;
#199 = VERTEX_POINT ( 'NONE', #56 ) ;
#200 = CIRCLE ( 'NONE', #89, 0.2499999999999999722 ) ;
#201 = ADVANCED_FACE ( 'NONE', ( #98 ), #20, .F. ) ;
#202 = STYLED_ITEM ( 'NONE', ( #186 ), #253 ) ;
#203 = ORIENTED_EDGE ( 'NONE', *, *, #204, .T. ) ;
#204 = EDGE_CURVE ( 'NONE', #199, #64, #49, .T. ) ;
#205 = DIRECTION ( 'NONE',  ( -1.000000000000000000, -1.365923996832133088E-16, 0.000000000000000000 ) ) ;
#206 = STYLED_ITEM ( 'NONE', ( #260 ), #194 ) ;
#207 = ORIENTED_EDGE ( 'NONE', *, *, #230, .F. ) ;
#208 = SURFACE_STYLE_FILL_AREA ( #18 ) ;
#209 = CIRCLE ( 'NONE', #235, 0.2500000000000000555 ) ;
#210 = SHAPE_DEFINITION_REPRESENTATION ( #55, #103 ) ;
#211 = PRODUCT ( '83832', '83832', '', ( #13 ) ) ;
#212 = DIRECTION ( 'NONE',  ( -1.000000000000000000, 0.000000000000000000, 0.000000000000000000 ) ) ;
#213 = CARTESIAN_POINT ( 'NONE',  ( 0.2500000000000000000, 0.1443375672974056556, 3.061616997868383018E-17 ) ) ;
#214 =( GEOMETRIC_REPRESENTATION_CONTEXT ( 3 ) GLOBAL_UNCERTAINTY_ASSIGNED_CONTEXT ( ( #139 ) ) GLOBAL_UNIT_ASSIGNED_CONTEXT ( ( #175, #95, #125 ) ) REPRESENTATION_CONTEXT ( 'NONE', 'WORKASPACE' ) );
#215 = DIRECTION ( 'NONE',  ( 5.452639220268612365E-18, 1.000000000000000000, 0.000000000000000000 ) ) ;
#216 = SURFACE_STYLE_USAGE ( .BOTH. , #197 ) ;
#217 = EDGE_CURVE ( 'NONE', #167, #166, #196, .T. ) ;
#218 = DIRECTION ( 'NONE',  ( 1.215909390471913142E-16, -1.000000000000000000, 0.000000000000000000 ) ) ;
#219 = AXIS2_PLACEMENT_3D ( 'NONE', #60, #1, #36 ) ;
#220 =( LENGTH_UNIT ( ) NAMED_UNIT ( * ) SI_UNIT ( $, .METRE. ) );
#221 = ORIENTED_EDGE ( 'NONE', *, *, #68, .F. ) ;
#222 = ADVANCED_FACE ( 'NONE', ( #154 ), #133, .T. ) ;
#223 = VERTEX_POINT ( 'NONE', #160 ) ;
#224 =( NAMED_UNIT ( * ) SI_UNIT ( $, .STERADIAN. ) SOLID_ANGLE_UNIT ( ) );
#225 = DIRECTION ( 'NONE',  ( -5.452639220268612365E-18, -1.000000000000000000, -0.000000000000000000 ) ) ;
#226 = ORIENTED_EDGE ( 'NONE', *, *, #132, .T. ) ;
#227 = DIRECTION ( 'NONE',  ( -1.000000000000000000, -1.215909390471913142E-16, 0.000000000000000000 ) ) ;
#228 = DIRECTION ( 'NONE',  ( -1.215909390471913142E-16, 1.000000000000000000, -0.000000000000000000 ) ) ;
#229 = CARTESIAN_POINT ( 'NONE',  ( 2.859903368367275526E-16, 0.1443375672974056556, 0.000000000000000000 ) ) ;
#230 = EDGE_CURVE ( 'NONE', #223, #167, #162, .T. ) ;
#231 = DIRECTION ( 'NONE',  ( -1.000000000000000000, 0.000000000000000000, 0.000000000000000000 ) ) ;
#232 = DIRECTION ( 'NONE',  ( 5.452639220268612365E-18, 1.000000000000000000, 0.000000000000000000 ) ) ;
#233 = DIMENSIONAL_EXPONENTS ( 1.000000000000000000, 0.000000000000000000, 0.000000000000000000, 0.000000000000000000, 0.000000000000000000, 0.000000000000000000, 0.000000000000000000 ) ;
#234 = EDGE_CURVE ( 'NONE', #23, #246, #74, .T. ) ;
#235 = AXIS2_PLACEMENT_3D ( 'NONE', #37, #69, #231 ) ;
#236 = APPLICATION_PROTOCOL_DEFINITION ( 'draft international standard', 'automotive_design', 1998, #192 ) ;
#237 =( LENGTH_UNIT ( ) NAMED_UNIT ( * ) SI_UNIT ( $, .METRE. ) );
#238 = SURFACE_STYLE_FILL_AREA ( #35 ) ;
#239 = PRESENTATION_STYLE_ASSIGNMENT (( #108 ) ) ;
#240 = CARTESIAN_POINT ( 'NONE',  ( -0.2499999999999994449, 0.1443375672974054058, 0.000000000000000000 ) ) ;
#241 =( CONVERSION_BASED_UNIT ( 'INCH', #256 ) LENGTH_UNIT ( ) NAMED_UNIT ( #47 ) );
#242 = CARTESIAN_POINT ( 'NONE',  ( 7.870206804039943619E-19, 0.1443375672974056556, 0.000000000000000000 ) ) ;
#243 = DIRECTION ( 'NONE',  ( -1.000000000000000000, 5.452639220268612365E-18, 0.000000000000000000 ) ) ;
#244 = ORIENTED_EDGE ( 'NONE', *, *, #68, .T. ) ;
#245 = CARTESIAN_POINT ( 'NONE',  ( 0.000000000000000000, 0.000000000000000000, 0.000000000000000000 ) ) ;
#246 = VERTEX_POINT ( 'NONE', #240 ) ;
#247 = SURFACE_STYLE_USAGE ( .BOTH. , #65 ) ;
#248 = UNCERTAINTY_MEASURE_WITH_UNIT (LENGTH_MEASURE( 1.000000000000000082E-05 ), #241, 'distance_accuracy_value', 'NONE');
#249 = STYLED_ITEM ( 'NONE', ( #261 ), #87 ) ;
#250 = PLANE ( 'NONE',  #144 ) ;
#251 = CONICAL_SURFACE ( 'NONE', #177, 68.19097667594041923, 1.047197551196600074 ) ;
#252 = ORIENTED_EDGE ( 'NONE', *, *, #234, .F. ) ;
#253 = ADVANCED_FACE ( 'NONE', ( #79 ), #39, .T. ) ;
#254 = APPLICATION_PROTOCOL_DEFINITION ( 'draft international standard', 'automotive_design', 1998, #173 ) ;
#255 =( LENGTH_UNIT ( ) NAMED_UNIT ( * ) SI_UNIT ( $, .METRE. ) );
#256 = LENGTH_MEASURE_WITH_UNIT ( LENGTH_MEASURE( 0.02539999999999999897 ), #147 );
#257 = CARTESIAN_POINT ( 'NONE',  ( 0.000000000000000000, 0.000000000000000000, 0.000000000000000000 ) ) ;
#258 = PRESENTATION_LAYER_ASSIGNMENT (  '', '', ( #113 ) ) ;
#259 = SURFACE_STYLE_USAGE ( .BOTH. , #75 ) ;
#260 = PRESENTATION_STYLE_ASSIGNMENT (( #259 ) ) ;
#261 = PRESENTATION_STYLE_ASSIGNMENT (( #124 ) ) ;
#262 = CARTESIAN_POINT ( 'NONE',  ( -0.2500000000000000000, 0.1443375672974056556, 0.000000000000000000 ) ) ;
#263 = VECTOR ( 'NONE', #143, 39.37007874015748143 ) ;
#264 =( NAMED_UNIT ( * ) PLANE_ANGLE_UNIT ( ) SI_UNIT ( $, .RADIAN. ) );
#265 =( LENGTH_UNIT ( ) NAMED_UNIT ( * ) SI_UNIT ( $, .METRE. ) );
ENDSEC;
END-ISO-10303-21;
