ISO-10303-21;
HEADER;
FILE_DESCRIPTION (( 'STEP AP214' ),
    '1' );
FILE_NAME ('84055.STEP',
    '2023-06-23T11:19:30',
    ( '' ),
    ( '' ),
    'SwSTEP 2.0',
    'SolidWorks 2023',
    '' );
FILE_SCHEMA (( 'AUTOMOTIVE_DESIGN' ));
ENDSEC;

DATA;
#1 = EDGE_LOOP ( 'NONE', ( #164, #241, #245, #136 ) ) ;
#2 = LENGTH_MEASURE_WITH_UNIT ( LENGTH_MEASURE( 0.02539999999999999897 ), #351 );
#3 = EDGE_CURVE ( 'NONE', #8, #342, #315, .T. ) ;
#4 = PLANE ( 'NONE',  #332 ) ;
#5 = MECHANICAL_DESIGN_GEOMETRIC_PRESENTATION_REPRESENTATION (  '', ( #100 ), #12 ) ;
#6 = ORIENTED_EDGE ( 'NONE', *, *, #231, .F. ) ;
#7 = SHAPE_DEFINITION_REPRESENTATION ( #357, #325 ) ;
#8 = VERTEX_POINT ( 'NONE', #317 ) ;
#9 = LENGTH_MEASURE_WITH_UNIT ( LENGTH_MEASURE( 0.02539999999999999897 ), #324 );
#10 = LINE ( 'NONE', #274, #25 ) ;
#11 = DIRECTION ( 'NONE',  ( 1.000000000000000000, 0.000000000000000000, 0.000000000000000000 ) ) ;
#12 =( GEOMETRIC_REPRESENTATION_CONTEXT ( 3 ) GLOBAL_UNCERTAINTY_ASSIGNED_CONTEXT ( ( #199 ) ) GLOBAL_UNIT_ASSIGNED_CONTEXT ( ( #91, #166, #350 ) ) REPRESENTATION_CONTEXT ( 'NONE', 'WORKASPACE' ) );
#13 = ORIENTED_EDGE ( 'NONE', *, *, #43, .F. ) ;
#14 = FILL_AREA_STYLE_COLOUR ( '', #244 ) ;
#15 = CIRCLE ( 'NONE', #31, 0.09375000000000001388 ) ;
#16 = CARTESIAN_POINT ( 'NONE',  ( 7.582401355855259480E-33, 0.5620000000000001661, 0.000000000000000000 ) ) ;
#17 =( NAMED_UNIT ( * ) PLANE_ANGLE_UNIT ( ) SI_UNIT ( $, .RADIAN. ) );
#18 = ADVANCED_FACE ( 'NONE', ( #180 ), #48, .T. ) ;
#19 = FILL_AREA_STYLE ('',( #14 ) ) ;
#20 =( NAMED_UNIT ( * ) SI_UNIT ( $, .STERADIAN. ) SOLID_ANGLE_UNIT ( ) );
#21 = CIRCLE ( 'NONE', #148, 0.09375000000000001388 ) ;
#22 = DIRECTION ( 'NONE',  ( 0.000000000000000000, -0.000000000000000000, 1.000000000000000000 ) ) ;
#23 = FACE_OUTER_BOUND ( 'NONE', #338, .T. ) ;
#24 = DIMENSIONAL_EXPONENTS ( 1.000000000000000000, 0.000000000000000000, 0.000000000000000000, 0.000000000000000000, 0.000000000000000000, 0.000000000000000000, 0.000000000000000000 ) ;
#25 = VECTOR ( 'NONE', #34, 39.37007874015748143 ) ;
#26 = SURFACE_SIDE_STYLE ('',( #50 ) ) ;
#27 = UNCERTAINTY_MEASURE_WITH_UNIT (LENGTH_MEASURE( 1.000000000000000082E-05 ), #308, 'distance_accuracy_value', 'NONE');
#28 = FILL_AREA_STYLE_COLOUR ( '', #314 ) ;
#29 = CARTESIAN_POINT ( 'NONE',  ( 1.148106374200643863E-17, 0.000000000000000000, 0.09375000000000001388 ) ) ;
#30 = DIRECTION ( 'NONE',  ( 0.000000000000000000, 0.000000000000000000, 1.000000000000000000 ) ) ;
#31 = AXIS2_PLACEMENT_3D ( 'NONE', #169, #119, #288 ) ;
#32 = ORIENTED_EDGE ( 'NONE', *, *, #126, .T. ) ;
#33 =( NAMED_UNIT ( * ) SI_UNIT ( $, .STERADIAN. ) SOLID_ANGLE_UNIT ( ) );
#34 = DIRECTION ( 'NONE',  ( -3.159563465292449303E-17, 1.000000000000000000, -0.000000000000000000 ) ) ;
#35 = ORIENTED_EDGE ( 'NONE', *, *, #300, .F. ) ;
#36 = FACE_OUTER_BOUND ( 'NONE', #44, .T. ) ;
#37 = EDGE_CURVE ( 'NONE', #342, #64, #147, .T. ) ;
#38 = MECHANICAL_DESIGN_GEOMETRIC_PRESENTATION_REPRESENTATION (  '', ( #196 ), #93 ) ;
#39 = EDGE_LOOP ( 'NONE', ( #183, #135, #112, #6 ) ) ;
#40 = DIRECTION ( 'NONE',  ( 0.000000000000000000, 0.000000000000000000, -1.000000000000000000 ) ) ;
#41 = CIRCLE ( 'NONE', #114, 0.1250000000000000278 ) ;
#42 = CARTESIAN_POINT ( 'NONE',  ( 0.000000000000000000, 0.5620000000000000551, 0.000000000000000000 ) ) ;
#43 = EDGE_CURVE ( 'NONE', #345, #298, #173, .T. ) ;
#44 = EDGE_LOOP ( 'NONE', ( #187, #160 ) ) ;
#45 = CARTESIAN_POINT ( 'NONE',  ( 0.000000000000000000, 0.000000000000000000, -0.09375000000000001388 ) ) ;
#46 = CARTESIAN_POINT ( 'NONE',  ( -0.1250000000000001388, 2.500000000000000000, 0.000000000000000000 ) ) ;
#47 = DIRECTION ( 'NONE',  ( -1.000000000000000000, 0.000000000000000000, 0.000000000000000000 ) ) ;
#48 = CONICAL_SURFACE ( 'NONE', #219, 0.09375000000000001388, 0.2617993877991504625 ) ;
#49 =( GEOMETRIC_REPRESENTATION_CONTEXT ( 3 ) GLOBAL_UNCERTAINTY_ASSIGNED_CONTEXT ( ( #203 ) ) GLOBAL_UNIT_ASSIGNED_CONTEXT ( ( #326, #331, #215 ) ) REPRESENTATION_CONTEXT ( 'NONE', 'WORKASPACE' ) );
#50 = SURFACE_STYLE_FILL_AREA ( #145 ) ;
#51 = PLANE ( 'NONE',  #281 ) ;
#52 = FILL_AREA_STYLE_COLOUR ( '', #271 ) ;
#53 = DIRECTION ( 'NONE',  ( 3.159563465292449303E-17, -1.000000000000000000, 0.000000000000000000 ) ) ;
#54 = CARTESIAN_POINT ( 'NONE',  ( 7.582401355855259480E-33, 0.5620000000000001661, 0.000000000000000000 ) ) ;
#55 =( CONVERSION_BASED_UNIT ( 'INCH', #278 ) LENGTH_UNIT ( ) NAMED_UNIT ( #96 ) );
#56 = DIRECTION ( 'NONE',  ( -3.159563465292449303E-17, 1.000000000000000000, -0.000000000000000000 ) ) ;
#57 = AXIS2_PLACEMENT_3D ( 'NONE', #188, #110, #85 ) ;
#58 =( GEOMETRIC_REPRESENTATION_CONTEXT ( 3 ) GLOBAL_UNCERTAINTY_ASSIGNED_CONTEXT ( ( #27 ) ) GLOBAL_UNIT_ASSIGNED_CONTEXT ( ( #308, #17, #346 ) ) REPRESENTATION_CONTEXT ( 'NONE', 'WORKASPACE' ) );
#59 = ORIENTED_EDGE ( 'NONE', *, *, #300, .T. ) ;
#60 = DIRECTION ( 'NONE',  ( -3.159563465292449303E-17, 1.000000000000000000, 0.000000000000000000 ) ) ;
#61 = CARTESIAN_POINT ( 'NONE',  ( 0.000000000000000000, 0.5620000000000000551, -0.09375000000000001388 ) ) ;
#62 = ORIENTED_EDGE ( 'NONE', *, *, #151, .F. ) ;
#63 =( NAMED_UNIT ( * ) PLANE_ANGLE_UNIT ( ) SI_UNIT ( $, .RADIAN. ) );
#64 = VERTEX_POINT ( 'NONE', #170 ) ;
#65 = PRESENTATION_LAYER_ASSIGNMENT (  '', '', ( #113 ) ) ;
#66 = DIRECTION ( 'NONE',  ( -0.000000000000000000, -1.000000000000000000, -0.000000000000000000 ) ) ;
#67 = EDGE_LOOP ( 'NONE', ( #224, #32, #197, #340 ) ) ;
#68 = CYLINDRICAL_SURFACE ( 'NONE', #115, 0.09375000000000001388 ) ;
#69 = FACE_OUTER_BOUND ( 'NONE', #190, .T. ) ;
#70 = VECTOR ( 'NONE', #74, 39.37007874015748143 ) ;
#71 = DIRECTION ( 'NONE',  ( -0.000000000000000000, -1.000000000000000000, -0.000000000000000000 ) ) ;
#72 = ADVANCED_FACE ( 'NONE', ( #23 ), #208, .T. ) ;
#73 = UNCERTAINTY_MEASURE_WITH_UNIT (LENGTH_MEASURE( 1.000000000000000082E-05 ), #270, 'distance_accuracy_value', 'NONE');
#74 = DIRECTION ( 'NONE',  ( -0.2588190451025217942, 0.9659258262890679791, 0.000000000000000000 ) ) ;
#75 = AXIS2_PLACEMENT_3D ( 'NONE', #79, #153, #234 ) ;
#76 = AXIS2_PLACEMENT_3D ( 'NONE', #181, #355, #95 ) ;
#77 = CARTESIAN_POINT ( 'NONE',  ( 0.09375000000000001388, 0.5620000000000001661, 1.148106374200643863E-17 ) ) ;
#78 = CARTESIAN_POINT ( 'NONE',  ( 1.148106374200643863E-17, 0.5620000000000000551, 0.09375000000000001388 ) ) ;
#79 = CARTESIAN_POINT ( 'NONE',  ( -3.684891056940544915E-18, 0.6786265877365270649, 0.000000000000000000 ) ) ;
#80 = DIRECTION ( 'NONE',  ( -0.000000000000000000, -1.000000000000000000, -0.000000000000000000 ) ) ;
#81 = MECHANICAL_DESIGN_GEOMETRIC_PRESENTATION_REPRESENTATION (  '', ( #290 ), #356 ) ;
#82 = EDGE_CURVE ( 'NONE', #329, #8, #200, .T. ) ;
#83 = VERTEX_POINT ( 'NONE', #107 ) ;
#84 =( NAMED_UNIT ( * ) PLANE_ANGLE_UNIT ( ) SI_UNIT ( $, .RADIAN. ) );
#85 = DIRECTION ( 'NONE',  ( 0.000000000000000000, 0.000000000000000000, -1.000000000000000000 ) ) ;
#86 = PRESENTATION_LAYER_ASSIGNMENT (  '', '', ( #100 ) ) ;
#87 = VERTEX_POINT ( 'NONE', #61 ) ;
#88 = EDGE_LOOP ( 'NONE', ( #322, #59 ) ) ;
#89 = CIRCLE ( 'NONE', #133, 0.09375000000000001388 ) ;
#90 = MANIFOLD_SOLID_BREP ( 'Revolve - Tool Body (Reduced Cut Diameter)', #320 ) ;
#91 =( CONVERSION_BASED_UNIT ( 'INCH', #248 ) LENGTH_UNIT ( ) NAMED_UNIT ( #286 ) );
#92 = DIRECTION ( 'NONE',  ( -3.159563465292449303E-17, 1.000000000000000000, -0.000000000000000000 ) ) ;
#93 =( GEOMETRIC_REPRESENTATION_CONTEXT ( 3 ) GLOBAL_UNCERTAINTY_ASSIGNED_CONTEXT ( ( #262 ) ) GLOBAL_UNIT_ASSIGNED_CONTEXT ( ( #55, #84, #301 ) ) REPRESENTATION_CONTEXT ( 'NONE', 'WORKASPACE' ) );
#94 = EDGE_CURVE ( 'NONE', #87, #330, #255, .T. ) ;
#95 = DIRECTION ( 'NONE',  ( -1.000000000000000000, 0.000000000000000000, 0.000000000000000000 ) ) ;
#96 = DIMENSIONAL_EXPONENTS ( 1.000000000000000000, 0.000000000000000000, 0.000000000000000000, 0.000000000000000000, 0.000000000000000000, 0.000000000000000000, 0.000000000000000000 ) ;
#97 = SURFACE_STYLE_USAGE ( .BOTH. , #26 ) ;
#98 = CARTESIAN_POINT ( 'NONE',  ( -0.09375000000000001388, 0.5620000000000001661, 0.000000000000000000 ) ) ;
#99 = DIRECTION ( 'NONE',  ( -3.159563465292449303E-17, 1.000000000000000000, -0.000000000000000000 ) ) ;
#100 = STYLED_ITEM ( 'NONE', ( #179 ), #194 ) ;
#101 = DIRECTION ( 'NONE',  ( 1.000000000000000000, 3.159563465292449303E-17, 0.000000000000000000 ) ) ;
#102 =( CONVERSION_BASED_UNIT ( 'INCH', #265 ) LENGTH_UNIT ( ) NAMED_UNIT ( #353 ) );
#103 = SURFACE_STYLE_FILL_AREA ( #233 ) ;
#104 = FACE_OUTER_BOUND ( 'NONE', #189, .T. ) ;
#105 = MECHANICAL_DESIGN_GEOMETRIC_PRESENTATION_REPRESENTATION (  '', ( #113 ), #313 ) ;
#106 = CIRCLE ( 'NONE', #76, 0.09375000000000001388 ) ;
#107 = CARTESIAN_POINT ( 'NONE',  ( 0.1250000000000000278, 2.500000000000000000, 1.530808498934192125E-17 ) ) ;
#108 = ORIENTED_EDGE ( 'NONE', *, *, #192, .F. ) ;
#109 = CARTESIAN_POINT ( 'NONE',  ( 4.679456855255077181E-35, 0.5620000000000000551, 0.000000000000000000 ) ) ;
#110 = DIRECTION ( 'NONE',  ( -0.000000000000000000, -1.000000000000000000, -0.000000000000000000 ) ) ;
#111 = DIRECTION ( 'NONE',  ( -3.159563465292449303E-17, 1.000000000000000000, -0.000000000000000000 ) ) ;
#112 = ORIENTED_EDGE ( 'NONE', *, *, #319, .F. ) ;
#113 = STYLED_ITEM ( 'NONE', ( #122 ), #72 ) ;
#114 = AXIS2_PLACEMENT_3D ( 'NONE', #263, #292, #47 ) ;
#115 = AXIS2_PLACEMENT_3D ( 'NONE', #117, #66, #165 ) ;
#116 = CYLINDRICAL_SURFACE ( 'NONE', #272, 0.1250000000000000278 ) ;
#117 = CARTESIAN_POINT ( 'NONE',  ( 0.000000000000000000, 0.000000000000000000, 0.000000000000000000 ) ) ;
#118 = PLANE ( 'NONE',  #280 ) ;
#119 = DIRECTION ( 'NONE',  ( -0.000000000000000000, -1.000000000000000000, -0.000000000000000000 ) ) ;
#120 = DIRECTION ( 'NONE',  ( -3.159563465292449303E-17, 1.000000000000000000, -0.000000000000000000 ) ) ;
#121 = MECHANICAL_DESIGN_GEOMETRIC_PRESENTATION_REPRESENTATION (  '', ( #260 ), #58 ) ;
#122 = PRESENTATION_STYLE_ASSIGNMENT (( #97 ) ) ;
#123 = DIRECTION ( 'NONE',  ( -3.159563465292449303E-17, 1.000000000000000000, -0.000000000000000000 ) ) ;
#124 = PRESENTATION_LAYER_ASSIGNMENT (  '', '', ( #290 ) ) ;
#125 = SURFACE_STYLE_FILL_AREA ( #158 ) ;
#126 = EDGE_CURVE ( 'NONE', #8, #329, #106, .T. ) ;
#127 = ORIENTED_EDGE ( 'NONE', *, *, #43, .T. ) ;
#128 = SURFACE_STYLE_USAGE ( .BOTH. , #327 ) ;
#129 = MECHANICAL_DESIGN_GEOMETRIC_PRESENTATION_REPRESENTATION (  '', ( #156 ), #306 ) ;
#130 = ORIENTED_EDGE ( 'NONE', *, *, #159, .T. ) ;
#131 = DIMENSIONAL_EXPONENTS ( 1.000000000000000000, 0.000000000000000000, 0.000000000000000000, 0.000000000000000000, 0.000000000000000000, 0.000000000000000000, 0.000000000000000000 ) ;
#132 = FACE_OUTER_BOUND ( 'NONE', #39, .T. ) ;
#133 = AXIS2_PLACEMENT_3D ( 'NONE', #42, #71, #40 ) ;
#134 = COLOUR_RGB ( '',0.7921568627450980005, 0.8196078431372548767, 0.9333333333333333481 ) ;
#135 = ORIENTED_EDGE ( 'NONE', *, *, #3, .T. ) ;
#136 = ORIENTED_EDGE ( 'NONE', *, *, #211, .F. ) ;
#137 = DIRECTION ( 'NONE',  ( 0.000000000000000000, 0.000000000000000000, -1.000000000000000000 ) ) ;
#138 = CARTESIAN_POINT ( 'NONE',  ( 0.000000000000000000, 0.5620000000000000551, 0.000000000000000000 ) ) ;
#139 = AXIS2_PLACEMENT_3D ( 'NONE', #176, #142, #137 ) ;
#140 = CARTESIAN_POINT ( 'NONE',  ( 0.000000000000000000, 0.000000000000000000, -0.09375000000000001388 ) ) ;
#141 =( NAMED_UNIT ( * ) SI_UNIT ( $, .STERADIAN. ) SOLID_ANGLE_UNIT ( ) );
#142 = DIRECTION ( 'NONE',  ( -0.000000000000000000, -1.000000000000000000, -0.000000000000000000 ) ) ;
#143 = SURFACE_STYLE_USAGE ( .BOTH. , #344 ) ;
#144 = CARTESIAN_POINT ( 'NONE',  ( -6.123233995736766036E-17, 2.500000000000000000, 0.000000000000000000 ) ) ;
#145 = FILL_AREA_STYLE ('',( #52 ) ) ;
#146 = APPLICATION_CONTEXT ( 'automotive_design' ) ;
#147 = CIRCLE ( 'NONE', #75, 0.1250000000000000278 ) ;
#148 = AXIS2_PLACEMENT_3D ( 'NONE', #191, #168, #307 ) ;
#149 = DIRECTION ( 'NONE',  ( -1.000000000000000000, 0.000000000000000000, 0.000000000000000000 ) ) ;
#150 = DIRECTION ( 'NONE',  ( -1.000000000000000000, 0.000000000000000000, 0.000000000000000000 ) ) ;
#151 = EDGE_CURVE ( 'NONE', #330, #298, #232, .T. ) ;
#152 =( LENGTH_UNIT ( ) NAMED_UNIT ( * ) SI_UNIT ( $, .METRE. ) );
#153 = DIRECTION ( 'NONE',  ( -3.159563465292449303E-17, 1.000000000000000000, -0.000000000000000000 ) ) ;
#154 = CARTESIAN_POINT ( 'NONE',  ( 0.000000000000000000, 0.000000000000000000, 0.000000000000000000 ) ) ;
#155 = APPLICATION_PROTOCOL_DEFINITION ( 'draft international standard', 'automotive_design', 1998, #146 ) ;
#156 = STYLED_ITEM ( 'NONE', ( #295 ), #347 ) ;
#157 = DIRECTION ( 'NONE',  ( -1.000000000000000000, -3.159563465292449303E-17, 0.000000000000000000 ) ) ;
#158 = FILL_AREA_STYLE ('',( #302 ) ) ;
#159 = EDGE_CURVE ( 'NONE', #218, #83, #253, .T. ) ;
#160 = ORIENTED_EDGE ( 'NONE', *, *, #225, .F. ) ;
#161 = VECTOR ( 'NONE', #294, 39.37007874015748143 ) ;
#162 =( LENGTH_UNIT ( ) NAMED_UNIT ( * ) SI_UNIT ( $, .METRE. ) );
#163 = VECTOR ( 'NONE', #80, 39.37007874015748143 ) ;
#164 = ORIENTED_EDGE ( 'NONE', *, *, #319, .T. ) ;
#165 = DIRECTION ( 'NONE',  ( 0.000000000000000000, 0.000000000000000000, -1.000000000000000000 ) ) ;
#166 =( NAMED_UNIT ( * ) PLANE_ANGLE_UNIT ( ) SI_UNIT ( $, .RADIAN. ) );
#167 = AXIS2_PLACEMENT_3D ( 'NONE', #198, #99, #149 ) ;
#168 = DIRECTION ( 'NONE',  ( -0.000000000000000000, -1.000000000000000000, -0.000000000000000000 ) ) ;
#169 = CARTESIAN_POINT ( 'NONE',  ( 0.000000000000000000, 0.000000000000000000, 0.000000000000000000 ) ) ;
#170 = CARTESIAN_POINT ( 'NONE',  ( -0.1250000000000000000, 0.6786265877365270649, 0.000000000000000000 ) ) ;
#171 = UNCERTAINTY_MEASURE_WITH_UNIT (LENGTH_MEASURE( 1.000000000000000082E-05 ), #102, 'distance_accuracy_value', 'NONE');
#172 = FACE_OUTER_BOUND ( 'NONE', #88, .T. ) ;
#173 = LINE ( 'NONE', #29, #161 ) ;
#174 = ORIENTED_EDGE ( 'NONE', *, *, #214, .T. ) ;
#175 = SURFACE_SIDE_STYLE ('',( #103 ) ) ;
#176 = CARTESIAN_POINT ( 'NONE',  ( 0.000000000000000000, 0.000000000000000000, 0.000000000000000000 ) ) ;
#177 = DIRECTION ( 'NONE',  ( 0.2588190451025216832, 0.9659258262890679791, 3.169619151431776651E-17 ) ) ;
#178 = FACE_OUTER_BOUND ( 'NONE', #1, .T. ) ;
#179 = PRESENTATION_STYLE_ASSIGNMENT (( #128 ) ) ;
#180 = FACE_OUTER_BOUND ( 'NONE', #67, .T. ) ;
#181 = CARTESIAN_POINT ( 'NONE',  ( 7.582401355855259480E-33, 0.5620000000000001661, 0.000000000000000000 ) ) ;
#182 = PRODUCT_CONTEXT ( 'NONE', #146, 'mechanical' ) ;
#183 = ORIENTED_EDGE ( 'NONE', *, *, #82, .T. ) ;
#184 = CYLINDRICAL_SURFACE ( 'NONE', #334, 0.1250000000000000278 ) ;
#185 = ORIENTED_EDGE ( 'NONE', *, *, #225, .T. ) ;
#186 = FACE_OUTER_BOUND ( 'NONE', #339, .T. ) ;
#187 = ORIENTED_EDGE ( 'NONE', *, *, #256, .F. ) ;
#188 = CARTESIAN_POINT ( 'NONE',  ( 0.000000000000000000, 0.000000000000000000, 0.000000000000000000 ) ) ;
#189 = EDGE_LOOP ( 'NONE', ( #108, #303, #273, #212 ) ) ;
#190 = EDGE_LOOP ( 'NONE', ( #130, #174 ) ) ;
#191 = CARTESIAN_POINT ( 'NONE',  ( 0.000000000000000000, 0.5620000000000000551, 0.000000000000000000 ) ) ;
#192 = EDGE_CURVE ( 'NONE', #342, #83, #258, .T. ) ;
#193 = DIRECTION ( 'NONE',  ( -1.000000000000000000, 0.000000000000000000, 0.000000000000000000 ) ) ;
#194 = ADVANCED_FACE ( 'NONE', ( #36 ), #4, .T. ) ;
#195 =( LENGTH_UNIT ( ) NAMED_UNIT ( * ) SI_UNIT ( $, .METRE. ) );
#196 = STYLED_ITEM ( 'NONE', ( #236 ), #201 ) ;
#197 = ORIENTED_EDGE ( 'NONE', *, *, #231, .T. ) ;
#198 = CARTESIAN_POINT ( 'NONE',  ( -6.123233995736766036E-17, 2.500000000000000000, 0.000000000000000000 ) ) ;
#199 = UNCERTAINTY_MEASURE_WITH_UNIT (LENGTH_MEASURE( 1.000000000000000082E-05 ), #91, 'distance_accuracy_value', 'NONE');
#200 = CIRCLE ( 'NONE', #251, 0.09375000000000001388 ) ;
#201 = MANIFOLD_SOLID_BREP ( 'Revolve - Cutting Edge', #230 ) ;
#202 = PRESENTATION_LAYER_ASSIGNMENT (  '', '', ( #156 ) ) ;
#203 = UNCERTAINTY_MEASURE_WITH_UNIT (LENGTH_MEASURE( 1.000000000000000082E-05 ), #326, 'distance_accuracy_value', 'NONE');
#204 =( NAMED_UNIT ( * ) PLANE_ANGLE_UNIT ( ) SI_UNIT ( $, .RADIAN. ) );
#205 = DIRECTION ( 'NONE',  ( -1.000000000000000000, 0.000000000000000000, 0.000000000000000000 ) ) ;
#206 = ADVANCED_FACE ( 'NONE', ( #186 ), #118, .F. ) ;
#207 = CARTESIAN_POINT ( 'NONE',  ( -6.123233995736766036E-17, 2.500000000000000000, 0.000000000000000000 ) ) ;
#208 = CYLINDRICAL_SURFACE ( 'NONE', #57, 0.09375000000000001388 ) ;
#209 = DIRECTION ( 'NONE',  ( 0.000000000000000000, 0.000000000000000000, -1.000000000000000000 ) ) ;
#210 = FILL_AREA_STYLE ('',( #268 ) ) ;
#211 = EDGE_CURVE ( 'NONE', #64, #218, #10, .T. ) ;
#212 = ORIENTED_EDGE ( 'NONE', *, *, #214, .F. ) ;
#213 = CARTESIAN_POINT ( 'NONE',  ( -6.123233995736766036E-17, 2.500000000000000000, 0.000000000000000000 ) ) ;
#214 = EDGE_CURVE ( 'NONE', #83, #218, #284, .T. ) ;
#215 =( NAMED_UNIT ( * ) SI_UNIT ( $, .STERADIAN. ) SOLID_ANGLE_UNIT ( ) );
#216 = DIRECTION ( 'NONE',  ( -1.000000000000000000, 0.000000000000000000, 0.000000000000000000 ) ) ;
#217 = ORIENTED_EDGE ( 'NONE', *, *, #256, .T. ) ;
#218 = VERTEX_POINT ( 'NONE', #46 ) ;
#219 = AXIS2_PLACEMENT_3D ( 'NONE', #54, #354, #150 ) ;
#220 = PRESENTATION_LAYER_ASSIGNMENT (  '', '', ( #260 ) ) ;
#221 = SURFACE_STYLE_FILL_AREA ( #352 ) ;
#222 = DIRECTION ( 'NONE',  ( -3.159563465292449303E-17, 1.000000000000000000, -0.000000000000000000 ) ) ;
#223 = LENGTH_MEASURE_WITH_UNIT ( LENGTH_MEASURE( 0.02539999999999999897 ), #195 );
#224 = ORIENTED_EDGE ( 'NONE', *, *, #3, .F. ) ;
#225 = EDGE_CURVE ( 'NONE', #345, #87, #89, .T. ) ;
#226 = CARTESIAN_POINT ( 'NONE',  ( -0.09375000000000001388, 0.5620000000000001661, 0.000000000000000000 ) ) ;
#227 = COLOUR_RGB ( '',1.000000000000000000, 0.000000000000000000, 0.000000000000000000 ) ;
#228 = SURFACE_STYLE_USAGE ( .BOTH. , #175 ) ;
#229 = FILL_AREA_STYLE_COLOUR ( '', #134 ) ;
#230 = CLOSED_SHELL ( 'NONE', ( #72, #194, #275, #347 ) ) ;
#231 = EDGE_CURVE ( 'NONE', #329, #64, #343, .T. ) ;
#232 = CIRCLE ( 'NONE', #139, 0.09375000000000001388 ) ;
#233 = FILL_AREA_STYLE ('',( #28 ) ) ;
#234 = DIRECTION ( 'NONE',  ( -1.000000000000000000, 0.000000000000000000, 0.000000000000000000 ) ) ;
#235 = ORIENTED_EDGE ( 'NONE', *, *, #94, .T. ) ;
#236 = PRESENTATION_STYLE_ASSIGNMENT (( #143 ) ) ;
#237 = AXIS2_PLACEMENT_3D ( 'NONE', #213, #92, #310 ) ;
#238 = PRODUCT_DEFINITION_FORMATION_WITH_SPECIFIED_SOURCE ( 'ANY', '', #266, .NOT_KNOWN. ) ;
#239 = DIRECTION ( 'NONE',  ( -1.000000000000000000, 0.000000000000000000, 0.000000000000000000 ) ) ;
#240 = APPLICATION_PROTOCOL_DEFINITION ( 'draft international standard', 'automotive_design', 1998, #291 ) ;
#241 = ORIENTED_EDGE ( 'NONE', *, *, #192, .T. ) ;
#242 = DIRECTION ( 'NONE',  ( 0.000000000000000000, -1.000000000000000000, -0.000000000000000000 ) ) ;
#243 = SURFACE_STYLE_USAGE ( .BOTH. , #337 ) ;
#244 = COLOUR_RGB ( '',1.000000000000000000, 0.000000000000000000, 0.000000000000000000 ) ;
#245 = ORIENTED_EDGE ( 'NONE', *, *, #159, .F. ) ;
#246 = EDGE_LOOP ( 'NONE', ( #13, #185, #235, #35 ) ) ;
#247 = SURFACE_SIDE_STYLE ('',( #349 ) ) ;
#248 = LENGTH_MEASURE_WITH_UNIT ( LENGTH_MEASURE( 0.02539999999999999897 ), #152 );
#249 = COLOUR_RGB ( '',0.7921568627450980005, 0.8196078431372548767, 0.9333333333333333481 ) ;
#250 = PRESENTATION_STYLE_ASSIGNMENT (( #305 ) ) ;
#251 = AXIS2_PLACEMENT_3D ( 'NONE', #276, #56, #216 ) ;
#252 = PRODUCT_RELATED_PRODUCT_CATEGORY ( 'part', '', ( #266 ) ) ;
#253 = CIRCLE ( 'NONE', #167, 0.1250000000000000555 ) ;
#254 = LENGTH_MEASURE_WITH_UNIT ( LENGTH_MEASURE( 0.02539999999999999897 ), #162 );
#255 = LINE ( 'NONE', #45, #163 ) ;
#256 = EDGE_CURVE ( 'NONE', #87, #345, #21, .T. ) ;
#257 = ORIENTED_EDGE ( 'NONE', *, *, #82, .F. ) ;
#258 = LINE ( 'NONE', #312, #304 ) ;
#259 = DIRECTION ( 'NONE',  ( 0.000000000000000000, 1.000000000000000000, 0.000000000000000000 ) ) ;
#260 = STYLED_ITEM ( 'NONE', ( #297 ), #90 ) ;
#261 = CARTESIAN_POINT ( 'NONE',  ( 0.1250000000000000000, 0.6786265877365270649, 1.530808498934191509E-17 ) ) ;
#262 = UNCERTAINTY_MEASURE_WITH_UNIT (LENGTH_MEASURE( 1.000000000000000082E-05 ), #55, 'distance_accuracy_value', 'NONE');
#263 = CARTESIAN_POINT ( 'NONE',  ( -3.684891056940544915E-18, 0.6786265877365270649, 0.000000000000000000 ) ) ;
#264 = VECTOR ( 'NONE', #177, 39.37007874015748854 ) ;
#265 = LENGTH_MEASURE_WITH_UNIT ( LENGTH_MEASURE( 0.02539999999999999897 ), #267 );
#266 = PRODUCT ( '84055', '84055', '', ( #182 ) ) ;
#267 =( LENGTH_UNIT ( ) NAMED_UNIT ( * ) SI_UNIT ( $, .METRE. ) );
#268 = FILL_AREA_STYLE_COLOUR ( '', #227 ) ;
#269 = PRODUCT_DEFINITION_CONTEXT ( 'detailed design', #291, 'design' ) ;
#270 =( CONVERSION_BASED_UNIT ( 'INCH', #2 ) LENGTH_UNIT ( ) NAMED_UNIT ( #24 ) );
#271 = COLOUR_RGB ( '',1.000000000000000000, 0.000000000000000000, 0.000000000000000000 ) ;
#272 = AXIS2_PLACEMENT_3D ( 'NONE', #144, #120, #205 ) ;
#273 = ORIENTED_EDGE ( 'NONE', *, *, #211, .T. ) ;
#274 = CARTESIAN_POINT ( 'NONE',  ( -0.1250000000000001110, 2.500000000000000000, 0.000000000000000000 ) ) ;
#275 = ADVANCED_FACE ( 'NONE', ( #348 ), #68, .T. ) ;
#276 = CARTESIAN_POINT ( 'NONE',  ( 7.582401355855259480E-33, 0.5620000000000001661, 0.000000000000000000 ) ) ;
#277 = ORIENTED_EDGE ( 'NONE', *, *, #94, .F. ) ;
#278 = LENGTH_MEASURE_WITH_UNIT ( LENGTH_MEASURE( 0.02539999999999999897 ), #336 );
#279 = ADVANCED_FACE ( 'NONE', ( #132 ), #321, .T. ) ;
#280 = AXIS2_PLACEMENT_3D ( 'NONE', #109, #60, #157 ) ;
#281 = AXIS2_PLACEMENT_3D ( 'NONE', #154, #242, #209 ) ;
#282 =( CONVERSION_BASED_UNIT ( 'INCH', #223 ) LENGTH_UNIT ( ) NAMED_UNIT ( #131 ) );
#283 = PLANE ( 'NONE',  #341 ) ;
#284 = CIRCLE ( 'NONE', #237, 0.1250000000000000555 ) ;
#285 = ADVANCED_FACE ( 'NONE', ( #69 ), #283, .F. ) ;
#286 = DIMENSIONAL_EXPONENTS ( 1.000000000000000000, 0.000000000000000000, 0.000000000000000000, 0.000000000000000000, 0.000000000000000000, 0.000000000000000000, 0.000000000000000000 ) ;
#287 =( NAMED_UNIT ( * ) PLANE_ANGLE_UNIT ( ) SI_UNIT ( $, .RADIAN. ) );
#288 = DIRECTION ( 'NONE',  ( 0.000000000000000000, 0.000000000000000000, -1.000000000000000000 ) ) ;
#289 = DIMENSIONAL_EXPONENTS ( 1.000000000000000000, 0.000000000000000000, 0.000000000000000000, 0.000000000000000000, 0.000000000000000000, 0.000000000000000000, 0.000000000000000000 ) ;
#290 = STYLED_ITEM ( 'NONE', ( #250 ), #275 ) ;
#291 = APPLICATION_CONTEXT ( 'automotive_design' ) ;
#292 = DIRECTION ( 'NONE',  ( -3.159563465292449303E-17, 1.000000000000000000, -0.000000000000000000 ) ) ;
#293 = ADVANCED_FACE ( 'NONE', ( #178 ), #116, .T. ) ;
#294 = DIRECTION ( 'NONE',  ( -0.000000000000000000, -1.000000000000000000, -0.000000000000000000 ) ) ;
#295 = PRESENTATION_STYLE_ASSIGNMENT (( #228 ) ) ;
#296 = AXIS2_PLACEMENT_3D ( 'NONE', #16, #222, #193 ) ;
#297 = PRESENTATION_STYLE_ASSIGNMENT (( #243 ) ) ;
#298 = VERTEX_POINT ( 'NONE', #358 ) ;
#299 = PRESENTATION_LAYER_ASSIGNMENT (  '', '', ( #196 ) ) ;
#300 = EDGE_CURVE ( 'NONE', #298, #330, #15, .T. ) ;
#301 =( NAMED_UNIT ( * ) SI_UNIT ( $, .STERADIAN. ) SOLID_ANGLE_UNIT ( ) );
#302 = FILL_AREA_STYLE_COLOUR ( '', #249 ) ;
#303 = ORIENTED_EDGE ( 'NONE', *, *, #37, .T. ) ;
#304 = VECTOR ( 'NONE', #111, 39.37007874015748143 ) ;
#305 = SURFACE_STYLE_USAGE ( .BOTH. , #247 ) ;
#306 =( GEOMETRIC_REPRESENTATION_CONTEXT ( 3 ) GLOBAL_UNCERTAINTY_ASSIGNED_CONTEXT ( ( #73 ) ) GLOBAL_UNIT_ASSIGNED_CONTEXT ( ( #270, #63, #33 ) ) REPRESENTATION_CONTEXT ( 'NONE', 'WORKASPACE' ) );
#307 = DIRECTION ( 'NONE',  ( 0.000000000000000000, 0.000000000000000000, -1.000000000000000000 ) ) ;
#308 =( CONVERSION_BASED_UNIT ( 'INCH', #254 ) LENGTH_UNIT ( ) NAMED_UNIT ( #309 ) );
#309 = DIMENSIONAL_EXPONENTS ( 1.000000000000000000, 0.000000000000000000, 0.000000000000000000, 0.000000000000000000, 0.000000000000000000, 0.000000000000000000, 0.000000000000000000 ) ;
#310 = DIRECTION ( 'NONE',  ( -1.000000000000000000, 0.000000000000000000, 0.000000000000000000 ) ) ;
#311 = ORIENTED_EDGE ( 'NONE', *, *, #126, .F. ) ;
#312 = CARTESIAN_POINT ( 'NONE',  ( 0.1249999999999999584, 2.500000000000000000, 1.530808498934191817E-17 ) ) ;
#313 =( GEOMETRIC_REPRESENTATION_CONTEXT ( 3 ) GLOBAL_UNCERTAINTY_ASSIGNED_CONTEXT ( ( #171 ) ) GLOBAL_UNIT_ASSIGNED_CONTEXT ( ( #102, #204, #141 ) ) REPRESENTATION_CONTEXT ( 'NONE', 'WORKASPACE' ) );
#314 = COLOUR_RGB ( '',1.000000000000000000, 0.000000000000000000, 0.000000000000000000 ) ;
#315 = LINE ( 'NONE', #77, #264 ) ;
#316 = UNCERTAINTY_MEASURE_WITH_UNIT (LENGTH_MEASURE( 1.000000000000000082E-05 ), #282, 'distance_accuracy_value', 'NONE');
#317 = CARTESIAN_POINT ( 'NONE',  ( 0.09375000000000001388, 0.5620000000000001661, 1.339457436567417686E-17 ) ) ;
#318 = CARTESIAN_POINT ( 'NONE',  ( 0.1250000000000000000, 2.500000000000000000, 0.000000000000000000 ) ) ;
#319 = EDGE_CURVE ( 'NONE', #64, #342, #41, .T. ) ;
#320 = CLOSED_SHELL ( 'NONE', ( #293, #279, #206, #18, #359, #285 ) ) ;
#321 = CONICAL_SURFACE ( 'NONE', #296, 0.09375000000000001388, 0.2617993877991504625 ) ;
#322 = ORIENTED_EDGE ( 'NONE', *, *, #151, .T. ) ;
#323 = AXIS2_PLACEMENT_3D ( 'NONE', #328, #30, #11 ) ;
#324 =( LENGTH_UNIT ( ) NAMED_UNIT ( * ) SI_UNIT ( $, .METRE. ) );
#325 = ADVANCED_BREP_SHAPE_REPRESENTATION ( '84055', ( #201, #90, #323 ), #49 ) ;
#326 =( CONVERSION_BASED_UNIT ( 'INCH', #9 ) LENGTH_UNIT ( ) NAMED_UNIT ( #289 ) );
#327 = SURFACE_SIDE_STYLE ('',( #335 ) ) ;
#328 = CARTESIAN_POINT ( 'NONE',  ( 0.000000000000000000, 0.000000000000000000, 0.000000000000000000 ) ) ;
#329 = VERTEX_POINT ( 'NONE', #98 ) ;
#330 = VERTEX_POINT ( 'NONE', #140 ) ;
#331 =( NAMED_UNIT ( * ) PLANE_ANGLE_UNIT ( ) SI_UNIT ( $, .RADIAN. ) );
#332 = AXIS2_PLACEMENT_3D ( 'NONE', #138, #259, #22 ) ;
#333 = PRODUCT_DEFINITION ( 'UNKNOWN', '', #238, #269 ) ;
#334 = AXIS2_PLACEMENT_3D ( 'NONE', #207, #123, #239 ) ;
#335 = SURFACE_STYLE_FILL_AREA ( #210 ) ;
#336 =( LENGTH_UNIT ( ) NAMED_UNIT ( * ) SI_UNIT ( $, .METRE. ) );
#337 = SURFACE_SIDE_STYLE ('',( #125 ) ) ;
#338 = EDGE_LOOP ( 'NONE', ( #217, #127, #62, #277 ) ) ;
#339 = EDGE_LOOP ( 'NONE', ( #257, #311 ) ) ;
#340 = ORIENTED_EDGE ( 'NONE', *, *, #37, .F. ) ;
#341 = AXIS2_PLACEMENT_3D ( 'NONE', #318, #53, #101 ) ;
#342 = VERTEX_POINT ( 'NONE', #261 ) ;
#343 = LINE ( 'NONE', #226, #70 ) ;
#344 = SURFACE_SIDE_STYLE ('',( #221 ) ) ;
#345 = VERTEX_POINT ( 'NONE', #78 ) ;
#346 =( NAMED_UNIT ( * ) SI_UNIT ( $, .STERADIAN. ) SOLID_ANGLE_UNIT ( ) );
#347 = ADVANCED_FACE ( 'NONE', ( #172 ), #51, .T. ) ;
#348 = FACE_OUTER_BOUND ( 'NONE', #246, .T. ) ;
#349 = SURFACE_STYLE_FILL_AREA ( #19 ) ;
#350 =( NAMED_UNIT ( * ) SI_UNIT ( $, .STERADIAN. ) SOLID_ANGLE_UNIT ( ) );
#351 =( LENGTH_UNIT ( ) NAMED_UNIT ( * ) SI_UNIT ( $, .METRE. ) );
#352 = FILL_AREA_STYLE ('',( #229 ) ) ;
#353 = DIMENSIONAL_EXPONENTS ( 1.000000000000000000, 0.000000000000000000, 0.000000000000000000, 0.000000000000000000, 0.000000000000000000, 0.000000000000000000, 0.000000000000000000 ) ;
#354 = DIRECTION ( 'NONE',  ( -3.159563465292449303E-17, 1.000000000000000000, -0.000000000000000000 ) ) ;
#355 = DIRECTION ( 'NONE',  ( -3.159563465292449303E-17, 1.000000000000000000, -0.000000000000000000 ) ) ;
#356 =( GEOMETRIC_REPRESENTATION_CONTEXT ( 3 ) GLOBAL_UNCERTAINTY_ASSIGNED_CONTEXT ( ( #316 ) ) GLOBAL_UNIT_ASSIGNED_CONTEXT ( ( #282, #287, #20 ) ) REPRESENTATION_CONTEXT ( 'NONE', 'WORKASPACE' ) );
#357 = PRODUCT_DEFINITION_SHAPE ( 'NONE', 'NONE',  #333 ) ;
#358 = CARTESIAN_POINT ( 'NONE',  ( 1.148106374200643863E-17, 0.000000000000000000, 0.09375000000000001388 ) ) ;
#359 = ADVANCED_FACE ( 'NONE', ( #104 ), #184, .T. ) ;
ENDSEC;
END-ISO-10303-21;
