ISO-10303-21;
HEADER;
FILE_DESCRIPTION (( 'STEP AP214' ),
    '1' );
FILE_NAME ('03527.STEP',
    '2023-06-22T15:26:15',
    ( '' ),
    ( '' ),
    'SwSTEP 2.0',
    'SolidWorks 2023',
    '' );
FILE_SCHEMA (( 'AUTOMOTIVE_DESIGN' ));
ENDSEC;

DATA;
#1 =( GEOMETRIC_REPRESENTATION_CONTEXT ( 3 ) GLOBAL_UNCERTAINTY_ASSIGNED_CONTEXT ( ( #82 ) ) GLOBAL_UNIT_ASSIGNED_CONTEXT ( ( #121, #37, #183 ) ) REPRESENTATION_CONTEXT ( 'NONE', 'WORKASPACE' ) );
#2 = DIRECTION ( 'NONE',  ( -0.000000000000000000, -1.000000000000000000, -0.000000000000000000 ) ) ;
#3 = AXIS2_PLACEMENT_3D ( 'NONE', #120, #203, #143 ) ;
#4 =( NAMED_UNIT ( * ) SI_UNIT ( $, .STERADIAN. ) SOLID_ANGLE_UNIT ( ) );
#5 = ORIENTED_EDGE ( 'NONE', *, *, #235, .F. ) ;
#6 = UNCERTAINTY_MEASURE_WITH_UNIT (LENGTH_MEASURE( 1.000000000000000082E-05 ), #45, 'distance_accuracy_value', 'NONE');
#7 = CIRCLE ( 'NONE', #298, 0.2500000000000001110 ) ;
#8 = VERTEX_POINT ( 'NONE', #136 ) ;
#9 = FACE_OUTER_BOUND ( 'NONE', #33, .T. ) ;
#10 = ORIENTED_EDGE ( 'NONE', *, *, #235, .T. ) ;
#11 = APPLICATION_CONTEXT ( 'automotive_design' ) ;
#12 = FILL_AREA_STYLE ('',( #297 ) ) ;
#13 = FILL_AREA_STYLE_COLOUR ( '', #212 ) ;
#14 = EDGE_CURVE ( 'NONE', #36, #276, #27, .T. ) ;
#15 = VECTOR ( 'NONE', #42, 39.37007874015748143 ) ;
#16 = MECHANICAL_DESIGN_GEOMETRIC_PRESENTATION_REPRESENTATION (  '', ( #277 ), #46 ) ;
#17 = PRESENTATION_STYLE_ASSIGNMENT (( #233 ) ) ;
#18 = LENGTH_MEASURE_WITH_UNIT ( LENGTH_MEASURE( 0.02539999999999999897 ), #187 );
#19 = AXIS2_PLACEMENT_3D ( 'NONE', #91, #302, #306 ) ;
#20 = CARTESIAN_POINT ( 'NONE',  ( 0.000000000000000000, 0.000000000000000000, 0.000000000000000000 ) ) ;
#21 = CARTESIAN_POINT ( 'NONE',  ( -1.224646799147354440E-16, 6.000000000000000888, 0.000000000000000000 ) ) ;
#22 = EDGE_CURVE ( 'NONE', #221, #179, #23, .T. ) ;
#23 = CIRCLE ( 'NONE', #134, 0.2500000000000001110 ) ;
#24 =( GEOMETRIC_REPRESENTATION_CONTEXT ( 3 ) GLOBAL_UNCERTAINTY_ASSIGNED_CONTEXT ( ( #6 ) ) GLOBAL_UNIT_ASSIGNED_CONTEXT ( ( #45, #284, #251 ) ) REPRESENTATION_CONTEXT ( 'NONE', 'WORKASPACE' ) );
#25 = EDGE_LOOP ( 'NONE', ( #264, #200 ) ) ;
#26 = PLANE ( 'NONE',  #213 ) ;
#27 = CIRCLE ( 'NONE', #160, 0.2500000000000000000 ) ;
#28 = EDGE_CURVE ( 'NONE', #179, #221, #7, .T. ) ;
#29 = PRODUCT_DEFINITION_CONTEXT ( 'detailed design', #11, 'design' ) ;
#30 = ADVANCED_FACE ( 'NONE', ( #286 ), #229, .T. ) ;
#31 = CLOSED_SHELL ( 'NONE', ( #231, #75, #79, #48 ) ) ;
#32 = DIRECTION ( 'NONE',  ( 0.000000000000000000, -0.000000000000000000, 1.000000000000000000 ) ) ;
#33 = EDGE_LOOP ( 'NONE', ( #10, #223, #177, #152 ) ) ;
#34 = CYLINDRICAL_SURFACE ( 'NONE', #269, 0.2500000000000000000 ) ;
#35 = SURFACE_SIDE_STYLE ('',( #60 ) ) ;
#36 = VERTEX_POINT ( 'NONE', #226 ) ;
#37 =( NAMED_UNIT ( * ) PLANE_ANGLE_UNIT ( ) SI_UNIT ( $, .RADIAN. ) );
#38 = CARTESIAN_POINT ( 'NONE',  ( -1.224646799147354440E-16, 6.000000000000000888, 0.000000000000000000 ) ) ;
#39 = VECTOR ( 'NONE', #218, 39.37007874015748143 ) ;
#40 = AXIS2_PLACEMENT_3D ( 'NONE', #43, #228, #204 ) ;
#41 =( LENGTH_UNIT ( ) NAMED_UNIT ( * ) SI_UNIT ( $, .METRE. ) );
#42 = DIRECTION ( 'NONE',  ( -0.000000000000000000, -1.000000000000000000, -0.000000000000000000 ) ) ;
#43 = CARTESIAN_POINT ( 'NONE',  ( 0.000000000000000000, 0.000000000000000000, 0.000000000000000000 ) ) ;
#44 = PRESENTATION_STYLE_ASSIGNMENT (( #202 ) ) ;
#45 =( CONVERSION_BASED_UNIT ( 'INCH', #18 ) LENGTH_UNIT ( ) NAMED_UNIT ( #64 ) );
#46 =( GEOMETRIC_REPRESENTATION_CONTEXT ( 3 ) GLOBAL_UNCERTAINTY_ASSIGNED_CONTEXT ( ( #283 ) ) GLOBAL_UNIT_ASSIGNED_CONTEXT ( ( #96, #227, #4 ) ) REPRESENTATION_CONTEXT ( 'NONE', 'WORKASPACE' ) );
#47 = FACE_OUTER_BOUND ( 'NONE', #148, .T. ) ;
#48 = ADVANCED_FACE ( 'NONE', ( #248 ), #159, .T. ) ;
#49 = SURFACE_STYLE_FILL_AREA ( #161 ) ;
#50 = COLOUR_RGB ( '',1.000000000000000000, 0.000000000000000000, 0.000000000000000000 ) ;
#51 = MECHANICAL_DESIGN_GEOMETRIC_PRESENTATION_REPRESENTATION (  '', ( #168 ), #225 ) ;
#52 = UNCERTAINTY_MEASURE_WITH_UNIT (LENGTH_MEASURE( 1.000000000000000082E-05 ), #156, 'distance_accuracy_value', 'NONE');
#53 = DIRECTION ( 'NONE',  ( -4.259641040512536405E-17, 1.000000000000000000, -0.000000000000000000 ) ) ;
#54 = ADVANCED_BREP_SHAPE_REPRESENTATION ( '03527', ( #292, #97, #3 ), #24 ) ;
#55 = DIRECTION ( 'NONE',  ( -0.000000000000000000, -1.000000000000000000, -0.000000000000000000 ) ) ;
#56 = DIRECTION ( 'NONE',  ( -0.000000000000000000, -1.000000000000000000, -0.000000000000000000 ) ) ;
#57 = CARTESIAN_POINT ( 'NONE',  ( 0.000000000000000000, 3.125000000000000000, 0.000000000000000000 ) ) ;
#58 = ORIENTED_EDGE ( 'NONE', *, *, #100, .F. ) ;
#59 = CARTESIAN_POINT ( 'NONE',  ( 0.2500000000000000555, 6.000000000000000888, 3.061616997868384251E-17 ) ) ;
#60 = SURFACE_STYLE_FILL_AREA ( #275 ) ;
#61 = AXIS2_PLACEMENT_3D ( 'NONE', #20, #2, #167 ) ;
#62 = ORIENTED_EDGE ( 'NONE', *, *, #100, .T. ) ;
#63 = AXIS2_PLACEMENT_3D ( 'NONE', #86, #176, #89 ) ;
#64 = DIMENSIONAL_EXPONENTS ( 1.000000000000000000, 0.000000000000000000, 0.000000000000000000, 0.000000000000000000, 0.000000000000000000, 0.000000000000000000, 0.000000000000000000 ) ;
#65 = ORIENTED_EDGE ( 'NONE', *, *, #210, .T. ) ;
#66 = SURFACE_STYLE_FILL_AREA ( #12 ) ;
#67 =( NAMED_UNIT ( * ) PLANE_ANGLE_UNIT ( ) SI_UNIT ( $, .RADIAN. ) );
#68 = SURFACE_STYLE_FILL_AREA ( #74 ) ;
#69 = AXIS2_PLACEMENT_3D ( 'NONE', #57, #279, #32 ) ;
#70 = LENGTH_MEASURE_WITH_UNIT ( LENGTH_MEASURE( 0.02539999999999999897 ), #249 );
#71 = FACE_OUTER_BOUND ( 'NONE', #25, .T. ) ;
#72 = SHAPE_DEFINITION_REPRESENTATION ( #145, #54 ) ;
#73 =( NAMED_UNIT ( * ) SI_UNIT ( $, .STERADIAN. ) SOLID_ANGLE_UNIT ( ) );
#74 = FILL_AREA_STYLE ('',( #13 ) ) ;
#75 = ADVANCED_FACE ( 'NONE', ( #282 ), #273, .T. ) ;
#76 = PRESENTATION_LAYER_ASSIGNMENT (  '', '', ( #149 ) ) ;
#77 = CIRCLE ( 'NONE', #155, 0.2500000000000000000 ) ;
#78 = PRODUCT_RELATED_PRODUCT_CATEGORY ( 'part', '', ( #258 ) ) ;
#79 = ADVANCED_FACE ( 'NONE', ( #242 ), #138, .T. ) ;
#80 = ORIENTED_EDGE ( 'NONE', *, *, #210, .F. ) ;
#81 = PRODUCT_DEFINITION_FORMATION_WITH_SPECIFIED_SOURCE ( 'ANY', '', #258, .NOT_KNOWN. ) ;
#82 = UNCERTAINTY_MEASURE_WITH_UNIT (LENGTH_MEASURE( 1.000000000000000082E-05 ), #121, 'distance_accuracy_value', 'NONE');
#83 = CARTESIAN_POINT ( 'NONE',  ( 0.2500000000000000555, 3.125000000000000000, 3.061616997868384251E-17 ) ) ;
#84 = MECHANICAL_DESIGN_GEOMETRIC_PRESENTATION_REPRESENTATION (  '', ( #101 ), #191 ) ;
#85 = VECTOR ( 'NONE', #263, 39.37007874015748143 ) ;
#86 = CARTESIAN_POINT ( 'NONE',  ( 0.000000000000000000, 3.125000000000000000, 0.000000000000000000 ) ) ;
#87 = ORIENTED_EDGE ( 'NONE', *, *, #182, .F. ) ;
#88 = ORIENTED_EDGE ( 'NONE', *, *, #123, .F. ) ;
#89 = DIRECTION ( 'NONE',  ( 0.000000000000000000, 0.000000000000000000, -1.000000000000000000 ) ) ;
#90 = COLOUR_RGB ( '',0.7921568627450980005, 0.8196078431372548767, 0.9333333333333333481 ) ;
#91 = CARTESIAN_POINT ( 'NONE',  ( -1.224646799147354440E-16, 6.000000000000000888, 0.000000000000000000 ) ) ;
#92 = APPLICATION_CONTEXT ( 'automotive_design' ) ;
#93 =( CONVERSION_BASED_UNIT ( 'INCH', #70 ) LENGTH_UNIT ( ) NAMED_UNIT ( #295 ) );
#94 = ADVANCED_FACE ( 'NONE', ( #47 ), #185, .T. ) ;
#95 =( NAMED_UNIT ( * ) PLANE_ANGLE_UNIT ( ) SI_UNIT ( $, .RADIAN. ) );
#96 =( CONVERSION_BASED_UNIT ( 'INCH', #304 ) LENGTH_UNIT ( ) NAMED_UNIT ( #252 ) );
#97 = MANIFOLD_SOLID_BREP ( 'Revolve - Tool Body (Straight Shanked)', #219 ) ;
#98 = PRODUCT_CONTEXT ( 'NONE', #92, 'mechanical' ) ;
#99 = LINE ( 'NONE', #305, #15 ) ;
#100 = EDGE_CURVE ( 'NONE', #243, #127, #164, .T. ) ;
#101 = STYLED_ITEM ( 'NONE', ( #106 ), #97 ) ;
#102 =( NAMED_UNIT ( * ) PLANE_ANGLE_UNIT ( ) SI_UNIT ( $, .RADIAN. ) );
#103 = DIRECTION ( 'NONE',  ( -1.000000000000000000, 0.000000000000000000, 0.000000000000000000 ) ) ;
#104 = ORIENTED_EDGE ( 'NONE', *, *, #182, .T. ) ;
#105 = CARTESIAN_POINT ( 'NONE',  ( 0.2500000000000000000, 6.000000000000000888, 0.000000000000000000 ) ) ;
#106 = PRESENTATION_STYLE_ASSIGNMENT (( #309 ) ) ;
#107 = ORIENTED_EDGE ( 'NONE', *, *, #205, .T. ) ;
#108 = FILL_AREA_STYLE ('',( #173 ) ) ;
#109 = PRESENTATION_LAYER_ASSIGNMENT (  '', '', ( #307 ) ) ;
#110 =( LENGTH_UNIT ( ) NAMED_UNIT ( * ) SI_UNIT ( $, .METRE. ) );
#111 = ORIENTED_EDGE ( 'NONE', *, *, #141, .F. ) ;
#112 = DIRECTION ( 'NONE',  ( -1.000000000000000000, -4.259641040512536405E-17, 0.000000000000000000 ) ) ;
#113 = STYLED_ITEM ( 'NONE', ( #44 ), #75 ) ;
#114 = CARTESIAN_POINT ( 'NONE',  ( 2.268067724252340606E-34, 3.125000000000000000, 0.000000000000000000 ) ) ;
#115 = DIRECTION ( 'NONE',  ( -1.000000000000000000, 0.000000000000000000, 0.000000000000000000 ) ) ;
#116 = CARTESIAN_POINT ( 'NONE',  ( 0.000000000000000000, 3.125000000000000000, 0.000000000000000000 ) ) ;
#117 = EDGE_LOOP ( 'NONE', ( #5, #80 ) ) ;
#118 = EDGE_LOOP ( 'NONE', ( #107, #62 ) ) ;
#119 = SURFACE_SIDE_STYLE ('',( #68 ) ) ;
#120 = CARTESIAN_POINT ( 'NONE',  ( 0.000000000000000000, 0.000000000000000000, 0.000000000000000000 ) ) ;
#121 =( CONVERSION_BASED_UNIT ( 'INCH', #162 ) LENGTH_UNIT ( ) NAMED_UNIT ( #281 ) );
#122 = DIRECTION ( 'NONE',  ( -4.259641040512536405E-17, 1.000000000000000000, -0.000000000000000000 ) ) ;
#123 = EDGE_CURVE ( 'NONE', #158, #243, #99, .T. ) ;
#124 = SURFACE_STYLE_FILL_AREA ( #308 ) ;
#125 =( LENGTH_UNIT ( ) NAMED_UNIT ( * ) SI_UNIT ( $, .METRE. ) );
#126 = ADVANCED_FACE ( 'NONE', ( #71 ), #254, .F. ) ;
#127 = VERTEX_POINT ( 'NONE', #236 ) ;
#128 = PRESENTATION_STYLE_ASSIGNMENT (( #238 ) ) ;
#129 = PRESENTATION_LAYER_ASSIGNMENT (  '', '', ( #101 ) ) ;
#130 = ADVANCED_FACE ( 'NONE', ( #274 ), #26, .F. ) ;
#131 = DIRECTION ( 'NONE',  ( -4.259641040512536405E-17, 1.000000000000000000, -0.000000000000000000 ) ) ;
#132 = CARTESIAN_POINT ( 'NONE',  ( 0.000000000000000000, 3.125000000000000000, 0.000000000000000000 ) ) ;
#133 = ORIENTED_EDGE ( 'NONE', *, *, #14, .T. ) ;
#134 = AXIS2_PLACEMENT_3D ( 'NONE', #169, #53, #237 ) ;
#135 = SURFACE_SIDE_STYLE ('',( #66 ) ) ;
#136 = CARTESIAN_POINT ( 'NONE',  ( 0.000000000000000000, 3.125000000000000000, -0.2500000000000000000 ) ) ;
#137 = SURFACE_STYLE_USAGE ( .BOTH. , #35 ) ;
#138 = CYLINDRICAL_SURFACE ( 'NONE', #61, 0.2500000000000000000 ) ;
#139 = PRESENTATION_LAYER_ASSIGNMENT (  '', '', ( #168 ) ) ;
#140 =( NAMED_UNIT ( * ) SI_UNIT ( $, .STERADIAN. ) SOLID_ANGLE_UNIT ( ) );
#141 = EDGE_CURVE ( 'NONE', #276, #179, #170, .T. ) ;
#142 =( CONVERSION_BASED_UNIT ( 'INCH', #255 ) LENGTH_UNIT ( ) NAMED_UNIT ( #303 ) );
#143 = DIRECTION ( 'NONE',  ( 1.000000000000000000, 0.000000000000000000, 0.000000000000000000 ) ) ;
#144 = COLOUR_RGB ( '',1.000000000000000000, 0.000000000000000000, 0.000000000000000000 ) ;
#145 = PRODUCT_DEFINITION_SHAPE ( 'NONE', 'NONE',  #291 ) ;
#146 = AXIS2_PLACEMENT_3D ( 'NONE', #287, #184, #250 ) ;
#147 = AXIS2_PLACEMENT_3D ( 'NONE', #132, #56, #171 ) ;
#148 = EDGE_LOOP ( 'NONE', ( #133, #246, #172, #87 ) ) ;
#149 = STYLED_ITEM ( 'NONE', ( #222 ), #79 ) ;
#150 = LINE ( 'NONE', #193, #39 ) ;
#151 = DIRECTION ( 'NONE',  ( 0.000000000000000000, 0.000000000000000000, -1.000000000000000000 ) ) ;
#152 = ORIENTED_EDGE ( 'NONE', *, *, #290, .F. ) ;
#153 = CARTESIAN_POINT ( 'NONE',  ( -0.2500000000000002776, 6.000000000000000888, 0.000000000000000000 ) ) ;
#154 = PRESENTATION_LAYER_ASSIGNMENT (  '', '', ( #113 ) ) ;
#155 = AXIS2_PLACEMENT_3D ( 'NONE', #116, #272, #115 ) ;
#156 =( CONVERSION_BASED_UNIT ( 'INCH', #247 ) LENGTH_UNIT ( ) NAMED_UNIT ( #240 ) );
#157 = ORIENTED_EDGE ( 'NONE', *, *, #290, .T. ) ;
#158 = VERTEX_POINT ( 'NONE', #241 ) ;
#159 = PLANE ( 'NONE',  #146 ) ;
#160 = AXIS2_PLACEMENT_3D ( 'NONE', #244, #190, #289 ) ;
#161 = FILL_AREA_STYLE ('',( #234 ) ) ;
#162 = LENGTH_MEASURE_WITH_UNIT ( LENGTH_MEASURE( 0.02539999999999999897 ), #41 );
#163 = FILL_AREA_STYLE_COLOUR ( '', #50 ) ;
#164 = CIRCLE ( 'NONE', #40, 0.2500000000000000000 ) ;
#165 = DIRECTION ( 'NONE',  ( 4.259641040512536405E-17, -1.000000000000000000, 0.000000000000000000 ) ) ;
#166 = DIRECTION ( 'NONE',  ( 1.000000000000000000, 4.259641040512536405E-17, 0.000000000000000000 ) ) ;
#167 = DIRECTION ( 'NONE',  ( 0.000000000000000000, 0.000000000000000000, -1.000000000000000000 ) ) ;
#168 = STYLED_ITEM ( 'NONE', ( #299 ), #292 ) ;
#169 = CARTESIAN_POINT ( 'NONE',  ( -1.224646799147354440E-16, 6.000000000000000888, 0.000000000000000000 ) ) ;
#170 = LINE ( 'NONE', #265, #174 ) ;
#171 = DIRECTION ( 'NONE',  ( 0.000000000000000000, 0.000000000000000000, -1.000000000000000000 ) ) ;
#172 = ORIENTED_EDGE ( 'NONE', *, *, #22, .F. ) ;
#173 = FILL_AREA_STYLE_COLOUR ( '', #144 ) ;
#174 = VECTOR ( 'NONE', #131, 39.37007874015748143 ) ;
#175 = CARTESIAN_POINT ( 'NONE',  ( 0.000000000000000000, 0.000000000000000000, 0.000000000000000000 ) ) ;
#176 = DIRECTION ( 'NONE',  ( -0.000000000000000000, -1.000000000000000000, -0.000000000000000000 ) ) ;
#177 = ORIENTED_EDGE ( 'NONE', *, *, #205, .F. ) ;
#178 =( LENGTH_UNIT ( ) NAMED_UNIT ( * ) SI_UNIT ( $, .METRE. ) );
#179 = VERTEX_POINT ( 'NONE', #59 ) ;
#180 = COLOUR_RGB ( '',1.000000000000000000, 0.000000000000000000, 0.000000000000000000 ) ;
#181 = SURFACE_SIDE_STYLE ('',( #124 ) ) ;
#182 = EDGE_CURVE ( 'NONE', #36, #221, #150, .T. ) ;
#183 =( NAMED_UNIT ( * ) SI_UNIT ( $, .STERADIAN. ) SOLID_ANGLE_UNIT ( ) );
#184 = DIRECTION ( 'NONE',  ( 0.000000000000000000, -1.000000000000000000, -0.000000000000000000 ) ) ;
#185 = CYLINDRICAL_SURFACE ( 'NONE', #257, 0.2500000000000000555 ) ;
#186 = AXIS2_PLACEMENT_3D ( 'NONE', #197, #268, #293 ) ;
#187 =( LENGTH_UNIT ( ) NAMED_UNIT ( * ) SI_UNIT ( $, .METRE. ) );
#188 = AXIS2_PLACEMENT_3D ( 'NONE', #105, #165, #166 ) ;
#189 = SURFACE_SIDE_STYLE ('',( #49 ) ) ;
#190 = DIRECTION ( 'NONE',  ( -4.259641040512536405E-17, 1.000000000000000000, -0.000000000000000000 ) ) ;
#191 =( GEOMETRIC_REPRESENTATION_CONTEXT ( 3 ) GLOBAL_UNCERTAINTY_ASSIGNED_CONTEXT ( ( #260 ) ) GLOBAL_UNIT_ASSIGNED_CONTEXT ( ( #211, #230, #73 ) ) REPRESENTATION_CONTEXT ( 'NONE', 'WORKASPACE' ) );
#192 = SURFACE_SIDE_STYLE ('',( #261 ) ) ;
#193 = CARTESIAN_POINT ( 'NONE',  ( -0.2500000000000002220, 6.000000000000000888, 0.000000000000000000 ) ) ;
#194 =( GEOMETRIC_REPRESENTATION_CONTEXT ( 3 ) GLOBAL_UNCERTAINTY_ASSIGNED_CONTEXT ( ( #52 ) ) GLOBAL_UNIT_ASSIGNED_CONTEXT ( ( #156, #95, #301 ) ) REPRESENTATION_CONTEXT ( 'NONE', 'WORKASPACE' ) );
#195 = CARTESIAN_POINT ( 'NONE',  ( 3.061616997868383018E-17, 0.000000000000000000, 0.2500000000000000000 ) ) ;
#196 = COLOUR_RGB ( '',0.7921568627450980005, 0.8196078431372548767, 0.9333333333333333481 ) ;
#197 = CARTESIAN_POINT ( 'NONE',  ( 0.000000000000000000, 0.000000000000000000, 0.000000000000000000 ) ) ;
#198 = CARTESIAN_POINT ( 'NONE',  ( 0.000000000000000000, 0.000000000000000000, -0.2500000000000000000 ) ) ;
#199 = EDGE_LOOP ( 'NONE', ( #201, #294 ) ) ;
#200 = ORIENTED_EDGE ( 'NONE', *, *, #28, .T. ) ;
#201 = ORIENTED_EDGE ( 'NONE', *, *, #14, .F. ) ;
#202 = SURFACE_STYLE_USAGE ( .BOTH. , #119 ) ;
#203 = DIRECTION ( 'NONE',  ( 0.000000000000000000, 0.000000000000000000, 1.000000000000000000 ) ) ;
#204 = DIRECTION ( 'NONE',  ( 0.000000000000000000, 0.000000000000000000, -1.000000000000000000 ) ) ;
#205 = EDGE_CURVE ( 'NONE', #127, #243, #253, .T. ) ;
#206 = APPLICATION_PROTOCOL_DEFINITION ( 'draft international standard', 'automotive_design', 1998, #92 ) ;
#207 =( GEOMETRIC_REPRESENTATION_CONTEXT ( 3 ) GLOBAL_UNCERTAINTY_ASSIGNED_CONTEXT ( ( #245 ) ) GLOBAL_UNIT_ASSIGNED_CONTEXT ( ( #142, #67, #208 ) ) REPRESENTATION_CONTEXT ( 'NONE', 'WORKASPACE' ) );
#208 =( NAMED_UNIT ( * ) SI_UNIT ( $, .STERADIAN. ) SOLID_ANGLE_UNIT ( ) );
#209 = DIRECTION ( 'NONE',  ( -1.000000000000000000, 0.000000000000000000, 0.000000000000000000 ) ) ;
#210 = EDGE_CURVE ( 'NONE', #158, #8, #259, .T. ) ;
#211 =( CONVERSION_BASED_UNIT ( 'INCH', #214 ) LENGTH_UNIT ( ) NAMED_UNIT ( #270 ) );
#212 = COLOUR_RGB ( '',1.000000000000000000, 0.000000000000000000, 0.000000000000000000 ) ;
#213 = AXIS2_PLACEMENT_3D ( 'NONE', #114, #271, #112 ) ;
#214 = LENGTH_MEASURE_WITH_UNIT ( LENGTH_MEASURE( 0.02539999999999999897 ), #288 );
#215 = ORIENTED_EDGE ( 'NONE', *, *, #262, .T. ) ;
#216 = MECHANICAL_DESIGN_GEOMETRIC_PRESENTATION_REPRESENTATION (  '', ( #149 ), #194 ) ;
#217 = CIRCLE ( 'NONE', #147, 0.2500000000000000000 ) ;
#218 = DIRECTION ( 'NONE',  ( -4.259641040512536405E-17, 1.000000000000000000, -0.000000000000000000 ) ) ;
#219 = CLOSED_SHELL ( 'NONE', ( #94, #130, #30, #126 ) ) ;
#220 = SURFACE_STYLE_USAGE ( .BOTH. , #135 ) ;
#221 = VERTEX_POINT ( 'NONE', #153 ) ;
#222 = PRESENTATION_STYLE_ASSIGNMENT (( #220 ) ) ;
#223 = ORIENTED_EDGE ( 'NONE', *, *, #123, .T. ) ;
#224 = MECHANICAL_DESIGN_GEOMETRIC_PRESENTATION_REPRESENTATION (  '', ( #113 ), #1 ) ;
#225 =( GEOMETRIC_REPRESENTATION_CONTEXT ( 3 ) GLOBAL_UNCERTAINTY_ASSIGNED_CONTEXT ( ( #239 ) ) GLOBAL_UNIT_ASSIGNED_CONTEXT ( ( #93, #102, #140 ) ) REPRESENTATION_CONTEXT ( 'NONE', 'WORKASPACE' ) );
#226 = CARTESIAN_POINT ( 'NONE',  ( -0.2500000000000000000, 3.125000000000000000, 0.000000000000000000 ) ) ;
#227 =( NAMED_UNIT ( * ) PLANE_ANGLE_UNIT ( ) SI_UNIT ( $, .RADIAN. ) );
#228 = DIRECTION ( 'NONE',  ( -0.000000000000000000, -1.000000000000000000, -0.000000000000000000 ) ) ;
#229 = CYLINDRICAL_SURFACE ( 'NONE', #19, 0.2500000000000000555 ) ;
#230 =( NAMED_UNIT ( * ) PLANE_ANGLE_UNIT ( ) SI_UNIT ( $, .RADIAN. ) );
#231 = ADVANCED_FACE ( 'NONE', ( #9 ), #34, .T. ) ;
#232 = MECHANICAL_DESIGN_GEOMETRIC_PRESENTATION_REPRESENTATION (  '', ( #307 ), #207 ) ;
#233 = SURFACE_STYLE_USAGE ( .BOTH. , #181 ) ;
#234 = FILL_AREA_STYLE_COLOUR ( '', #90 ) ;
#235 = EDGE_CURVE ( 'NONE', #8, #158, #217, .T. ) ;
#236 = CARTESIAN_POINT ( 'NONE',  ( 0.000000000000000000, 0.000000000000000000, -0.2500000000000000000 ) ) ;
#237 = DIRECTION ( 'NONE',  ( -1.000000000000000000, 0.000000000000000000, 0.000000000000000000 ) ) ;
#238 = SURFACE_STYLE_USAGE ( .BOTH. , #192 ) ;
#239 = UNCERTAINTY_MEASURE_WITH_UNIT (LENGTH_MEASURE( 1.000000000000000082E-05 ), #93, 'distance_accuracy_value', 'NONE');
#240 = DIMENSIONAL_EXPONENTS ( 1.000000000000000000, 0.000000000000000000, 0.000000000000000000, 0.000000000000000000, 0.000000000000000000, 0.000000000000000000, 0.000000000000000000 ) ;
#241 = CARTESIAN_POINT ( 'NONE',  ( 3.061616997868383018E-17, 3.125000000000000000, 0.2500000000000000000 ) ) ;
#242 = FACE_OUTER_BOUND ( 'NONE', #285, .T. ) ;
#243 = VERTEX_POINT ( 'NONE', #195 ) ;
#244 = CARTESIAN_POINT ( 'NONE',  ( 0.000000000000000000, 3.125000000000000000, 0.000000000000000000 ) ) ;
#245 = UNCERTAINTY_MEASURE_WITH_UNIT (LENGTH_MEASURE( 1.000000000000000082E-05 ), #142, 'distance_accuracy_value', 'NONE');
#246 = ORIENTED_EDGE ( 'NONE', *, *, #141, .T. ) ;
#247 = LENGTH_MEASURE_WITH_UNIT ( LENGTH_MEASURE( 0.02539999999999999897 ), #178 );
#248 = FACE_OUTER_BOUND ( 'NONE', #118, .T. ) ;
#249 =( LENGTH_UNIT ( ) NAMED_UNIT ( * ) SI_UNIT ( $, .METRE. ) );
#250 = DIRECTION ( 'NONE',  ( 0.000000000000000000, 0.000000000000000000, -1.000000000000000000 ) ) ;
#251 =( NAMED_UNIT ( * ) SI_UNIT ( $, .STERADIAN. ) SOLID_ANGLE_UNIT ( ) );
#252 = DIMENSIONAL_EXPONENTS ( 1.000000000000000000, 0.000000000000000000, 0.000000000000000000, 0.000000000000000000, 0.000000000000000000, 0.000000000000000000, 0.000000000000000000 ) ;
#253 = CIRCLE ( 'NONE', #186, 0.2500000000000000000 ) ;
#254 = PLANE ( 'NONE',  #188 ) ;
#255 = LENGTH_MEASURE_WITH_UNIT ( LENGTH_MEASURE( 0.02539999999999999897 ), #125 );
#256 = DIRECTION ( 'NONE',  ( -4.259641040512536405E-17, 1.000000000000000000, -0.000000000000000000 ) ) ;
#257 = AXIS2_PLACEMENT_3D ( 'NONE', #21, #256, #209 ) ;
#258 = PRODUCT ( '03527', '03527', '', ( #98 ) ) ;
#259 = CIRCLE ( 'NONE', #63, 0.2500000000000000000 ) ;
#260 = UNCERTAINTY_MEASURE_WITH_UNIT (LENGTH_MEASURE( 1.000000000000000082E-05 ), #211, 'distance_accuracy_value', 'NONE');
#261 = SURFACE_STYLE_FILL_AREA ( #108 ) ;
#262 = EDGE_CURVE ( 'NONE', #276, #36, #77, .T. ) ;
#263 = DIRECTION ( 'NONE',  ( -0.000000000000000000, -1.000000000000000000, -0.000000000000000000 ) ) ;
#264 = ORIENTED_EDGE ( 'NONE', *, *, #22, .T. ) ;
#265 = CARTESIAN_POINT ( 'NONE',  ( 0.2499999999999999167, 6.000000000000000888, 3.061616997868383634E-17 ) ) ;
#266 = LINE ( 'NONE', #198, #85 ) ;
#267 = EDGE_LOOP ( 'NONE', ( #111, #215, #104, #278 ) ) ;
#268 = DIRECTION ( 'NONE',  ( -0.000000000000000000, -1.000000000000000000, -0.000000000000000000 ) ) ;
#269 = AXIS2_PLACEMENT_3D ( 'NONE', #175, #55, #151 ) ;
#270 = DIMENSIONAL_EXPONENTS ( 1.000000000000000000, 0.000000000000000000, 0.000000000000000000, 0.000000000000000000, 0.000000000000000000, 0.000000000000000000, 0.000000000000000000 ) ;
#271 = DIRECTION ( 'NONE',  ( -4.259641040512536405E-17, 1.000000000000000000, 0.000000000000000000 ) ) ;
#272 = DIRECTION ( 'NONE',  ( -4.259641040512536405E-17, 1.000000000000000000, -0.000000000000000000 ) ) ;
#273 = PLANE ( 'NONE',  #69 ) ;
#274 = FACE_OUTER_BOUND ( 'NONE', #199, .T. ) ;
#275 = FILL_AREA_STYLE ('',( #296 ) ) ;
#276 = VERTEX_POINT ( 'NONE', #83 ) ;
#277 = STYLED_ITEM ( 'NONE', ( #128 ), #231 ) ;
#278 = ORIENTED_EDGE ( 'NONE', *, *, #28, .F. ) ;
#279 = DIRECTION ( 'NONE',  ( 0.000000000000000000, 1.000000000000000000, 0.000000000000000000 ) ) ;
#280 = APPLICATION_PROTOCOL_DEFINITION ( 'draft international standard', 'automotive_design', 1998, #11 ) ;
#281 = DIMENSIONAL_EXPONENTS ( 1.000000000000000000, 0.000000000000000000, 0.000000000000000000, 0.000000000000000000, 0.000000000000000000, 0.000000000000000000, 0.000000000000000000 ) ;
#282 = FACE_OUTER_BOUND ( 'NONE', #117, .T. ) ;
#283 = UNCERTAINTY_MEASURE_WITH_UNIT (LENGTH_MEASURE( 1.000000000000000082E-05 ), #96, 'distance_accuracy_value', 'NONE');
#284 =( NAMED_UNIT ( * ) PLANE_ANGLE_UNIT ( ) SI_UNIT ( $, .RADIAN. ) );
#285 = EDGE_LOOP ( 'NONE', ( #88, #65, #157, #58 ) ) ;
#286 = FACE_OUTER_BOUND ( 'NONE', #267, .T. ) ;
#287 = CARTESIAN_POINT ( 'NONE',  ( 0.000000000000000000, 0.000000000000000000, 0.000000000000000000 ) ) ;
#288 =( LENGTH_UNIT ( ) NAMED_UNIT ( * ) SI_UNIT ( $, .METRE. ) );
#289 = DIRECTION ( 'NONE',  ( -1.000000000000000000, 0.000000000000000000, 0.000000000000000000 ) ) ;
#290 = EDGE_CURVE ( 'NONE', #8, #127, #266, .T. ) ;
#291 = PRODUCT_DEFINITION ( 'UNKNOWN', '', #81, #29 ) ;
#292 = MANIFOLD_SOLID_BREP ( 'Revolve - Cutting Edge', #31 ) ;
#293 = DIRECTION ( 'NONE',  ( 0.000000000000000000, 0.000000000000000000, -1.000000000000000000 ) ) ;
#294 = ORIENTED_EDGE ( 'NONE', *, *, #262, .F. ) ;
#295 = DIMENSIONAL_EXPONENTS ( 1.000000000000000000, 0.000000000000000000, 0.000000000000000000, 0.000000000000000000, 0.000000000000000000, 0.000000000000000000, 0.000000000000000000 ) ;
#296 = FILL_AREA_STYLE_COLOUR ( '', #196 ) ;
#297 = FILL_AREA_STYLE_COLOUR ( '', #180 ) ;
#298 = AXIS2_PLACEMENT_3D ( 'NONE', #38, #122, #103 ) ;
#299 = PRESENTATION_STYLE_ASSIGNMENT (( #137 ) ) ;
#300 = PRESENTATION_LAYER_ASSIGNMENT (  '', '', ( #277 ) ) ;
#301 =( NAMED_UNIT ( * ) SI_UNIT ( $, .STERADIAN. ) SOLID_ANGLE_UNIT ( ) );
#302 = DIRECTION ( 'NONE',  ( -4.259641040512536405E-17, 1.000000000000000000, -0.000000000000000000 ) ) ;
#303 = DIMENSIONAL_EXPONENTS ( 1.000000000000000000, 0.000000000000000000, 0.000000000000000000, 0.000000000000000000, 0.000000000000000000, 0.000000000000000000, 0.000000000000000000 ) ;
#304 = LENGTH_MEASURE_WITH_UNIT ( LENGTH_MEASURE( 0.02539999999999999897 ), #110 );
#305 = CARTESIAN_POINT ( 'NONE',  ( 3.061616997868383018E-17, 0.000000000000000000, 0.2500000000000000000 ) ) ;
#306 = DIRECTION ( 'NONE',  ( -1.000000000000000000, 0.000000000000000000, 0.000000000000000000 ) ) ;
#307 = STYLED_ITEM ( 'NONE', ( #17 ), #48 ) ;
#308 = FILL_AREA_STYLE ('',( #163 ) ) ;
#309 = SURFACE_STYLE_USAGE ( .BOTH. , #189 ) ;
ENDSEC;
END-ISO-10303-21;
