ISO-10303-21;
HEADER;
FILE_DESCRIPTION (( 'STEP AP214' ),
    '1' );
FILE_NAME ('82856.STEP',
    '2023-06-23T07:02:05',
    ( '' ),
    ( '' ),
    'SwSTEP 2.0',
    'SolidWorks 2023',
    '' );
FILE_SCHEMA (( 'AUTOMOTIVE_DESIGN' ));
ENDSEC;

DATA;
#1 = DIRECTION ( 'NONE',  ( 1.000000000000000000, 0.000000000000000000, 0.000000000000000000 ) ) ;
#2 = DIRECTION ( 'NONE',  ( 0.000000000000000000, 0.000000000000000000, -1.000000000000000000 ) ) ;
#3 = UNCERTAINTY_MEASURE_WITH_UNIT (LENGTH_MEASURE( 1.000000000000000082E-05 ), #71, 'distance_accuracy_value', 'NONE');
#4 = CARTESIAN_POINT ( 'NONE',  ( 0.000000000000000000, 0.000000000000000000, 0.000000000000000000 ) ) ;
#5 = VECTOR ( 'NONE', #65, 39.37007874015748143 ) ;
#6 = ADVANCED_FACE ( 'NONE', ( #20 ), #248, .T. ) ;
#7 = EDGE_LOOP ( 'NONE', ( #220, #243, #238, #17 ) ) ;
#8 = ORIENTED_EDGE ( 'NONE', *, *, #218, .T. ) ;
#9 = AXIS2_PLACEMENT_3D ( 'NONE', #296, #155, #202 ) ;
#10 =( GEOMETRIC_REPRESENTATION_CONTEXT ( 3 ) GLOBAL_UNCERTAINTY_ASSIGNED_CONTEXT ( ( #26 ) ) GLOBAL_UNIT_ASSIGNED_CONTEXT ( ( #166, #287, #213 ) ) REPRESENTATION_CONTEXT ( 'NONE', 'WORKASPACE' ) );
#11 = APPLICATION_CONTEXT ( 'automotive_design' ) ;
#12 = VERTEX_POINT ( 'NONE', #117 ) ;
#13 = VECTOR ( 'NONE', #286, 39.37007874015748143 ) ;
#14 = PRESENTATION_STYLE_ASSIGNMENT (( #297 ) ) ;
#15 = CARTESIAN_POINT ( 'NONE',  ( -1.224646799147353207E-16, 5.000000000000000000, 0.000000000000000000 ) ) ;
#16 = ORIENTED_EDGE ( 'NONE', *, *, #165, .T. ) ;
#17 = ORIENTED_EDGE ( 'NONE', *, *, #132, .F. ) ;
#18 = CIRCLE ( 'NONE', #192, 0.1875000000000000278 ) ;
#19 =( NAMED_UNIT ( * ) PLANE_ANGLE_UNIT ( ) SI_UNIT ( $, .RADIAN. ) );
#20 = FACE_OUTER_BOUND ( 'NONE', #191, .T. ) ;
#21 = DIRECTION ( 'NONE',  ( 0.000000000000000000, 0.000000000000000000, -1.000000000000000000 ) ) ;
#22 = PRODUCT_DEFINITION_CONTEXT ( 'detailed design', #11, 'design' ) ;
#23 = SURFACE_SIDE_STYLE ('',( #75 ) ) ;
#24 = DIRECTION ( 'NONE',  ( -6.123233995736766036E-17, 1.000000000000000000, -0.000000000000000000 ) ) ;
#25 = CARTESIAN_POINT ( 'NONE',  ( -1.224646799147353207E-16, 5.000000000000000000, 0.000000000000000000 ) ) ;
#26 = UNCERTAINTY_MEASURE_WITH_UNIT (LENGTH_MEASURE( 1.000000000000000082E-05 ), #166, 'distance_accuracy_value', 'NONE');
#27 = DIRECTION ( 'NONE',  ( 0.000000000000000000, -1.000000000000000000, -0.000000000000000000 ) ) ;
#28 = CARTESIAN_POINT ( 'NONE',  ( 0.000000000000000000, 3.000000000000000444, -0.1875000000000000278 ) ) ;
#29 = CLOSED_SHELL ( 'NONE', ( #70, #147, #6, #56 ) ) ;
#30 = UNCERTAINTY_MEASURE_WITH_UNIT (LENGTH_MEASURE( 1.000000000000000082E-05 ), #92, 'distance_accuracy_value', 'NONE');
#31 = EDGE_CURVE ( 'NONE', #144, #302, #18, .T. ) ;
#32 = PRODUCT_DEFINITION_SHAPE ( 'NONE', 'NONE',  #159 ) ;
#33 = CYLINDRICAL_SURFACE ( 'NONE', #60, 0.1875000000000000278 ) ;
#34 =( NAMED_UNIT ( * ) PLANE_ANGLE_UNIT ( ) SI_UNIT ( $, .RADIAN. ) );
#35 = COLOUR_RGB ( '',1.000000000000000000, 0.000000000000000000, 0.000000000000000000 ) ;
#36 = PRESENTATION_STYLE_ASSIGNMENT (( #171 ) ) ;
#37 = VERTEX_POINT ( 'NONE', #86 ) ;
#38 = ORIENTED_EDGE ( 'NONE', *, *, #43, .T. ) ;
#39 =( LENGTH_UNIT ( ) NAMED_UNIT ( * ) SI_UNIT ( $, .METRE. ) );
#40 = DIMENSIONAL_EXPONENTS ( 1.000000000000000000, 0.000000000000000000, 0.000000000000000000, 0.000000000000000000, 0.000000000000000000, 0.000000000000000000, 0.000000000000000000 ) ;
#41 =( NAMED_UNIT ( * ) PLANE_ANGLE_UNIT ( ) SI_UNIT ( $, .RADIAN. ) );
#42 = DIRECTION ( 'NONE',  ( -6.123233995736766036E-17, 1.000000000000000000, -0.000000000000000000 ) ) ;
#43 = EDGE_CURVE ( 'NONE', #12, #114, #274, .T. ) ;
#44 = VECTOR ( 'NONE', #42, 39.37007874015748143 ) ;
#45 = DIRECTION ( 'NONE',  ( 1.000000000000000000, 6.123233995736766036E-17, 0.000000000000000000 ) ) ;
#46 =( GEOMETRIC_REPRESENTATION_CONTEXT ( 3 ) GLOBAL_UNCERTAINTY_ASSIGNED_CONTEXT ( ( #72 ) ) GLOBAL_UNIT_ASSIGNED_CONTEXT ( ( #68, #41, #153 ) ) REPRESENTATION_CONTEXT ( 'NONE', 'WORKASPACE' ) );
#47 = SURFACE_STYLE_FILL_AREA ( #255 ) ;
#48 = EDGE_CURVE ( 'NONE', #116, #151, #231, .T. ) ;
#49 = DIRECTION ( 'NONE',  ( -6.123233995736766036E-17, 1.000000000000000000, -0.000000000000000000 ) ) ;
#50 = MECHANICAL_DESIGN_GEOMETRIC_PRESENTATION_REPRESENTATION (  '', ( #183 ), #258 ) ;
#51 = EDGE_LOOP ( 'NONE', ( #137, #106 ) ) ;
#52 = MANIFOLD_SOLID_BREP ( 'Revolve - Cutting Edge', #289 ) ;
#53 = STYLED_ITEM ( 'NONE', ( #119 ), #124 ) ;
#54 = COLOUR_RGB ( '',1.000000000000000000, 0.000000000000000000, 0.000000000000000000 ) ;
#55 = LENGTH_MEASURE_WITH_UNIT ( LENGTH_MEASURE( 0.02539999999999999897 ), #80 );
#56 = ADVANCED_FACE ( 'NONE', ( #235 ), #172, .F. ) ;
#57 = CARTESIAN_POINT ( 'NONE',  ( 0.000000000000000000, 0.000000000000000000, 0.000000000000000000 ) ) ;
#58 = LENGTH_MEASURE_WITH_UNIT ( LENGTH_MEASURE( 0.02539999999999999897 ), #39 );
#59 = ORIENTED_EDGE ( 'NONE', *, *, #260, .F. ) ;
#60 = AXIS2_PLACEMENT_3D ( 'NONE', #4, #204, #121 ) ;
#61 = DIRECTION ( 'NONE',  ( -6.123233995736766036E-17, 1.000000000000000000, -0.000000000000000000 ) ) ;
#62 = DIRECTION ( 'NONE',  ( -0.000000000000000000, -1.000000000000000000, -0.000000000000000000 ) ) ;
#63 = EDGE_CURVE ( 'NONE', #116, #37, #160, .T. ) ;
#64 = CARTESIAN_POINT ( 'NONE',  ( 0.000000000000000000, 0.000000000000000000, 0.000000000000000000 ) ) ;
#65 = DIRECTION ( 'NONE',  ( -0.000000000000000000, -1.000000000000000000, -0.000000000000000000 ) ) ;
#66 = AXIS2_PLACEMENT_3D ( 'NONE', #15, #295, #175 ) ;
#67 = VECTOR ( 'NONE', #210, 39.37007874015748143 ) ;
#68 =( CONVERSION_BASED_UNIT ( 'INCH', #307 ) LENGTH_UNIT ( ) NAMED_UNIT ( #273 ) );
#69 = SURFACE_STYLE_USAGE ( .BOTH. , #23 ) ;
#70 = ADVANCED_FACE ( 'NONE', ( #251 ), #142, .T. ) ;
#71 =( CONVERSION_BASED_UNIT ( 'INCH', #276 ) LENGTH_UNIT ( ) NAMED_UNIT ( #164 ) );
#72 = UNCERTAINTY_MEASURE_WITH_UNIT (LENGTH_MEASURE( 1.000000000000000082E-05 ), #68, 'distance_accuracy_value', 'NONE');
#73 = DIRECTION ( 'NONE',  ( -1.000000000000000000, -6.123233995736766036E-17, 0.000000000000000000 ) ) ;
#74 = COLOUR_RGB ( '',0.7921568627450980005, 0.8196078431372548767, 0.9333333333333333481 ) ;
#75 = SURFACE_STYLE_FILL_AREA ( #309 ) ;
#76 =( NAMED_UNIT ( * ) PLANE_ANGLE_UNIT ( ) SI_UNIT ( $, .RADIAN. ) );
#77 = EDGE_CURVE ( 'NONE', #37, #109, #226, .T. ) ;
#78 = CARTESIAN_POINT ( 'NONE',  ( 0.1875000000000000278, 3.000000000000000444, 2.296212748401288650E-17 ) ) ;
#79 = ORIENTED_EDGE ( 'NONE', *, *, #77, .F. ) ;
#80 =( LENGTH_UNIT ( ) NAMED_UNIT ( * ) SI_UNIT ( $, .METRE. ) );
#81 = LENGTH_MEASURE_WITH_UNIT ( LENGTH_MEASURE( 0.02539999999999999897 ), #291 );
#82 = FACE_OUTER_BOUND ( 'NONE', #7, .T. ) ;
#83 = ORIENTED_EDGE ( 'NONE', *, *, #63, .F. ) ;
#84 = FILL_AREA_STYLE ('',( #300 ) ) ;
#85 = DIRECTION ( 'NONE',  ( -1.000000000000000000, 0.000000000000000000, 0.000000000000000000 ) ) ;
#86 = CARTESIAN_POINT ( 'NONE',  ( -0.1875000000000002776, 5.000000000000000000, 0.000000000000000000 ) ) ;
#87 = MECHANICAL_DESIGN_GEOMETRIC_PRESENTATION_REPRESENTATION (  '', ( #108 ), #88 ) ;
#88 =( GEOMETRIC_REPRESENTATION_CONTEXT ( 3 ) GLOBAL_UNCERTAINTY_ASSIGNED_CONTEXT ( ( #272 ) ) GLOBAL_UNIT_ASSIGNED_CONTEXT ( ( #217, #19, #301 ) ) REPRESENTATION_CONTEXT ( 'NONE', 'WORKASPACE' ) );
#89 = FILL_AREA_STYLE ('',( #219 ) ) ;
#90 = SURFACE_SIDE_STYLE ('',( #268 ) ) ;
#91 = CARTESIAN_POINT ( 'NONE',  ( 2.296212748401287726E-17, 0.000000000000000000, 0.1875000000000000278 ) ) ;
#92 =( CONVERSION_BASED_UNIT ( 'INCH', #58 ) LENGTH_UNIT ( ) NAMED_UNIT ( #154 ) );
#93 = PRODUCT_CONTEXT ( 'NONE', #303, 'mechanical' ) ;
#94 = SURFACE_STYLE_USAGE ( .BOTH. , #211 ) ;
#95 = DIMENSIONAL_EXPONENTS ( 1.000000000000000000, 0.000000000000000000, 0.000000000000000000, 0.000000000000000000, 0.000000000000000000, 0.000000000000000000, 0.000000000000000000 ) ;
#96 = MECHANICAL_DESIGN_GEOMETRIC_PRESENTATION_REPRESENTATION (  '', ( #293 ), #10 ) ;
#97 = FACE_OUTER_BOUND ( 'NONE', #245, .T. ) ;
#98 = DIRECTION ( 'NONE',  ( -1.000000000000000000, 0.000000000000000000, 0.000000000000000000 ) ) ;
#99 = DIRECTION ( 'NONE',  ( -1.000000000000000000, 0.000000000000000000, 0.000000000000000000 ) ) ;
#100 = PLANE ( 'NONE',  #120 ) ;
#101 = AXIS2_PLACEMENT_3D ( 'NONE', #234, #49, #205 ) ;
#102 = PRODUCT_DEFINITION_FORMATION_WITH_SPECIFIED_SOURCE ( 'ANY', '', #266, .NOT_KNOWN. ) ;
#103 = CARTESIAN_POINT ( 'NONE',  ( 0.000000000000000000, 0.000000000000000000, 0.000000000000000000 ) ) ;
#104 = DIRECTION ( 'NONE',  ( -0.000000000000000000, -1.000000000000000000, -0.000000000000000000 ) ) ;
#105 = PLANE ( 'NONE',  #127 ) ;
#106 = ORIENTED_EDGE ( 'NONE', *, *, #304, .F. ) ;
#107 = FILL_AREA_STYLE ('',( #237 ) ) ;
#108 = STYLED_ITEM ( 'NONE', ( #14 ), #278 ) ;
#109 = VERTEX_POINT ( 'NONE', #163 ) ;
#110 = ORIENTED_EDGE ( 'NONE', *, *, #165, .F. ) ;
#111 = LENGTH_MEASURE_WITH_UNIT ( LENGTH_MEASURE( 0.02539999999999999897 ), #133 );
#112 = ORIENTED_EDGE ( 'NONE', *, *, #140, .F. ) ;
#113 = SURFACE_SIDE_STYLE ('',( #221 ) ) ;
#114 = VERTEX_POINT ( 'NONE', #229 ) ;
#115 = SURFACE_SIDE_STYLE ('',( #173 ) ) ;
#116 = VERTEX_POINT ( 'NONE', #141 ) ;
#117 = CARTESIAN_POINT ( 'NONE',  ( 0.000000000000000000, 0.000000000000000000, -0.1875000000000000278 ) ) ;
#118 = CARTESIAN_POINT ( 'NONE',  ( 3.515061990613729624E-34, 3.000000000000000444, 0.000000000000000000 ) ) ;
#119 = PRESENTATION_STYLE_ASSIGNMENT (( #69 ) ) ;
#120 = AXIS2_PLACEMENT_3D ( 'NONE', #306, #27, #185 ) ;
#121 = DIRECTION ( 'NONE',  ( 0.000000000000000000, 0.000000000000000000, -1.000000000000000000 ) ) ;
#122 = CARTESIAN_POINT ( 'NONE',  ( 0.000000000000000000, 0.000000000000000000, -0.1875000000000000278 ) ) ;
#123 = CIRCLE ( 'NONE', #156, 0.1875000000000000278 ) ;
#124 = ADVANCED_FACE ( 'NONE', ( #97 ), #100, .T. ) ;
#125 = UNCERTAINTY_MEASURE_WITH_UNIT (LENGTH_MEASURE( 1.000000000000000082E-05 ), #267, 'distance_accuracy_value', 'NONE');
#126 =( CONVERSION_BASED_UNIT ( 'INCH', #81 ) LENGTH_UNIT ( ) NAMED_UNIT ( #95 ) );
#127 = AXIS2_PLACEMENT_3D ( 'NONE', #190, #168, #241 ) ;
#128 = SURFACE_SIDE_STYLE ('',( #194 ) ) ;
#129 = EDGE_LOOP ( 'NONE', ( #135, #215, #79, #83 ) ) ;
#130 = DIRECTION ( 'NONE',  ( 0.000000000000000000, 0.000000000000000000, -1.000000000000000000 ) ) ;
#131 = AXIS2_PLACEMENT_3D ( 'NONE', #250, #207, #45 ) ;
#132 = EDGE_CURVE ( 'NONE', #144, #12, #256, .T. ) ;
#133 =( LENGTH_UNIT ( ) NAMED_UNIT ( * ) SI_UNIT ( $, .METRE. ) );
#134 = LINE ( 'NONE', #91, #5 ) ;
#135 = ORIENTED_EDGE ( 'NONE', *, *, #48, .T. ) ;
#136 =( LENGTH_UNIT ( ) NAMED_UNIT ( * ) SI_UNIT ( $, .METRE. ) );
#137 = ORIENTED_EDGE ( 'NONE', *, *, #48, .F. ) ;
#138 = FILL_AREA_STYLE_COLOUR ( '', #54 ) ;
#139 =( NAMED_UNIT ( * ) SI_UNIT ( $, .STERADIAN. ) SOLID_ANGLE_UNIT ( ) );
#140 = EDGE_CURVE ( 'NONE', #114, #12, #123, .T. ) ;
#141 = CARTESIAN_POINT ( 'NONE',  ( -0.1875000000000000278, 3.000000000000000444, 0.000000000000000000 ) ) ;
#142 = CYLINDRICAL_SURFACE ( 'NONE', #161, 0.1875000000000000833 ) ;
#143 = AXIS2_PLACEMENT_3D ( 'NONE', #186, #104, #265 ) ;
#144 = VERTEX_POINT ( 'NONE', #28 ) ;
#145 = FILL_AREA_STYLE ('',( #198 ) ) ;
#146 = DIRECTION ( 'NONE',  ( -0.000000000000000000, -1.000000000000000000, -0.000000000000000000 ) ) ;
#147 = ADVANCED_FACE ( 'NONE', ( #230 ), #277, .F. ) ;
#148 = PRESENTATION_LAYER_ASSIGNMENT (  '', '', ( #183 ) ) ;
#149 = MANIFOLD_SOLID_BREP ( 'Revolve - Tool Body (Straight Shanked)', #29 ) ;
#150 =( NAMED_UNIT ( * ) SI_UNIT ( $, .STERADIAN. ) SOLID_ANGLE_UNIT ( ) );
#151 = VERTEX_POINT ( 'NONE', #78 ) ;
#152 = DIRECTION ( 'NONE',  ( -0.000000000000000000, -1.000000000000000000, -0.000000000000000000 ) ) ;
#153 =( NAMED_UNIT ( * ) SI_UNIT ( $, .STERADIAN. ) SOLID_ANGLE_UNIT ( ) );
#154 = DIMENSIONAL_EXPONENTS ( 1.000000000000000000, 0.000000000000000000, 0.000000000000000000, 0.000000000000000000, 0.000000000000000000, 0.000000000000000000, 0.000000000000000000 ) ;
#155 = DIRECTION ( 'NONE',  ( -6.123233995736766036E-17, 1.000000000000000000, -0.000000000000000000 ) ) ;
#156 = AXIS2_PLACEMENT_3D ( 'NONE', #103, #157, #2 ) ;
#157 = DIRECTION ( 'NONE',  ( -0.000000000000000000, -1.000000000000000000, -0.000000000000000000 ) ) ;
#158 =( NAMED_UNIT ( * ) PLANE_ANGLE_UNIT ( ) SI_UNIT ( $, .RADIAN. ) );
#159 = PRODUCT_DEFINITION ( 'UNKNOWN', '', #102, #22 ) ;
#160 = LINE ( 'NONE', #209, #44 ) ;
#161 = AXIS2_PLACEMENT_3D ( 'NONE', #25, #233, #99 ) ;
#162 = DIRECTION ( 'NONE',  ( 0.000000000000000000, 0.000000000000000000, 1.000000000000000000 ) ) ;
#163 = CARTESIAN_POINT ( 'NONE',  ( 0.1875000000000000278, 5.000000000000000000, 2.296212748401288650E-17 ) ) ;
#164 = DIMENSIONAL_EXPONENTS ( 1.000000000000000000, 0.000000000000000000, 0.000000000000000000, 0.000000000000000000, 0.000000000000000000, 0.000000000000000000, 0.000000000000000000 ) ;
#165 = EDGE_CURVE ( 'NONE', #302, #144, #236, .T. ) ;
#166 =( CONVERSION_BASED_UNIT ( 'INCH', #55 ) LENGTH_UNIT ( ) NAMED_UNIT ( #283 ) );
#167 = CIRCLE ( 'NONE', #240, 0.1875000000000001388 ) ;
#168 = DIRECTION ( 'NONE',  ( 0.000000000000000000, 1.000000000000000000, 0.000000000000000000 ) ) ;
#169 = MECHANICAL_DESIGN_GEOMETRIC_PRESENTATION_REPRESENTATION (  '', ( #195 ), #290 ) ;
#170 =( NAMED_UNIT ( * ) SI_UNIT ( $, .STERADIAN. ) SOLID_ANGLE_UNIT ( ) );
#171 = SURFACE_STYLE_USAGE ( .BOTH. , #113 ) ;
#172 = PLANE ( 'NONE',  #131 ) ;
#173 = SURFACE_STYLE_FILL_AREA ( #89 ) ;
#174 = COLOUR_RGB ( '',0.7921568627450980005, 0.8196078431372548767, 0.9333333333333333481 ) ;
#175 = DIRECTION ( 'NONE',  ( -1.000000000000000000, 0.000000000000000000, 0.000000000000000000 ) ) ;
#176 = COLOUR_RGB ( '',1.000000000000000000, 0.000000000000000000, 0.000000000000000000 ) ;
#177 = LENGTH_MEASURE_WITH_UNIT ( LENGTH_MEASURE( 0.02539999999999999897 ), #136 );
#178 = SURFACE_STYLE_USAGE ( .BOTH. , #90 ) ;
#179 = FACE_OUTER_BOUND ( 'NONE', #203, .T. ) ;
#180 =( NAMED_UNIT ( * ) PLANE_ANGLE_UNIT ( ) SI_UNIT ( $, .RADIAN. ) );
#181 = APPLICATION_PROTOCOL_DEFINITION ( 'draft international standard', 'automotive_design', 1998, #11 ) ;
#182 = PRESENTATION_STYLE_ASSIGNMENT (( #94 ) ) ;
#183 = STYLED_ITEM ( 'NONE', ( #259 ), #214 ) ;
#184 = CARTESIAN_POINT ( 'NONE',  ( 0.000000000000000000, 0.000000000000000000, 0.000000000000000000 ) ) ;
#185 = DIRECTION ( 'NONE',  ( 0.000000000000000000, 0.000000000000000000, -1.000000000000000000 ) ) ;
#186 = CARTESIAN_POINT ( 'NONE',  ( 0.000000000000000000, 3.000000000000000444, 0.000000000000000000 ) ) ;
#187 = AXIS2_PLACEMENT_3D ( 'NONE', #118, #188, #73 ) ;
#188 = DIRECTION ( 'NONE',  ( -6.123233995736766036E-17, 1.000000000000000000, 0.000000000000000000 ) ) ;
#189 = CARTESIAN_POINT ( 'NONE',  ( 0.1874999999999999445, 5.000000000000000000, 2.296212748401288342E-17 ) ) ;
#190 = CARTESIAN_POINT ( 'NONE',  ( 0.000000000000000000, 3.000000000000000444, 0.000000000000000000 ) ) ;
#191 = EDGE_LOOP ( 'NONE', ( #271, #257, #288, #270 ) ) ;
#192 = AXIS2_PLACEMENT_3D ( 'NONE', #199, #146, #196 ) ;
#193 = COLOUR_RGB ( '',1.000000000000000000, 0.000000000000000000, 0.000000000000000000 ) ;
#194 = SURFACE_STYLE_FILL_AREA ( #107 ) ;
#195 = STYLED_ITEM ( 'NONE', ( #222 ), #52 ) ;
#196 = DIRECTION ( 'NONE',  ( 0.000000000000000000, 0.000000000000000000, -1.000000000000000000 ) ) ;
#197 = EDGE_CURVE ( 'NONE', #151, #109, #292, .T. ) ;
#198 = FILL_AREA_STYLE_COLOUR ( '', #176 ) ;
#199 = CARTESIAN_POINT ( 'NONE',  ( 0.000000000000000000, 3.000000000000000444, 0.000000000000000000 ) ) ;
#200 = CYLINDRICAL_SURFACE ( 'NONE', #232, 0.1875000000000000278 ) ;
#201 = ORIENTED_EDGE ( 'NONE', *, *, #77, .T. ) ;
#202 = DIRECTION ( 'NONE',  ( -1.000000000000000000, 0.000000000000000000, 0.000000000000000000 ) ) ;
#203 = EDGE_LOOP ( 'NONE', ( #59, #16, #261, #112 ) ) ;
#204 = DIRECTION ( 'NONE',  ( -0.000000000000000000, -1.000000000000000000, -0.000000000000000000 ) ) ;
#205 = DIRECTION ( 'NONE',  ( -1.000000000000000000, 0.000000000000000000, 0.000000000000000000 ) ) ;
#206 = CARTESIAN_POINT ( 'NONE',  ( 0.000000000000000000, 3.000000000000000444, 0.000000000000000000 ) ) ;
#207 = DIRECTION ( 'NONE',  ( 6.123233995736766036E-17, -1.000000000000000000, 0.000000000000000000 ) ) ;
#208 = MECHANICAL_DESIGN_GEOMETRIC_PRESENTATION_REPRESENTATION (  '', ( #252 ), #299 ) ;
#209 = CARTESIAN_POINT ( 'NONE',  ( -0.1875000000000002220, 5.000000000000000000, 0.000000000000000000 ) ) ;
#210 = DIRECTION ( 'NONE',  ( -0.000000000000000000, -1.000000000000000000, -0.000000000000000000 ) ) ;
#211 = SURFACE_SIDE_STYLE ('',( #47 ) ) ;
#212 = PRESENTATION_LAYER_ASSIGNMENT (  '', '', ( #195 ) ) ;
#213 =( NAMED_UNIT ( * ) SI_UNIT ( $, .STERADIAN. ) SOLID_ANGLE_UNIT ( ) );
#214 = ADVANCED_FACE ( 'NONE', ( #263 ), #105, .T. ) ;
#215 = ORIENTED_EDGE ( 'NONE', *, *, #197, .T. ) ;
#216 = PRESENTATION_LAYER_ASSIGNMENT (  '', '', ( #108 ) ) ;
#217 =( CONVERSION_BASED_UNIT ( 'INCH', #111 ) LENGTH_UNIT ( ) NAMED_UNIT ( #40 ) );
#218 = EDGE_CURVE ( 'NONE', #109, #37, #167, .T. ) ;
#219 = FILL_AREA_STYLE_COLOUR ( '', #193 ) ;
#220 = ORIENTED_EDGE ( 'NONE', *, *, #31, .T. ) ;
#221 = SURFACE_STYLE_FILL_AREA ( #145 ) ;
#222 = PRESENTATION_STYLE_ASSIGNMENT (( #178 ) ) ;
#223 = ADVANCED_FACE ( 'NONE', ( #82 ), #200, .T. ) ;
#224 = CARTESIAN_POINT ( 'NONE',  ( -1.224646799147353207E-16, 5.000000000000000000, 0.000000000000000000 ) ) ;
#225 = EDGE_LOOP ( 'NONE', ( #228, #110 ) ) ;
#226 = CIRCLE ( 'NONE', #101, 0.1875000000000001388 ) ;
#227 =( GEOMETRIC_REPRESENTATION_CONTEXT ( 3 ) GLOBAL_UNCERTAINTY_ASSIGNED_CONTEXT ( ( #3 ) ) GLOBAL_UNIT_ASSIGNED_CONTEXT ( ( #71, #158, #139 ) ) REPRESENTATION_CONTEXT ( 'NONE', 'WORKASPACE' ) );
#228 = ORIENTED_EDGE ( 'NONE', *, *, #31, .F. ) ;
#229 = CARTESIAN_POINT ( 'NONE',  ( 2.296212748401287726E-17, 0.000000000000000000, 0.1875000000000000278 ) ) ;
#230 = FACE_OUTER_BOUND ( 'NONE', #51, .T. ) ;
#231 = CIRCLE ( 'NONE', #9, 0.1875000000000000278 ) ;
#232 = AXIS2_PLACEMENT_3D ( 'NONE', #57, #152, #130 ) ;
#233 = DIRECTION ( 'NONE',  ( -6.123233995736766036E-17, 1.000000000000000000, -0.000000000000000000 ) ) ;
#234 = CARTESIAN_POINT ( 'NONE',  ( -1.224646799147353207E-16, 5.000000000000000000, 0.000000000000000000 ) ) ;
#235 = FACE_OUTER_BOUND ( 'NONE', #242, .T. ) ;
#236 = CIRCLE ( 'NONE', #143, 0.1875000000000000278 ) ;
#237 = FILL_AREA_STYLE_COLOUR ( '', #35 ) ;
#238 = ORIENTED_EDGE ( 'NONE', *, *, #43, .F. ) ;
#239 = UNCERTAINTY_MEASURE_WITH_UNIT (LENGTH_MEASURE( 1.000000000000000082E-05 ), #126, 'distance_accuracy_value', 'NONE');
#240 = AXIS2_PLACEMENT_3D ( 'NONE', #224, #61, #85 ) ;
#241 = DIRECTION ( 'NONE',  ( 0.000000000000000000, -0.000000000000000000, 1.000000000000000000 ) ) ;
#242 = EDGE_LOOP ( 'NONE', ( #201, #8 ) ) ;
#243 = ORIENTED_EDGE ( 'NONE', *, *, #260, .T. ) ;
#244 = ADVANCED_BREP_SHAPE_REPRESENTATION ( '82856', ( #52, #149, #294 ), #46 ) ;
#245 = EDGE_LOOP ( 'NONE', ( #38, #298 ) ) ;
#246 =( LENGTH_UNIT ( ) NAMED_UNIT ( * ) SI_UNIT ( $, .METRE. ) );
#247 = MECHANICAL_DESIGN_GEOMETRIC_PRESENTATION_REPRESENTATION (  '', ( #53 ), #227 ) ;
#248 = CYLINDRICAL_SURFACE ( 'NONE', #66, 0.1875000000000000833 ) ;
#249 = CIRCLE ( 'NONE', #254, 0.1875000000000000278 ) ;
#250 = CARTESIAN_POINT ( 'NONE',  ( 0.1875000000000000278, 5.000000000000000000, 0.000000000000000000 ) ) ;
#251 = FACE_OUTER_BOUND ( 'NONE', #129, .T. ) ;
#252 = STYLED_ITEM ( 'NONE', ( #36 ), #223 ) ;
#253 = PRODUCT_RELATED_PRODUCT_CATEGORY ( 'part', '', ( #266 ) ) ;
#254 = AXIS2_PLACEMENT_3D ( 'NONE', #206, #24, #98 ) ;
#255 = FILL_AREA_STYLE ('',( #281 ) ) ;
#256 = LINE ( 'NONE', #122, #67 ) ;
#257 = ORIENTED_EDGE ( 'NONE', *, *, #304, .T. ) ;
#258 =( GEOMETRIC_REPRESENTATION_CONTEXT ( 3 ) GLOBAL_UNCERTAINTY_ASSIGNED_CONTEXT ( ( #239 ) ) GLOBAL_UNIT_ASSIGNED_CONTEXT ( ( #126, #76, #170 ) ) REPRESENTATION_CONTEXT ( 'NONE', 'WORKASPACE' ) );
#259 = PRESENTATION_STYLE_ASSIGNMENT (( #262 ) ) ;
#260 = EDGE_CURVE ( 'NONE', #302, #114, #134, .T. ) ;
#261 = ORIENTED_EDGE ( 'NONE', *, *, #132, .T. ) ;
#262 = SURFACE_STYLE_USAGE ( .BOTH. , #128 ) ;
#263 = FACE_OUTER_BOUND ( 'NONE', #225, .T. ) ;
#264 = PRESENTATION_LAYER_ASSIGNMENT (  '', '', ( #252 ) ) ;
#265 = DIRECTION ( 'NONE',  ( 0.000000000000000000, 0.000000000000000000, -1.000000000000000000 ) ) ;
#266 = PRODUCT ( '82856', '82856', '', ( #93 ) ) ;
#267 =( CONVERSION_BASED_UNIT ( 'INCH', #177 ) LENGTH_UNIT ( ) NAMED_UNIT ( #279 ) );
#268 = SURFACE_STYLE_FILL_AREA ( #84 ) ;
#269 =( NAMED_UNIT ( * ) SI_UNIT ( $, .STERADIAN. ) SOLID_ANGLE_UNIT ( ) );
#270 = ORIENTED_EDGE ( 'NONE', *, *, #218, .F. ) ;
#271 = ORIENTED_EDGE ( 'NONE', *, *, #197, .F. ) ;
#272 = UNCERTAINTY_MEASURE_WITH_UNIT (LENGTH_MEASURE( 1.000000000000000082E-05 ), #217, 'distance_accuracy_value', 'NONE');
#273 = DIMENSIONAL_EXPONENTS ( 1.000000000000000000, 0.000000000000000000, 0.000000000000000000, 0.000000000000000000, 0.000000000000000000, 0.000000000000000000, 0.000000000000000000 ) ;
#274 = CIRCLE ( 'NONE', #308, 0.1875000000000000278 ) ;
#275 = PRESENTATION_LAYER_ASSIGNMENT (  '', '', ( #53 ) ) ;
#276 = LENGTH_MEASURE_WITH_UNIT ( LENGTH_MEASURE( 0.02539999999999999897 ), #285 );
#277 = PLANE ( 'NONE',  #187 ) ;
#278 = ADVANCED_FACE ( 'NONE', ( #179 ), #33, .T. ) ;
#279 = DIMENSIONAL_EXPONENTS ( 1.000000000000000000, 0.000000000000000000, 0.000000000000000000, 0.000000000000000000, 0.000000000000000000, 0.000000000000000000, 0.000000000000000000 ) ;
#280 = SHAPE_DEFINITION_REPRESENTATION ( #32, #244 ) ;
#281 = FILL_AREA_STYLE_COLOUR ( '', #74 ) ;
#282 = PRESENTATION_LAYER_ASSIGNMENT (  '', '', ( #293 ) ) ;
#283 = DIMENSIONAL_EXPONENTS ( 1.000000000000000000, 0.000000000000000000, 0.000000000000000000, 0.000000000000000000, 0.000000000000000000, 0.000000000000000000, 0.000000000000000000 ) ;
#284 = CARTESIAN_POINT ( 'NONE',  ( 2.296212748401287726E-17, 3.000000000000000444, 0.1875000000000000278 ) ) ;
#285 =( LENGTH_UNIT ( ) NAMED_UNIT ( * ) SI_UNIT ( $, .METRE. ) );
#286 = DIRECTION ( 'NONE',  ( -6.123233995736766036E-17, 1.000000000000000000, -0.000000000000000000 ) ) ;
#287 =( NAMED_UNIT ( * ) PLANE_ANGLE_UNIT ( ) SI_UNIT ( $, .RADIAN. ) );
#288 = ORIENTED_EDGE ( 'NONE', *, *, #63, .T. ) ;
#289 = CLOSED_SHELL ( 'NONE', ( #223, #214, #278, #124 ) ) ;
#290 =( GEOMETRIC_REPRESENTATION_CONTEXT ( 3 ) GLOBAL_UNCERTAINTY_ASSIGNED_CONTEXT ( ( #30 ) ) GLOBAL_UNIT_ASSIGNED_CONTEXT ( ( #92, #180, #269 ) ) REPRESENTATION_CONTEXT ( 'NONE', 'WORKASPACE' ) );
#291 =( LENGTH_UNIT ( ) NAMED_UNIT ( * ) SI_UNIT ( $, .METRE. ) );
#292 = LINE ( 'NONE', #189, #13 ) ;
#293 = STYLED_ITEM ( 'NONE', ( #182 ), #149 ) ;
#294 = AXIS2_PLACEMENT_3D ( 'NONE', #184, #162, #1 ) ;
#295 = DIRECTION ( 'NONE',  ( -6.123233995736766036E-17, 1.000000000000000000, -0.000000000000000000 ) ) ;
#296 = CARTESIAN_POINT ( 'NONE',  ( 0.000000000000000000, 3.000000000000000444, 0.000000000000000000 ) ) ;
#297 = SURFACE_STYLE_USAGE ( .BOTH. , #115 ) ;
#298 = ORIENTED_EDGE ( 'NONE', *, *, #140, .T. ) ;
#299 =( GEOMETRIC_REPRESENTATION_CONTEXT ( 3 ) GLOBAL_UNCERTAINTY_ASSIGNED_CONTEXT ( ( #125 ) ) GLOBAL_UNIT_ASSIGNED_CONTEXT ( ( #267, #34, #150 ) ) REPRESENTATION_CONTEXT ( 'NONE', 'WORKASPACE' ) );
#300 = FILL_AREA_STYLE_COLOUR ( '', #174 ) ;
#301 =( NAMED_UNIT ( * ) SI_UNIT ( $, .STERADIAN. ) SOLID_ANGLE_UNIT ( ) );
#302 = VERTEX_POINT ( 'NONE', #284 ) ;
#303 = APPLICATION_CONTEXT ( 'automotive_design' ) ;
#304 = EDGE_CURVE ( 'NONE', #151, #116, #249, .T. ) ;
#305 = APPLICATION_PROTOCOL_DEFINITION ( 'draft international standard', 'automotive_design', 1998, #303 ) ;
#306 = CARTESIAN_POINT ( 'NONE',  ( 0.000000000000000000, 0.000000000000000000, 0.000000000000000000 ) ) ;
#307 = LENGTH_MEASURE_WITH_UNIT ( LENGTH_MEASURE( 0.02539999999999999897 ), #246 );
#308 = AXIS2_PLACEMENT_3D ( 'NONE', #64, #62, #21 ) ;
#309 = FILL_AREA_STYLE ('',( #138 ) ) ;
ENDSEC;
END-ISO-10303-21;
