ISO-10303-21;
HEADER;
FILE_DESCRIPTION (( 'STEP AP214' ),
    '1' );
FILE_NAME ('56572.STEP',
    '2023-06-30T22:10:40',
    ( '' ),
    ( '' ),
    'SwSTEP 2.0',
    'SolidWorks 2023',
    '' );
FILE_SCHEMA (( 'AUTOMOTIVE_DESIGN' ));
ENDSEC;

DATA;
#1 = UNCERTAINTY_MEASURE_WITH_UNIT (LENGTH_MEASURE( 1.000000000000000082E-05 ), #128, 'distance_accuracy_value', 'NONE');
#2 = DIRECTION ( 'NONE',  ( -0.000000000000000000, -1.000000000000000000, -0.000000000000000000 ) ) ;
#3 = CARTESIAN_POINT ( 'NONE',  ( 0.000000000000000000, 0.000000000000000000, -0.3124999999999999445 ) ) ;
#4 = CARTESIAN_POINT ( 'NONE',  ( -6.123233995736759873E-17, 3.500000000000000000, 0.000000000000000000 ) ) ;
#5 = LINE ( 'NONE', #248, #81 ) ;
#6 = DIRECTION ( 'NONE',  ( -0.000000000000000000, -1.000000000000000000, -0.000000000000000000 ) ) ;
#7 = DIRECTION ( 'NONE',  ( -0.000000000000000000, -1.000000000000000000, -0.000000000000000000 ) ) ;
#8 = EDGE_LOOP ( 'NONE', ( #77, #15, #335, #149, #178 ) ) ;
#9 = COLOUR_RGB ( '',1.000000000000000000, 0.000000000000000000, 0.000000000000000000 ) ;
#10 = AXIS2_PLACEMENT_3D ( 'NONE', #114, #173, #315 ) ;
#11 = EDGE_CURVE ( 'NONE', #63, #292, #309, .T. ) ;
#12 = FILL_AREA_STYLE ('',( #295 ) ) ;
#13 = ORIENTED_EDGE ( 'NONE', *, *, #182, .T. ) ;
#14 = SURFACE_STYLE_USAGE ( .BOTH. , #285 ) ;
#15 = ORIENTED_EDGE ( 'NONE', *, *, #253, .T. ) ;
#16 = CARTESIAN_POINT ( 'NONE',  ( -6.123233995736758640E-17, 3.500000000000000000, 0.000000000000000000 ) ) ;
#17 = MECHANICAL_DESIGN_GEOMETRIC_PRESENTATION_REPRESENTATION (  '', ( #168 ), #67 ) ;
#18 = PRESENTATION_LAYER_ASSIGNMENT (  '', '', ( #137 ) ) ;
#19 = LENGTH_MEASURE_WITH_UNIT ( LENGTH_MEASURE( 0.02539999999999999897 ), #151 );
#20 = PRESENTATION_STYLE_ASSIGNMENT (( #127 ) ) ;
#21 =( NAMED_UNIT ( * ) SI_UNIT ( $, .STERADIAN. ) SOLID_ANGLE_UNIT ( ) );
#22 = ORIENTED_EDGE ( 'NONE', *, *, #329, .T. ) ;
#23 = ADVANCED_FACE ( 'NONE', ( #124 ), #241, .T. ) ;
#24 =( GEOMETRIC_REPRESENTATION_CONTEXT ( 3 ) GLOBAL_UNCERTAINTY_ASSIGNED_CONTEXT ( ( #196 ) ) GLOBAL_UNIT_ASSIGNED_CONTEXT ( ( #242, #330, #359 ) ) REPRESENTATION_CONTEXT ( 'NONE', 'WORKASPACE' ) );
#25 = FILL_AREA_STYLE ('',( #279 ) ) ;
#26 = EDGE_CURVE ( 'NONE', #299, #269, #43, .T. ) ;
#27 = AXIS2_PLACEMENT_3D ( 'NONE', #109, #353, #181 ) ;
#28 = AXIS2_PLACEMENT_3D ( 'NONE', #141, #201, #268 ) ;
#29 = DIRECTION ( 'NONE',  ( 0.000000000000000000, 0.000000000000000000, -1.000000000000000000 ) ) ;
#30 = DIMENSIONAL_EXPONENTS ( 1.000000000000000000, 0.000000000000000000, 0.000000000000000000, 0.000000000000000000, 0.000000000000000000, 0.000000000000000000, 0.000000000000000000 ) ;
#31 = FILL_AREA_STYLE ('',( #228 ) ) ;
#32 = EDGE_CURVE ( 'NONE', #130, #339, #246, .T. ) ;
#33 = DIRECTION ( 'NONE',  ( 0.000000000000000000, 0.000000000000000000, -1.000000000000000000 ) ) ;
#34 = DIRECTION ( 'NONE',  ( 1.224646799147353207E-16, -1.000000000000000000, 0.000000000000000000 ) ) ;
#35 = CARTESIAN_POINT ( 'NONE',  ( 0.000000000000000000, 0.000000000000000000, 0.000000000000000000 ) ) ;
#36 = LINE ( 'NONE', #347, #302 ) ;
#37 = DIRECTION ( 'NONE',  ( -1.000000000000000000, 0.000000000000000000, 0.000000000000000000 ) ) ;
#38 = ORIENTED_EDGE ( 'NONE', *, *, #253, .F. ) ;
#39 = CARTESIAN_POINT ( 'NONE',  ( -0.3125000000000000000, 0.3125000000000000555, 3.827021247335477694E-17 ) ) ;
#40 = SURFACE_STYLE_USAGE ( .BOTH. , #236 ) ;
#41 =( NAMED_UNIT ( * ) PLANE_ANGLE_UNIT ( ) SI_UNIT ( $, .RADIAN. ) );
#42 = DIRECTION ( 'NONE',  ( 0.000000000000000000, 0.000000000000000000, -1.000000000000000000 ) ) ;
#43 = CIRCLE ( 'NONE', #84, 0.3125000000000000000 ) ;
#44 =( GEOMETRIC_REPRESENTATION_CONTEXT ( 3 ) GLOBAL_UNCERTAINTY_ASSIGNED_CONTEXT ( ( #261 ) ) GLOBAL_UNIT_ASSIGNED_CONTEXT ( ( #237, #65, #70 ) ) REPRESENTATION_CONTEXT ( 'NONE', 'WORKASPACE' ) );
#45 =( LENGTH_UNIT ( ) NAMED_UNIT ( * ) SI_UNIT ( $, .METRE. ) );
#46 = APPLICATION_PROTOCOL_DEFINITION ( 'draft international standard', 'automotive_design', 1998, #311 ) ;
#47 = ORIENTED_EDGE ( 'NONE', *, *, #108, .T. ) ;
#48 = DIRECTION ( 'NONE',  ( 0.000000000000000000, 0.000000000000000000, 1.000000000000000000 ) ) ;
#49 =( NAMED_UNIT ( * ) SI_UNIT ( $, .STERADIAN. ) SOLID_ANGLE_UNIT ( ) );
#50 = AXIS2_PLACEMENT_3D ( 'NONE', #179, #300, #183 ) ;
#51 = ORIENTED_EDGE ( 'NONE', *, *, #215, .F. ) ;
#52 =( GEOMETRIC_REPRESENTATION_CONTEXT ( 3 ) GLOBAL_UNCERTAINTY_ASSIGNED_CONTEXT ( ( #165 ) ) GLOBAL_UNIT_ASSIGNED_CONTEXT ( ( #243, #177, #49 ) ) REPRESENTATION_CONTEXT ( 'NONE', 'WORKASPACE' ) );
#53 = EDGE_LOOP ( 'NONE', ( #118, #297, #22, #189 ) ) ;
#54 = DIMENSIONAL_EXPONENTS ( 1.000000000000000000, 0.000000000000000000, 0.000000000000000000, 0.000000000000000000, 0.000000000000000000, 0.000000000000000000, 0.000000000000000000 ) ;
#55 = STYLED_ITEM ( 'NONE', ( #186 ), #212 ) ;
#56 = DIRECTION ( 'NONE',  ( -1.000000000000000000, 0.000000000000000000, 0.000000000000000000 ) ) ;
#57 = PRODUCT_DEFINITION_FORMATION_WITH_SPECIFIED_SOURCE ( 'ANY', '', #83, .NOT_KNOWN. ) ;
#58 = ADVANCED_FACE ( 'NONE', ( #164 ), #85, .F. ) ;
#59 = PRODUCT_DEFINITION_CONTEXT ( 'detailed design', #368, 'design' ) ;
#60 = VECTOR ( 'NONE', #6, 39.37007874015748143 ) ;
#61 = DIRECTION ( 'NONE',  ( -1.224646799147353207E-16, 1.000000000000000000, -0.000000000000000000 ) ) ;
#62 = DIRECTION ( 'NONE',  ( -1.224646799147353207E-16, 1.000000000000000000, -0.000000000000000000 ) ) ;
#63 = VERTEX_POINT ( 'NONE', #110 ) ;
#64 = PRESENTATION_STYLE_ASSIGNMENT (( #40 ) ) ;
#65 =( NAMED_UNIT ( * ) PLANE_ANGLE_UNIT ( ) SI_UNIT ( $, .RADIAN. ) );
#66 = FACE_OUTER_BOUND ( 'NONE', #366, .T. ) ;
#67 =( GEOMETRIC_REPRESENTATION_CONTEXT ( 3 ) GLOBAL_UNCERTAINTY_ASSIGNED_CONTEXT ( ( #136 ) ) GLOBAL_UNIT_ASSIGNED_CONTEXT ( ( #204, #180, #97 ) ) REPRESENTATION_CONTEXT ( 'NONE', 'WORKASPACE' ) );
#68 = LENGTH_MEASURE_WITH_UNIT ( LENGTH_MEASURE( 0.02539999999999999897 ), #115 );
#69 = EDGE_LOOP ( 'NONE', ( #208, #105 ) ) ;
#70 =( NAMED_UNIT ( * ) SI_UNIT ( $, .STERADIAN. ) SOLID_ANGLE_UNIT ( ) );
#71 =( LENGTH_UNIT ( ) NAMED_UNIT ( * ) SI_UNIT ( $, .METRE. ) );
#72 = AXIS2_PLACEMENT_3D ( 'NONE', #119, #293, #42 ) ;
#73 = STYLED_ITEM ( 'NONE', ( #100 ), #354 ) ;
#74 = EDGE_CURVE ( 'NONE', #130, #103, #313, .T. ) ;
#75 = EDGE_LOOP ( 'NONE', ( #244, #38 ) ) ;
#76 = DIMENSIONAL_EXPONENTS ( 1.000000000000000000, 0.000000000000000000, 0.000000000000000000, 0.000000000000000000, 0.000000000000000000, 0.000000000000000000, 0.000000000000000000 ) ;
#77 = ORIENTED_EDGE ( 'NONE', *, *, #93, .F. ) ;
#78 = CIRCLE ( 'NONE', #254, 0.3124999999999996669 ) ;
#79 = DIMENSIONAL_EXPONENTS ( 1.000000000000000000, 0.000000000000000000, 0.000000000000000000, 0.000000000000000000, 0.000000000000000000, 0.000000000000000000, 0.000000000000000000 ) ;
#80 = AXIS2_PLACEMENT_3D ( 'NONE', #316, #34, #202 ) ;
#81 = VECTOR ( 'NONE', #333, 39.37007874015748143 ) ;
#82 = UNCERTAINTY_MEASURE_WITH_UNIT (LENGTH_MEASURE( 1.000000000000000082E-05 ), #284, 'distance_accuracy_value', 'NONE');
#83 = PRODUCT ( '56572', '56572', '', ( #338 ) ) ;
#84 = AXIS2_PLACEMENT_3D ( 'NONE', #174, #139, #205 ) ;
#85 = PLANE ( 'NONE',  #80 ) ;
#86 = MANIFOLD_SOLID_BREP ( 'Revolve - Tool Body (Straight Shanked)', #317 ) ;
#87 =( CONVERSION_BASED_UNIT ( 'INCH', #138 ) LENGTH_UNIT ( ) NAMED_UNIT ( #76 ) );
#88 =( NAMED_UNIT ( * ) SI_UNIT ( $, .STERADIAN. ) SOLID_ANGLE_UNIT ( ) );
#89 = ORIENTED_EDGE ( 'NONE', *, *, #193, .F. ) ;
#90 = MANIFOLD_SOLID_BREP ( 'Revolve - Cutting Edge', #98 ) ;
#91 = PRESENTATION_LAYER_ASSIGNMENT (  '', '', ( #104 ) ) ;
#92 = DIRECTION ( 'NONE',  ( -1.000000000000000000, 0.000000000000000000, 0.000000000000000000 ) ) ;
#93 = EDGE_CURVE ( 'NONE', #339, #269, #36, .T. ) ;
#94 = CIRCLE ( 'NONE', #266, 0.3125000000000000000 ) ;
#95 = SURFACE_SIDE_STYLE ('',( #273 ) ) ;
#96 = FILL_AREA_STYLE ('',( #303 ) ) ;
#97 =( NAMED_UNIT ( * ) SI_UNIT ( $, .STERADIAN. ) SOLID_ANGLE_UNIT ( ) );
#98 = CLOSED_SHELL ( 'NONE', ( #361, #226, #354, #212, #320 ) ) ;
#99 = ORIENTED_EDGE ( 'NONE', *, *, #325, .F. ) ;
#100 = PRESENTATION_STYLE_ASSIGNMENT (( #277 ) ) ;
#101 = DIRECTION ( 'NONE',  ( 1.000000000000000000, 0.000000000000000000, -1.224646799147353207E-16 ) ) ;
#102 = CARTESIAN_POINT ( 'NONE',  ( 0.000000000000000000, 0.3125000000000000555, 0.000000000000000000 ) ) ;
#103 = VERTEX_POINT ( 'NONE', #319 ) ;
#104 = STYLED_ITEM ( 'NONE', ( #64 ), #90 ) ;
#105 = ORIENTED_EDGE ( 'NONE', *, *, #193, .T. ) ;
#106 = AXIS2_PLACEMENT_3D ( 'NONE', #185, #154, #144 ) ;
#107 = DIRECTION ( 'NONE',  ( -0.000000000000000000, -1.000000000000000000, -0.000000000000000000 ) ) ;
#108 = EDGE_CURVE ( 'NONE', #159, #280, #350, .T. ) ;
#109 = CARTESIAN_POINT ( 'NONE',  ( 2.143131898507868297E-16, 1.250000000000000000, 0.000000000000000000 ) ) ;
#110 = CARTESIAN_POINT ( 'NONE',  ( -0.3125000000000000000, 3.500000000000000000, 0.000000000000000000 ) ) ;
#111 = CARTESIAN_POINT ( 'NONE',  ( 0.3124999999999998890, 3.500000000000000000, 3.827021247335477078E-17 ) ) ;
#112 = DIRECTION ( 'NONE',  ( -0.000000000000000000, -1.000000000000000000, -0.000000000000000000 ) ) ;
#113 =( NAMED_UNIT ( * ) PLANE_ANGLE_UNIT ( ) SI_UNIT ( $, .RADIAN. ) );
#114 = CARTESIAN_POINT ( 'NONE',  ( 0.000000000000000000, 1.250000000000000000, 0.000000000000000000 ) ) ;
#115 =( LENGTH_UNIT ( ) NAMED_UNIT ( * ) SI_UNIT ( $, .METRE. ) );
#116 = AXIS2_PLACEMENT_3D ( 'NONE', #270, #252, #216 ) ;
#117 = COLOUR_RGB ( '',1.000000000000000000, 0.000000000000000000, 0.000000000000000000 ) ;
#118 = ORIENTED_EDGE ( 'NONE', *, *, #256, .F. ) ;
#119 = CARTESIAN_POINT ( 'NONE',  ( 0.000000000000000000, 0.3125000000000000555, 0.000000000000000000 ) ) ;
#120 =( CONVERSION_BASED_UNIT ( 'INCH', #19 ) LENGTH_UNIT ( ) NAMED_UNIT ( #157 ) );
#121 = ADVANCED_FACE ( 'NONE', ( #373 ), #282, .F. ) ;
#122 = ADVANCED_BREP_SHAPE_REPRESENTATION ( '56572', ( #90, #86, #260 ), #258 ) ;
#123 = SURFACE_SIDE_STYLE ('',( #257 ) ) ;
#124 = FACE_OUTER_BOUND ( 'NONE', #238, .T. ) ;
#125 = STYLED_ITEM ( 'NONE', ( #20 ), #361 ) ;
#126 = LENGTH_MEASURE_WITH_UNIT ( LENGTH_MEASURE( 0.02539999999999999897 ), #360 );
#127 = SURFACE_STYLE_USAGE ( .BOTH. , #95 ) ;
#128 =( CONVERSION_BASED_UNIT ( 'INCH', #364 ) LENGTH_UNIT ( ) NAMED_UNIT ( #79 ) );
#129 = CIRCLE ( 'NONE', #224, 0.3125000000000000000 ) ;
#130 = VERTEX_POINT ( 'NONE', #203 ) ;
#131 = FILL_AREA_STYLE_COLOUR ( '', #9 ) ;
#132 = DIMENSIONAL_EXPONENTS ( 1.000000000000000000, 0.000000000000000000, 0.000000000000000000, 0.000000000000000000, 0.000000000000000000, 0.000000000000000000, 0.000000000000000000 ) ;
#133 = CARTESIAN_POINT ( 'NONE',  ( 3.827021247335477694E-17, 1.250000000000000000, 0.3124999999999998890 ) ) ;
#134 = STYLED_ITEM ( 'NONE', ( #349 ), #226 ) ;
#135 = EDGE_CURVE ( 'NONE', #159, #292, #322, .T. ) ;
#136 = UNCERTAINTY_MEASURE_WITH_UNIT (LENGTH_MEASURE( 1.000000000000000082E-05 ), #204, 'distance_accuracy_value', 'NONE');
#137 = STYLED_ITEM ( 'NONE', ( #346 ), #320 ) ;
#138 = LENGTH_MEASURE_WITH_UNIT ( LENGTH_MEASURE( 0.02539999999999999897 ), #351 );
#139 = DIRECTION ( 'NONE',  ( -0.000000000000000000, -1.000000000000000000, -0.000000000000000000 ) ) ;
#140 = CARTESIAN_POINT ( 'NONE',  ( 0.3124999999999998890, 1.250000000000000000, 3.827021247335477078E-17 ) ) ;
#141 = CARTESIAN_POINT ( 'NONE',  ( 0.000000000000000000, 0.000000000000000000, 0.000000000000000000 ) ) ;
#142 = CIRCLE ( 'NONE', #10, 0.3124999999999998890 ) ;
#143 = VERTEX_POINT ( 'NONE', #39 ) ;
#144 = DIRECTION ( 'NONE',  ( 1.000000000000000000, 0.000000000000000000, 0.000000000000000000 ) ) ;
#145 = SPHERICAL_SURFACE ( 'NONE', #106, 0.3125000000000000000 ) ;
#146 = ORIENTED_EDGE ( 'NONE', *, *, #26, .T. ) ;
#147 = DIRECTION ( 'NONE',  ( 1.224646799147353207E-16, -0.000000000000000000, 1.000000000000000000 ) ) ;
#148 = PRESENTATION_STYLE_ASSIGNMENT (( #298 ) ) ;
#149 = ORIENTED_EDGE ( 'NONE', *, *, #287, .F. ) ;
#150 = CARTESIAN_POINT ( 'NONE',  ( 0.3124999999999997224, 3.500000000000000000, 3.827021247335476461E-17 ) ) ;
#151 =( LENGTH_UNIT ( ) NAMED_UNIT ( * ) SI_UNIT ( $, .METRE. ) );
#152 = MECHANICAL_DESIGN_GEOMETRIC_PRESENTATION_REPRESENTATION (  '', ( #104 ), #199 ) ;
#153 =( GEOMETRIC_REPRESENTATION_CONTEXT ( 3 ) GLOBAL_UNCERTAINTY_ASSIGNED_CONTEXT ( ( #314 ) ) GLOBAL_UNIT_ASSIGNED_CONTEXT ( ( #87, #41, #88 ) ) REPRESENTATION_CONTEXT ( 'NONE', 'WORKASPACE' ) );
#154 = DIRECTION ( 'NONE',  ( 0.000000000000000000, 0.000000000000000000, 1.000000000000000000 ) ) ;
#155 = PLANE ( 'NONE',  #50 ) ;
#156 = ORIENTED_EDGE ( 'NONE', *, *, #11, .F. ) ;
#157 = DIMENSIONAL_EXPONENTS ( 1.000000000000000000, 0.000000000000000000, 0.000000000000000000, 0.000000000000000000, 0.000000000000000000, 0.000000000000000000, 0.000000000000000000 ) ;
#158 = COLOUR_RGB ( '',0.7921568627450980005, 0.8196078431372548767, 0.9333333333333333481 ) ;
#159 = VERTEX_POINT ( 'NONE', #140 ) ;
#160 = FACE_OUTER_BOUND ( 'NONE', #75, .T. ) ;
#161 = DIRECTION ( 'NONE',  ( 0.000000000000000000, 0.000000000000000000, 1.000000000000000000 ) ) ;
#162 = DIMENSIONAL_EXPONENTS ( 1.000000000000000000, 0.000000000000000000, 0.000000000000000000, 0.000000000000000000, 0.000000000000000000, 0.000000000000000000, 0.000000000000000000 ) ;
#163 = VECTOR ( 'NONE', #62, 39.37007874015748143 ) ;
#164 = FACE_OUTER_BOUND ( 'NONE', #69, .T. ) ;
#165 = UNCERTAINTY_MEASURE_WITH_UNIT (LENGTH_MEASURE( 1.000000000000000082E-05 ), #243, 'distance_accuracy_value', 'NONE');
#166 = PRODUCT_DEFINITION_SHAPE ( 'NONE', 'NONE',  #188 ) ;
#167 = CYLINDRICAL_SURFACE ( 'NONE', #28, 0.3124999999999999445 ) ;
#168 = STYLED_ITEM ( 'NONE', ( #148 ), #86 ) ;
#169 =( NAMED_UNIT ( * ) SI_UNIT ( $, .STERADIAN. ) SOLID_ANGLE_UNIT ( ) );
#170 = COLOUR_RGB ( '',1.000000000000000000, 0.000000000000000000, 0.000000000000000000 ) ;
#171 = SURFACE_STYLE_FILL_AREA ( #197 ) ;
#172 = SURFACE_STYLE_USAGE ( .BOTH. , #264 ) ;
#173 = DIRECTION ( 'NONE',  ( -0.000000000000000000, -1.000000000000000000, -0.000000000000000000 ) ) ;
#174 = CARTESIAN_POINT ( 'NONE',  ( 0.000000000000000000, 0.3125000000000000555, 0.000000000000000000 ) ) ;
#175 = PRESENTATION_LAYER_ASSIGNMENT (  '', '', ( #134 ) ) ;
#176 = ORIENTED_EDGE ( 'NONE', *, *, #74, .F. ) ;
#177 =( NAMED_UNIT ( * ) PLANE_ANGLE_UNIT ( ) SI_UNIT ( $, .RADIAN. ) );
#178 = ORIENTED_EDGE ( 'NONE', *, *, #182, .F. ) ;
#179 = CARTESIAN_POINT ( 'NONE',  ( 0.000000000000000000, 1.250000000000000000, 0.000000000000000000 ) ) ;
#180 =( NAMED_UNIT ( * ) PLANE_ANGLE_UNIT ( ) SI_UNIT ( $, .RADIAN. ) );
#181 = DIRECTION ( 'NONE',  ( -1.000000000000000000, -1.224646799147353207E-16, 0.000000000000000000 ) ) ;
#182 = EDGE_CURVE ( 'NONE', #269, #143, #230, .T. ) ;
#183 = DIRECTION ( 'NONE',  ( 0.000000000000000000, -0.000000000000000000, 1.000000000000000000 ) ) ;
#184 = AXIS2_PLACEMENT_3D ( 'NONE', #289, #334, #239 ) ;
#185 = CARTESIAN_POINT ( 'NONE',  ( -3.827021247335478926E-17, 0.3125000000000000000, 0.000000000000000000 ) ) ;
#186 = PRESENTATION_STYLE_ASSIGNMENT (( #276 ) ) ;
#187 = CYLINDRICAL_SURFACE ( 'NONE', #307, 0.3124999999999999445 ) ;
#188 = PRODUCT_DEFINITION ( 'UNKNOWN', '', #57, #59 ) ;
#189 = ORIENTED_EDGE ( 'NONE', *, *, #245, .T. ) ;
#190 =( NAMED_UNIT ( * ) PLANE_ANGLE_UNIT ( ) SI_UNIT ( $, .RADIAN. ) );
#191 = AXIS2_PLACEMENT_3D ( 'NONE', #255, #2, #312 ) ;
#192 = ORIENTED_EDGE ( 'NONE', *, *, #245, .F. ) ;
#193 = EDGE_CURVE ( 'NONE', #292, #63, #281, .T. ) ;
#194 = CYLINDRICAL_SURFACE ( 'NONE', #247, 0.3124999999999998335 ) ;
#195 = PRESENTATION_LAYER_ASSIGNMENT (  '', '', ( #55 ) ) ;
#196 = UNCERTAINTY_MEASURE_WITH_UNIT (LENGTH_MEASURE( 1.000000000000000082E-05 ), #242, 'distance_accuracy_value', 'NONE');
#197 = FILL_AREA_STYLE ('',( #348 ) ) ;
#198 = CARTESIAN_POINT ( 'NONE',  ( -1.913510623667739463E-17, 0.000000000000000000, 0.000000000000000000 ) ) ;
#199 =( GEOMETRIC_REPRESENTATION_CONTEXT ( 3 ) GLOBAL_UNCERTAINTY_ASSIGNED_CONTEXT ( ( #82 ) ) GLOBAL_UNIT_ASSIGNED_CONTEXT ( ( #284, #113, #169 ) ) REPRESENTATION_CONTEXT ( 'NONE', 'WORKASPACE' ) );
#200 = DIRECTION ( 'NONE',  ( -0.000000000000000000, -1.000000000000000000, -0.000000000000000000 ) ) ;
#201 = DIRECTION ( 'NONE',  ( -0.000000000000000000, -1.000000000000000000, -0.000000000000000000 ) ) ;
#202 = DIRECTION ( 'NONE',  ( 1.000000000000000000, 1.224646799147353207E-16, 0.000000000000000000 ) ) ;
#203 = CARTESIAN_POINT ( 'NONE',  ( 0.000000000000000000, 1.250000000000000000, -0.3124999999999998890 ) ) ;
#204 =( CONVERSION_BASED_UNIT ( 'INCH', #126 ) LENGTH_UNIT ( ) NAMED_UNIT ( #221 ) );
#205 = DIRECTION ( 'NONE',  ( 0.000000000000000000, 0.000000000000000000, -1.000000000000000000 ) ) ;
#206 = FILL_AREA_STYLE_COLOUR ( '', #158 ) ;
#207 =( NAMED_UNIT ( * ) SI_UNIT ( $, .STERADIAN. ) SOLID_ANGLE_UNIT ( ) );
#208 = ORIENTED_EDGE ( 'NONE', *, *, #11, .T. ) ;
#209 = DIRECTION ( 'NONE',  ( 1.000000000000000000, 0.000000000000000000, 0.000000000000000000 ) ) ;
#210 = CIRCLE ( 'NONE', #191, 0.3125000000000000000 ) ;
#211 = ORIENTED_EDGE ( 'NONE', *, *, #26, .F. ) ;
#212 = ADVANCED_FACE ( 'NONE', ( #250 ), #187, .T. ) ;
#213 = AXIS2_PLACEMENT_3D ( 'NONE', #321, #61, #352 ) ;
#214 = PRESENTATION_LAYER_ASSIGNMENT (  '', '', ( #125 ) ) ;
#215 = EDGE_CURVE ( 'NONE', #280, #159, #78, .T. ) ;
#216 = DIRECTION ( 'NONE',  ( -1.000000000000000000, 0.000000000000000000, 0.000000000000000000 ) ) ;
#217 = SURFACE_SIDE_STYLE ('',( #371 ) ) ;
#218 = ORIENTED_EDGE ( 'NONE', *, *, #135, .T. ) ;
#219 = MECHANICAL_DESIGN_GEOMETRIC_PRESENTATION_REPRESENTATION (  '', ( #73 ), #24 ) ;
#220 = SURFACE_STYLE_FILL_AREA ( #25 ) ;
#221 = DIMENSIONAL_EXPONENTS ( 1.000000000000000000, 0.000000000000000000, 0.000000000000000000, 0.000000000000000000, 0.000000000000000000, 0.000000000000000000, 0.000000000000000000 ) ;
#222 = CARTESIAN_POINT ( 'NONE',  ( -0.3124999999999994449, 1.250000000000000000, 0.000000000000000000 ) ) ;
#223 = AXIS2_PLACEMENT_3D ( 'NONE', #265, #112, #310 ) ;
#224 = AXIS2_PLACEMENT_3D ( 'NONE', #234, #33, #262 ) ;
#225 = MECHANICAL_DESIGN_GEOMETRIC_PRESENTATION_REPRESENTATION (  '', ( #134 ), #153 ) ;
#226 = ADVANCED_FACE ( 'NONE', ( #66 ), #167, .T. ) ;
#227 = CARTESIAN_POINT ( 'NONE',  ( 0.3125000000000000000, 0.3125000000000000555, 0.000000000000000000 ) ) ;
#228 = FILL_AREA_STYLE_COLOUR ( '', #275 ) ;
#229 = SURFACE_STYLE_FILL_AREA ( #12 ) ;
#230 = CIRCLE ( 'NONE', #72, 0.3125000000000000000 ) ;
#231 = MECHANICAL_DESIGN_GEOMETRIC_PRESENTATION_REPRESENTATION (  '', ( #55 ), #304 ) ;
#232 = DIRECTION ( 'NONE',  ( 0.000000000000000000, 0.000000000000000000, -1.000000000000000000 ) ) ;
#233 = VERTEX_POINT ( 'NONE', #198 ) ;
#234 = CARTESIAN_POINT ( 'NONE',  ( -3.827021247335478926E-17, 0.3125000000000000000, 0.000000000000000000 ) ) ;
#235 = ORIENTED_EDGE ( 'NONE', *, *, #325, .T. ) ;
#236 = SURFACE_SIDE_STYLE ('',( #323 ) ) ;
#237 =( CONVERSION_BASED_UNIT ( 'INCH', #363 ) LENGTH_UNIT ( ) NAMED_UNIT ( #54 ) );
#238 = EDGE_LOOP ( 'NONE', ( #278, #218, #156, #99 ) ) ;
#239 = DIRECTION ( 'NONE',  ( -1.000000000000000000, 0.000000000000000000, 0.000000000000000000 ) ) ;
#240 = MECHANICAL_DESIGN_GEOMETRIC_PRESENTATION_REPRESENTATION (  '', ( #137 ), #52 ) ;
#241 = CYLINDRICAL_SURFACE ( 'NONE', #213, 0.3124999999999998335 ) ;
#242 =( CONVERSION_BASED_UNIT ( 'INCH', #290 ) LENGTH_UNIT ( ) NAMED_UNIT ( #132 ) );
#243 =( CONVERSION_BASED_UNIT ( 'INCH', #301 ) LENGTH_UNIT ( ) NAMED_UNIT ( #30 ) );
#244 = ORIENTED_EDGE ( 'NONE', *, *, #32, .F. ) ;
#245 = EDGE_CURVE ( 'NONE', #299, #233, #129, .T. ) ;
#246 = CIRCLE ( 'NONE', #223, 0.3124999999999998890 ) ;
#247 = AXIS2_PLACEMENT_3D ( 'NONE', #4, #308, #56 ) ;
#248 = CARTESIAN_POINT ( 'NONE',  ( -0.3124999999999998890, 3.500000000000000000, 0.000000000000000000 ) ) ;
#249 = EDGE_LOOP ( 'NONE', ( #324, #47, #235, #89 ) ) ;
#250 = FACE_OUTER_BOUND ( 'NONE', #8, .T. ) ;
#251 = AXIS2_PLACEMENT_3D ( 'NONE', #16, #272, #92 ) ;
#252 = DIRECTION ( 'NONE',  ( -1.224646799147353207E-16, 1.000000000000000000, -0.000000000000000000 ) ) ;
#253 = EDGE_CURVE ( 'NONE', #339, #130, #142, .T. ) ;
#254 = AXIS2_PLACEMENT_3D ( 'NONE', #341, #291, #37 ) ;
#255 = CARTESIAN_POINT ( 'NONE',  ( 0.000000000000000000, 0.3125000000000000555, 0.000000000000000000 ) ) ;
#256 = EDGE_CURVE ( 'NONE', #143, #233, #94, .T. ) ;
#257 = SURFACE_STYLE_FILL_AREA ( #31 ) ;
#258 =( GEOMETRIC_REPRESENTATION_CONTEXT ( 3 ) GLOBAL_UNCERTAINTY_ASSIGNED_CONTEXT ( ( #344 ) ) GLOBAL_UNIT_ASSIGNED_CONTEXT ( ( #120, #355, #207 ) ) REPRESENTATION_CONTEXT ( 'NONE', 'WORKASPACE' ) );
#259 = CARTESIAN_POINT ( 'NONE',  ( 0.000000000000000000, 0.000000000000000000, 0.000000000000000000 ) ) ;
#260 = AXIS2_PLACEMENT_3D ( 'NONE', #259, #161, #305 ) ;
#261 = UNCERTAINTY_MEASURE_WITH_UNIT (LENGTH_MEASURE( 1.000000000000000082E-05 ), #237, 'distance_accuracy_value', 'NONE');
#262 = DIRECTION ( 'NONE',  ( -1.000000000000000000, 0.000000000000000000, 0.000000000000000000 ) ) ;
#263 = FILL_AREA_STYLE ('',( #206 ) ) ;
#264 = SURFACE_SIDE_STYLE ('',( #229 ) ) ;
#265 = CARTESIAN_POINT ( 'NONE',  ( 0.000000000000000000, 1.250000000000000000, 0.000000000000000000 ) ) ;
#266 = AXIS2_PLACEMENT_3D ( 'NONE', #286, #147, #101 ) ;
#267 = CARTESIAN_POINT ( 'NONE',  ( -3.827021247335478926E-17, 0.3125000000000000000, 0.000000000000000000 ) ) ;
#268 = DIRECTION ( 'NONE',  ( 0.000000000000000000, 0.000000000000000000, -1.000000000000000000 ) ) ;
#269 = VERTEX_POINT ( 'NONE', #306 ) ;
#270 = CARTESIAN_POINT ( 'NONE',  ( -6.123233995736758640E-17, 3.500000000000000000, 0.000000000000000000 ) ) ;
#271 = SPHERICAL_SURFACE ( 'NONE', #294, 0.3125000000000000000 ) ;
#272 = DIRECTION ( 'NONE',  ( -1.224646799147353207E-16, 1.000000000000000000, -0.000000000000000000 ) ) ;
#273 = SURFACE_STYLE_FILL_AREA ( #96 ) ;
#274 =( LENGTH_UNIT ( ) NAMED_UNIT ( * ) SI_UNIT ( $, .METRE. ) );
#275 = COLOUR_RGB ( '',0.7921568627450980005, 0.8196078431372548767, 0.9333333333333333481 ) ;
#276 = SURFACE_STYLE_USAGE ( .BOTH. , #217 ) ;
#277 = SURFACE_STYLE_USAGE ( .BOTH. , #372 ) ;
#278 = ORIENTED_EDGE ( 'NONE', *, *, #215, .T. ) ;
#279 = FILL_AREA_STYLE_COLOUR ( '', #370 ) ;
#280 = VERTEX_POINT ( 'NONE', #222 ) ;
#281 = CIRCLE ( 'NONE', #116, 0.3124999999999999445 ) ;
#282 = PLANE ( 'NONE',  #27 ) ;
#283 = ADVANCED_FACE ( 'NONE', ( #340 ), #194, .T. ) ;
#284 =( CONVERSION_BASED_UNIT ( 'INCH', #68 ) LENGTH_UNIT ( ) NAMED_UNIT ( #162 ) );
#285 = SURFACE_SIDE_STYLE ('',( #171 ) ) ;
#286 = CARTESIAN_POINT ( 'NONE',  ( -3.827021247335478926E-17, 0.3125000000000000000, 0.000000000000000000 ) ) ;
#287 = EDGE_CURVE ( 'NONE', #143, #103, #210, .T. ) ;
#288 = ORIENTED_EDGE ( 'NONE', *, *, #93, .T. ) ;
#289 = CARTESIAN_POINT ( 'NONE',  ( 2.143131898507868297E-16, 1.250000000000000000, 0.000000000000000000 ) ) ;
#290 = LENGTH_MEASURE_WITH_UNIT ( LENGTH_MEASURE( 0.02539999999999999897 ), #296 );
#291 = DIRECTION ( 'NONE',  ( -1.224646799147353207E-16, 1.000000000000000000, -0.000000000000000000 ) ) ;
#292 = VERTEX_POINT ( 'NONE', #111 ) ;
#293 = DIRECTION ( 'NONE',  ( -0.000000000000000000, -1.000000000000000000, -0.000000000000000000 ) ) ;
#294 = AXIS2_PLACEMENT_3D ( 'NONE', #267, #48, #209 ) ;
#295 = FILL_AREA_STYLE_COLOUR ( '', #170 ) ;
#296 =( LENGTH_UNIT ( ) NAMED_UNIT ( * ) SI_UNIT ( $, .METRE. ) );
#297 = ORIENTED_EDGE ( 'NONE', *, *, #287, .T. ) ;
#298 = SURFACE_STYLE_USAGE ( .BOTH. , #123 ) ;
#299 = VERTEX_POINT ( 'NONE', #227 ) ;
#300 = DIRECTION ( 'NONE',  ( 0.000000000000000000, 1.000000000000000000, 0.000000000000000000 ) ) ;
#301 = LENGTH_MEASURE_WITH_UNIT ( LENGTH_MEASURE( 0.02539999999999999897 ), #274 );
#302 = VECTOR ( 'NONE', #200, 39.37007874015748143 ) ;
#303 = FILL_AREA_STYLE_COLOUR ( '', #117 ) ;
#304 =( GEOMETRIC_REPRESENTATION_CONTEXT ( 3 ) GLOBAL_UNCERTAINTY_ASSIGNED_CONTEXT ( ( #1 ) ) GLOBAL_UNIT_ASSIGNED_CONTEXT ( ( #128, #190, #21 ) ) REPRESENTATION_CONTEXT ( 'NONE', 'WORKASPACE' ) );
#305 = DIRECTION ( 'NONE',  ( 1.000000000000000000, 0.000000000000000000, 0.000000000000000000 ) ) ;
#306 = CARTESIAN_POINT ( 'NONE',  ( 3.827021247335478926E-17, 0.3125000000000000555, 0.3125000000000000000 ) ) ;
#307 = AXIS2_PLACEMENT_3D ( 'NONE', #35, #107, #29 ) ;
#308 = DIRECTION ( 'NONE',  ( -1.224646799147353207E-16, 1.000000000000000000, -0.000000000000000000 ) ) ;
#309 = CIRCLE ( 'NONE', #251, 0.3124999999999999445 ) ;
#310 = DIRECTION ( 'NONE',  ( 0.000000000000000000, 0.000000000000000000, -1.000000000000000000 ) ) ;
#311 = APPLICATION_CONTEXT ( 'automotive_design' ) ;
#312 = DIRECTION ( 'NONE',  ( 0.000000000000000000, 0.000000000000000000, -1.000000000000000000 ) ) ;
#313 = LINE ( 'NONE', #3, #60 ) ;
#314 = UNCERTAINTY_MEASURE_WITH_UNIT (LENGTH_MEASURE( 1.000000000000000082E-05 ), #87, 'distance_accuracy_value', 'NONE');
#315 = DIRECTION ( 'NONE',  ( 0.000000000000000000, 0.000000000000000000, -1.000000000000000000 ) ) ;
#316 = CARTESIAN_POINT ( 'NONE',  ( 0.3124999999999998890, 3.500000000000000000, 0.000000000000000000 ) ) ;
#317 = CLOSED_SHELL ( 'NONE', ( #23, #121, #283, #58 ) ) ;
#318 = CIRCLE ( 'NONE', #358, 0.3125000000000000000 ) ;
#319 = CARTESIAN_POINT ( 'NONE',  ( 0.000000000000000000, 0.3125000000000000555, -0.3125000000000000000 ) ) ;
#320 = ADVANCED_FACE ( 'NONE', ( #345 ), #145, .T. ) ;
#321 = CARTESIAN_POINT ( 'NONE',  ( -6.123233995736759873E-17, 3.500000000000000000, 0.000000000000000000 ) ) ;
#322 = LINE ( 'NONE', #150, #163 ) ;
#323 = SURFACE_STYLE_FILL_AREA ( #263 ) ;
#324 = ORIENTED_EDGE ( 'NONE', *, *, #135, .F. ) ;
#325 = EDGE_CURVE ( 'NONE', #280, #63, #5, .T. ) ;
#326 = PRESENTATION_LAYER_ASSIGNMENT (  '', '', ( #73 ) ) ;
#327 = ORIENTED_EDGE ( 'NONE', *, *, #329, .F. ) ;
#328 = FACE_OUTER_BOUND ( 'NONE', #357, .T. ) ;
#329 = EDGE_CURVE ( 'NONE', #103, #299, #318, .T. ) ;
#330 =( NAMED_UNIT ( * ) PLANE_ANGLE_UNIT ( ) SI_UNIT ( $, .RADIAN. ) );
#331 = MECHANICAL_DESIGN_GEOMETRIC_PRESENTATION_REPRESENTATION (  '', ( #125 ), #44 ) ;
#332 = APPLICATION_PROTOCOL_DEFINITION ( 'draft international standard', 'automotive_design', 1998, #368 ) ;
#333 = DIRECTION ( 'NONE',  ( -1.224646799147353207E-16, 1.000000000000000000, -0.000000000000000000 ) ) ;
#334 = DIRECTION ( 'NONE',  ( -1.224646799147353207E-16, 1.000000000000000000, -0.000000000000000000 ) ) ;
#335 = ORIENTED_EDGE ( 'NONE', *, *, #74, .T. ) ;
#336 = PRODUCT_RELATED_PRODUCT_CATEGORY ( 'part', '', ( #83 ) ) ;
#337 = ORIENTED_EDGE ( 'NONE', *, *, #108, .F. ) ;
#338 = PRODUCT_CONTEXT ( 'NONE', #311, 'mechanical' ) ;
#339 = VERTEX_POINT ( 'NONE', #133 ) ;
#340 = FACE_OUTER_BOUND ( 'NONE', #249, .T. ) ;
#341 = CARTESIAN_POINT ( 'NONE',  ( 2.143131898507868297E-16, 1.250000000000000000, 0.000000000000000000 ) ) ;
#342 = PRESENTATION_LAYER_ASSIGNMENT (  '', '', ( #168 ) ) ;
#343 = SHAPE_DEFINITION_REPRESENTATION ( #166, #122 ) ;
#344 = UNCERTAINTY_MEASURE_WITH_UNIT (LENGTH_MEASURE( 1.000000000000000082E-05 ), #120, 'distance_accuracy_value', 'NONE');
#345 = FACE_OUTER_BOUND ( 'NONE', #53, .T. ) ;
#346 = PRESENTATION_STYLE_ASSIGNMENT (( #14 ) ) ;
#347 = CARTESIAN_POINT ( 'NONE',  ( 3.827021247335477694E-17, 0.000000000000000000, 0.3124999999999999445 ) ) ;
#348 = FILL_AREA_STYLE_COLOUR ( '', #365 ) ;
#349 = PRESENTATION_STYLE_ASSIGNMENT (( #172 ) ) ;
#350 = CIRCLE ( 'NONE', #184, 0.3124999999999996669 ) ;
#351 =( LENGTH_UNIT ( ) NAMED_UNIT ( * ) SI_UNIT ( $, .METRE. ) );
#352 = DIRECTION ( 'NONE',  ( -1.000000000000000000, 0.000000000000000000, 0.000000000000000000 ) ) ;
#353 = DIRECTION ( 'NONE',  ( -1.224646799147353207E-16, 1.000000000000000000, 0.000000000000000000 ) ) ;
#354 = ADVANCED_FACE ( 'NONE', ( #160 ), #155, .T. ) ;
#355 =( NAMED_UNIT ( * ) PLANE_ANGLE_UNIT ( ) SI_UNIT ( $, .RADIAN. ) );
#356 = ORIENTED_EDGE ( 'NONE', *, *, #256, .T. ) ;
#357 = EDGE_LOOP ( 'NONE', ( #13, #356, #192, #146 ) ) ;
#358 = AXIS2_PLACEMENT_3D ( 'NONE', #102, #7, #232 ) ;
#359 =( NAMED_UNIT ( * ) SI_UNIT ( $, .STERADIAN. ) SOLID_ANGLE_UNIT ( ) );
#360 =( LENGTH_UNIT ( ) NAMED_UNIT ( * ) SI_UNIT ( $, .METRE. ) );
#361 = ADVANCED_FACE ( 'NONE', ( #328 ), #271, .T. ) ;
#362 = EDGE_LOOP ( 'NONE', ( #51, #337 ) ) ;
#363 = LENGTH_MEASURE_WITH_UNIT ( LENGTH_MEASURE( 0.02539999999999999897 ), #45 );
#364 = LENGTH_MEASURE_WITH_UNIT ( LENGTH_MEASURE( 0.02539999999999999897 ), #71 );
#365 = COLOUR_RGB ( '',1.000000000000000000, 0.000000000000000000, 0.000000000000000000 ) ;
#366 = EDGE_LOOP ( 'NONE', ( #369, #288, #211, #327, #176 ) ) ;
#367 = FILL_AREA_STYLE ('',( #131 ) ) ;
#368 = APPLICATION_CONTEXT ( 'automotive_design' ) ;
#369 = ORIENTED_EDGE ( 'NONE', *, *, #32, .T. ) ;
#370 = COLOUR_RGB ( '',1.000000000000000000, 0.000000000000000000, 0.000000000000000000 ) ;
#371 = SURFACE_STYLE_FILL_AREA ( #367 ) ;
#372 = SURFACE_SIDE_STYLE ('',( #220 ) ) ;
#373 = FACE_OUTER_BOUND ( 'NONE', #362, .T. ) ;
ENDSEC;
END-ISO-10303-21;
