ISO-10303-21;
HEADER;
FILE_DESCRIPTION (( 'STEP AP214' ),
    '1' );
FILE_NAME ('59909.STEP',
    '2023-06-22T23:58:34',
    ( '' ),
    ( '' ),
    'SwSTEP 2.0',
    'SolidWorks 2023',
    '' );
FILE_SCHEMA (( 'AUTOMOTIVE_DESIGN' ));
ENDSEC;

DATA;
#1 = DIRECTION ( 'NONE',  ( -3.061616997868386099E-17, 1.000000000000000000, -0.000000000000000000 ) ) ;
#2 = DIRECTION ( 'NONE',  ( -3.061616997868386099E-17, 1.000000000000000000, -0.000000000000000000 ) ) ;
#3 =( NAMED_UNIT ( * ) PLANE_ANGLE_UNIT ( ) SI_UNIT ( $, .RADIAN. ) );
#4 = AXIS2_PLACEMENT_3D ( 'NONE', #147, #46, #10 ) ;
#5 =( GEOMETRIC_REPRESENTATION_CONTEXT ( 3 ) GLOBAL_UNCERTAINTY_ASSIGNED_CONTEXT ( ( #57 ) ) GLOBAL_UNIT_ASSIGNED_CONTEXT ( ( #11, #107, #99 ) ) REPRESENTATION_CONTEXT ( 'NONE', 'WORKASPACE' ) );
#6 = COLOUR_RGB ( '',1.000000000000000000, 0.000000000000000000, 0.000000000000000000 ) ;
#7 = PRESENTATION_STYLE_ASSIGNMENT (( #196 ) ) ;
#8 =( NAMED_UNIT ( * ) PLANE_ANGLE_UNIT ( ) SI_UNIT ( $, .RADIAN. ) );
#9 = COLOUR_RGB ( '',1.000000000000000000, 0.000000000000000000, 0.000000000000000000 ) ;
#10 = DIRECTION ( 'NONE',  ( 0.000000000000000000, 0.000000000000000000, -1.000000000000000000 ) ) ;
#11 =( CONVERSION_BASED_UNIT ( 'INCH', #131 ) LENGTH_UNIT ( ) NAMED_UNIT ( #71 ) );
#12 = STYLED_ITEM ( 'NONE', ( #62 ), #261 ) ;
#13 =( NAMED_UNIT ( * ) SI_UNIT ( $, .STERADIAN. ) SOLID_ANGLE_UNIT ( ) );
#14 = PLANE ( 'NONE',  #296 ) ;
#15 = AXIS2_PLACEMENT_3D ( 'NONE', #152, #266, #265 ) ;
#16 = AXIS2_PLACEMENT_3D ( 'NONE', #300, #268, #85 ) ;
#17 = DIRECTION ( 'NONE',  ( -1.000000000000000000, 0.000000000000000000, 0.000000000000000000 ) ) ;
#18 = LENGTH_MEASURE_WITH_UNIT ( LENGTH_MEASURE( 0.02539999999999999897 ), #87 );
#19 =( LENGTH_UNIT ( ) NAMED_UNIT ( * ) SI_UNIT ( $, .METRE. ) );
#20 = ORIENTED_EDGE ( 'NONE', *, *, #170, .F. ) ;
#21 = CIRCLE ( 'NONE', #199, 0.2500000000000000000 ) ;
#22 =( GEOMETRIC_REPRESENTATION_CONTEXT ( 3 ) GLOBAL_UNCERTAINTY_ASSIGNED_CONTEXT ( ( #202 ) ) GLOBAL_UNIT_ASSIGNED_CONTEXT ( ( #219, #8, #49 ) ) REPRESENTATION_CONTEXT ( 'NONE', 'WORKASPACE' ) );
#23 = ORIENTED_EDGE ( 'NONE', *, *, #194, .F. ) ;
#24 = CARTESIAN_POINT ( 'NONE',  ( 0.000000000000000000, 0.000000000000000000, 0.000000000000000000 ) ) ;
#25 = COLOUR_RGB ( '',0.7921568627450980005, 0.8196078431372548767, 0.9333333333333333481 ) ;
#26 = DIRECTION ( 'NONE',  ( -0.000000000000000000, -1.000000000000000000, -0.000000000000000000 ) ) ;
#27 = EDGE_LOOP ( 'NONE', ( #256, #267 ) ) ;
#28 = FILL_AREA_STYLE ('',( #151 ) ) ;
#29 = SURFACE_SIDE_STYLE ('',( #149 ) ) ;
#30 = COLOUR_RGB ( '',0.7921568627450980005, 0.8196078431372548767, 0.9333333333333333481 ) ;
#31 = APPLICATION_CONTEXT ( 'automotive_design' ) ;
#32 =( CONVERSION_BASED_UNIT ( 'INCH', #225 ) LENGTH_UNIT ( ) NAMED_UNIT ( #61 ) );
#33 = PRESENTATION_LAYER_ASSIGNMENT (  '', '', ( #102 ) ) ;
#34 = LENGTH_MEASURE_WITH_UNIT ( LENGTH_MEASURE( 0.02539999999999999897 ), #251 );
#35 = CARTESIAN_POINT ( 'NONE',  ( 0.2500000000000000000, 1.000000000000000000, 3.061616997868383634E-17 ) ) ;
#36 = LINE ( 'NONE', #233, #207 ) ;
#37 = MECHANICAL_DESIGN_GEOMETRIC_PRESENTATION_REPRESENTATION (  '', ( #270 ), #22 ) ;
#38 = DIRECTION ( 'NONE',  ( -3.061616997868386099E-17, 1.000000000000000000, -0.000000000000000000 ) ) ;
#39 = SURFACE_STYLE_USAGE ( .BOTH. , #182 ) ;
#40 = PLANE ( 'NONE',  #230 ) ;
#41 = ORIENTED_EDGE ( 'NONE', *, *, #112, .T. ) ;
#42 =( GEOMETRIC_REPRESENTATION_CONTEXT ( 3 ) GLOBAL_UNCERTAINTY_ASSIGNED_CONTEXT ( ( #80 ) ) GLOBAL_UNIT_ASSIGNED_CONTEXT ( ( #161, #47, #156 ) ) REPRESENTATION_CONTEXT ( 'NONE', 'WORKASPACE' ) );
#43 = FILL_AREA_STYLE_COLOUR ( '', #9 ) ;
#44 = EDGE_CURVE ( 'NONE', #243, #185, #298, .T. ) ;
#45 = CARTESIAN_POINT ( 'NONE',  ( 0.000000000000000000, 0.000000000000000000, 0.000000000000000000 ) ) ;
#46 = DIRECTION ( 'NONE',  ( -0.000000000000000000, -1.000000000000000000, -0.000000000000000000 ) ) ;
#47 =( NAMED_UNIT ( * ) PLANE_ANGLE_UNIT ( ) SI_UNIT ( $, .RADIAN. ) );
#48 = FACE_OUTER_BOUND ( 'NONE', #105, .T. ) ;
#49 =( NAMED_UNIT ( * ) SI_UNIT ( $, .STERADIAN. ) SOLID_ANGLE_UNIT ( ) );
#50 = PRODUCT_DEFINITION ( 'UNKNOWN', '', #255, #269 ) ;
#51 = FILL_AREA_STYLE_COLOUR ( '', #159 ) ;
#52 = CLOSED_SHELL ( 'NONE', ( #82, #261, #120, #291 ) ) ;
#53 = CYLINDRICAL_SURFACE ( 'NONE', #288, 0.2500000000000000555 ) ;
#54 = ADVANCED_FACE ( 'NONE', ( #48 ), #79, .F. ) ;
#55 = PRESENTATION_STYLE_ASSIGNMENT (( #248 ) ) ;
#56 = DIRECTION ( 'NONE',  ( -0.000000000000000000, -1.000000000000000000, -0.000000000000000000 ) ) ;
#57 = UNCERTAINTY_MEASURE_WITH_UNIT (LENGTH_MEASURE( 1.000000000000000082E-05 ), #11, 'distance_accuracy_value', 'NONE');
#58 = CIRCLE ( 'NONE', #91, 0.2500000000000000000 ) ;
#59 = PRESENTATION_LAYER_ASSIGNMENT (  '', '', ( #270 ) ) ;
#60 = DIRECTION ( 'NONE',  ( -3.061616997868386099E-17, 1.000000000000000000, -0.000000000000000000 ) ) ;
#61 = DIMENSIONAL_EXPONENTS ( 1.000000000000000000, 0.000000000000000000, 0.000000000000000000, 0.000000000000000000, 0.000000000000000000, 0.000000000000000000, 0.000000000000000000 ) ;
#62 = PRESENTATION_STYLE_ASSIGNMENT (( #286 ) ) ;
#63 = DIRECTION ( 'NONE',  ( 0.000000000000000000, 0.000000000000000000, -1.000000000000000000 ) ) ;
#64 = VERTEX_POINT ( 'NONE', #221 ) ;
#65 = AXIS2_PLACEMENT_3D ( 'NONE', #111, #60, #160 ) ;
#66 = DIRECTION ( 'NONE',  ( 0.000000000000000000, -0.000000000000000000, 1.000000000000000000 ) ) ;
#67 = EDGE_LOOP ( 'NONE', ( #264, #292 ) ) ;
#68 = CARTESIAN_POINT ( 'NONE',  ( 0.000000000000000000, 0.000000000000000000, -0.2500000000000000000 ) ) ;
#69 = EDGE_LOOP ( 'NONE', ( #189, #168, #282, #101 ) ) ;
#70 = FACE_OUTER_BOUND ( 'NONE', #201, .T. ) ;
#71 = DIMENSIONAL_EXPONENTS ( 1.000000000000000000, 0.000000000000000000, 0.000000000000000000, 0.000000000000000000, 0.000000000000000000, 0.000000000000000000, 0.000000000000000000 ) ;
#72 = CARTESIAN_POINT ( 'NONE',  ( -6.123233995736772199E-17, 3.000000000000000444, 0.000000000000000000 ) ) ;
#73 = DIRECTION ( 'NONE',  ( -1.000000000000000000, -3.061616997868386099E-17, 0.000000000000000000 ) ) ;
#74 = DIRECTION ( 'NONE',  ( 0.000000000000000000, -1.000000000000000000, -0.000000000000000000 ) ) ;
#75 = AXIS2_PLACEMENT_3D ( 'NONE', #143, #308, #215 ) ;
#76 = EDGE_CURVE ( 'NONE', #90, #234, #302, .T. ) ;
#77 = FACE_OUTER_BOUND ( 'NONE', #198, .T. ) ;
#78 = PRODUCT_DEFINITION_SHAPE ( 'NONE', 'NONE',  #50 ) ;
#79 = PLANE ( 'NONE',  #96 ) ;
#80 = UNCERTAINTY_MEASURE_WITH_UNIT (LENGTH_MEASURE( 1.000000000000000082E-05 ), #161, 'distance_accuracy_value', 'NONE');
#81 = DIRECTION ( 'NONE',  ( -0.000000000000000000, -1.000000000000000000, -0.000000000000000000 ) ) ;
#82 = ADVANCED_FACE ( 'NONE', ( #77 ), #241, .T. ) ;
#83 = FACE_OUTER_BOUND ( 'NONE', #165, .T. ) ;
#84 = DIRECTION ( 'NONE',  ( -3.061616997868386099E-17, 1.000000000000000000, -0.000000000000000000 ) ) ;
#85 = DIRECTION ( 'NONE',  ( 0.000000000000000000, 0.000000000000000000, -1.000000000000000000 ) ) ;
#86 = APPLICATION_PROTOCOL_DEFINITION ( 'draft international standard', 'automotive_design', 1998, #285 ) ;
#87 =( LENGTH_UNIT ( ) NAMED_UNIT ( * ) SI_UNIT ( $, .METRE. ) );
#88 = ADVANCED_BREP_SHAPE_REPRESENTATION ( '59909', ( #92, #295, #218 ), #138 ) ;
#89 = DIRECTION ( 'NONE',  ( -0.000000000000000000, -1.000000000000000000, -0.000000000000000000 ) ) ;
#90 = VERTEX_POINT ( 'NONE', #125 ) ;
#91 = AXIS2_PLACEMENT_3D ( 'NONE', #136, #89, #63 ) ;
#92 = MANIFOLD_SOLID_BREP ( 'Revolve - Cutting Edge', #52 ) ;
#93 = ORIENTED_EDGE ( 'NONE', *, *, #194, .T. ) ;
#94 = DIMENSIONAL_EXPONENTS ( 1.000000000000000000, 0.000000000000000000, 0.000000000000000000, 0.000000000000000000, 0.000000000000000000, 0.000000000000000000, 0.000000000000000000 ) ;
#95 = ORIENTED_EDGE ( 'NONE', *, *, #44, .F. ) ;
#96 = AXIS2_PLACEMENT_3D ( 'NONE', #124, #289, #73 ) ;
#97 = AXIS2_PLACEMENT_3D ( 'NONE', #253, #119, #17 ) ;
#98 = FILL_AREA_STYLE_COLOUR ( '', #30 ) ;
#99 =( NAMED_UNIT ( * ) SI_UNIT ( $, .STERADIAN. ) SOLID_ANGLE_UNIT ( ) );
#100 = SURFACE_SIDE_STYLE ('',( #220 ) ) ;
#101 = ORIENTED_EDGE ( 'NONE', *, *, #274, .F. ) ;
#102 = STYLED_ITEM ( 'NONE', ( #55 ), #120 ) ;
#103 = PRODUCT ( '59909', '59909', '', ( #276 ) ) ;
#104 =( LENGTH_UNIT ( ) NAMED_UNIT ( * ) SI_UNIT ( $, .METRE. ) );
#105 = EDGE_LOOP ( 'NONE', ( #258, #23 ) ) ;
#106 = EDGE_CURVE ( 'NONE', #90, #64, #200, .T. ) ;
#107 =( NAMED_UNIT ( * ) PLANE_ANGLE_UNIT ( ) SI_UNIT ( $, .RADIAN. ) );
#108 = DIRECTION ( 'NONE',  ( -0.000000000000000000, -1.000000000000000000, -0.000000000000000000 ) ) ;
#109 =( GEOMETRIC_REPRESENTATION_CONTEXT ( 3 ) GLOBAL_UNCERTAINTY_ASSIGNED_CONTEXT ( ( #179 ) ) GLOBAL_UNIT_ASSIGNED_CONTEXT ( ( #211, #257, #187 ) ) REPRESENTATION_CONTEXT ( 'NONE', 'WORKASPACE' ) );
#110 = CARTESIAN_POINT ( 'NONE',  ( 0.000000000000000000, 0.000000000000000000, 0.000000000000000000 ) ) ;
#111 = CARTESIAN_POINT ( 'NONE',  ( -6.123233995736772199E-17, 3.000000000000000444, 0.000000000000000000 ) ) ;
#112 = EDGE_CURVE ( 'NONE', #234, #90, #132, .T. ) ;
#113 = FACE_OUTER_BOUND ( 'NONE', #27, .T. ) ;
#114 = DIMENSIONAL_EXPONENTS ( 1.000000000000000000, 0.000000000000000000, 0.000000000000000000, 0.000000000000000000, 0.000000000000000000, 0.000000000000000000, 0.000000000000000000 ) ;
#115 = CARTESIAN_POINT ( 'NONE',  ( -0.2500000000000000000, 1.000000000000000000, 0.000000000000000000 ) ) ;
#116 = FILL_AREA_STYLE_COLOUR ( '', #150 ) ;
#117 = ORIENTED_EDGE ( 'NONE', *, *, #158, .F. ) ;
#118 = AXIS2_PLACEMENT_3D ( 'NONE', #24, #26, #122 ) ;
#119 = DIRECTION ( 'NONE',  ( -3.061616997868386099E-17, 1.000000000000000000, -0.000000000000000000 ) ) ;
#120 = ADVANCED_FACE ( 'NONE', ( #177 ), #180, .T. ) ;
#121 = ORIENTED_EDGE ( 'NONE', *, *, #134, .T. ) ;
#122 = DIRECTION ( 'NONE',  ( 0.000000000000000000, 0.000000000000000000, -1.000000000000000000 ) ) ;
#123 = AXIS2_PLACEMENT_3D ( 'NONE', #226, #84, #175 ) ;
#124 = CARTESIAN_POINT ( 'NONE',  ( 1.171687330204578608E-34, 1.000000000000000000, 0.000000000000000000 ) ) ;
#125 = CARTESIAN_POINT ( 'NONE',  ( 3.061616997868383018E-17, 1.000000000000000000, 0.2500000000000000000 ) ) ;
#126 = CIRCLE ( 'NONE', #75, 0.2500000000000000000 ) ;
#127 =( LENGTH_UNIT ( ) NAMED_UNIT ( * ) SI_UNIT ( $, .METRE. ) );
#128 = CLOSED_SHELL ( 'NONE', ( #305, #54, #162, #139 ) ) ;
#129 = FILL_AREA_STYLE ('',( #51 ) ) ;
#130 =( NAMED_UNIT ( * ) PLANE_ANGLE_UNIT ( ) SI_UNIT ( $, .RADIAN. ) );
#131 = LENGTH_MEASURE_WITH_UNIT ( LENGTH_MEASURE( 0.02539999999999999897 ), #242 );
#132 = CIRCLE ( 'NONE', #16, 0.2500000000000000000 ) ;
#133 = LINE ( 'NONE', #275, #297 ) ;
#134 = EDGE_CURVE ( 'NONE', #236, #243, #133, .T. ) ;
#135 = CARTESIAN_POINT ( 'NONE',  ( 3.061616997868383018E-17, 0.000000000000000000, 0.2500000000000000000 ) ) ;
#136 = CARTESIAN_POINT ( 'NONE',  ( 0.000000000000000000, 0.000000000000000000, 0.000000000000000000 ) ) ;
#137 = PRESENTATION_LAYER_ASSIGNMENT (  '', '', ( #208 ) ) ;
#138 =( GEOMETRIC_REPRESENTATION_CONTEXT ( 3 ) GLOBAL_UNCERTAINTY_ASSIGNED_CONTEXT ( ( #183 ) ) GLOBAL_UNIT_ASSIGNED_CONTEXT ( ( #263, #3, #240 ) ) REPRESENTATION_CONTEXT ( 'NONE', 'WORKASPACE' ) );
#139 = ADVANCED_FACE ( 'NONE', ( #113 ), #14, .F. ) ;
#140 = LENGTH_MEASURE_WITH_UNIT ( LENGTH_MEASURE( 0.02539999999999999897 ), #19 );
#141 = ORIENTED_EDGE ( 'NONE', *, *, #244, .F. ) ;
#142 = DIRECTION ( 'NONE',  ( 0.000000000000000000, 1.000000000000000000, 0.000000000000000000 ) ) ;
#143 = CARTESIAN_POINT ( 'NONE',  ( 0.000000000000000000, 0.000000000000000000, 0.000000000000000000 ) ) ;
#144 = MECHANICAL_DESIGN_GEOMETRIC_PRESENTATION_REPRESENTATION (  '', ( #102 ), #245 ) ;
#145 =( GEOMETRIC_REPRESENTATION_CONTEXT ( 3 ) GLOBAL_UNCERTAINTY_ASSIGNED_CONTEXT ( ( #209 ) ) GLOBAL_UNIT_ASSIGNED_CONTEXT ( ( #32, #228, #303 ) ) REPRESENTATION_CONTEXT ( 'NONE', 'WORKASPACE' ) );
#146 = SURFACE_STYLE_FILL_AREA ( #163 ) ;
#147 = CARTESIAN_POINT ( 'NONE',  ( 0.000000000000000000, 1.000000000000000000, 0.000000000000000000 ) ) ;
#148 = LENGTH_MEASURE_WITH_UNIT ( LENGTH_MEASURE( 0.02539999999999999897 ), #287 );
#149 = SURFACE_STYLE_FILL_AREA ( #28 ) ;
#150 = COLOUR_RGB ( '',1.000000000000000000, 0.000000000000000000, 0.000000000000000000 ) ;
#151 = FILL_AREA_STYLE_COLOUR ( '', #6 ) ;
#152 = CARTESIAN_POINT ( 'NONE',  ( -6.123233995736772199E-17, 3.000000000000000444, 0.000000000000000000 ) ) ;
#153 = EDGE_CURVE ( 'NONE', #185, #243, #224, .T. ) ;
#154 = MECHANICAL_DESIGN_GEOMETRIC_PRESENTATION_REPRESENTATION (  '', ( #208 ), #145 ) ;
#155 = CARTESIAN_POINT ( 'NONE',  ( 0.000000000000000000, 0.000000000000000000, -0.2500000000000000000 ) ) ;
#156 =( NAMED_UNIT ( * ) SI_UNIT ( $, .STERADIAN. ) SOLID_ANGLE_UNIT ( ) );
#157 = LINE ( 'NONE', #155, #204 ) ;
#158 = EDGE_CURVE ( 'NONE', #234, #213, #157, .T. ) ;
#159 = COLOUR_RGB ( '',1.000000000000000000, 0.000000000000000000, 0.000000000000000000 ) ;
#160 = DIRECTION ( 'NONE',  ( -1.000000000000000000, 0.000000000000000000, 0.000000000000000000 ) ) ;
#161 =( CONVERSION_BASED_UNIT ( 'INCH', #18 ) LENGTH_UNIT ( ) NAMED_UNIT ( #262 ) );
#162 = ADVANCED_FACE ( 'NONE', ( #178 ), #272, .T. ) ;
#163 = FILL_AREA_STYLE ('',( #116 ) ) ;
#164 = STYLED_ITEM ( 'NONE', ( #281 ), #291 ) ;
#165 = EDGE_LOOP ( 'NONE', ( #309, #210, #95, #293 ) ) ;
#166 = VERTEX_POINT ( 'NONE', #35 ) ;
#167 = FACE_OUTER_BOUND ( 'NONE', #67, .T. ) ;
#168 = ORIENTED_EDGE ( 'NONE', *, *, #76, .T. ) ;
#169 = PLANE ( 'NONE',  #222 ) ;
#170 = EDGE_CURVE ( 'NONE', #166, #185, #36, .T. ) ;
#171 = VECTOR ( 'NONE', #81, 39.37007874015748143 ) ;
#172 = ORIENTED_EDGE ( 'NONE', *, *, #153, .F. ) ;
#173 = PRESENTATION_LAYER_ASSIGNMENT (  '', '', ( #280 ) ) ;
#174 = LENGTH_MEASURE_WITH_UNIT ( LENGTH_MEASURE( 0.02539999999999999897 ), #104 );
#175 = DIRECTION ( 'NONE',  ( -1.000000000000000000, 0.000000000000000000, 0.000000000000000000 ) ) ;
#176 = MECHANICAL_DESIGN_GEOMETRIC_PRESENTATION_REPRESENTATION (  '', ( #164 ), #42 ) ;
#177 = FACE_OUTER_BOUND ( 'NONE', #69, .T. ) ;
#178 = FACE_OUTER_BOUND ( 'NONE', #260, .T. ) ;
#179 = UNCERTAINTY_MEASURE_WITH_UNIT (LENGTH_MEASURE( 1.000000000000000082E-05 ), #211, 'distance_accuracy_value', 'NONE');
#180 = CYLINDRICAL_SURFACE ( 'NONE', #191, 0.2500000000000000000 ) ;
#181 = DIRECTION ( 'NONE',  ( 1.000000000000000000, 0.000000000000000000, 0.000000000000000000 ) ) ;
#182 = SURFACE_SIDE_STYLE ('',( #237 ) ) ;
#183 = UNCERTAINTY_MEASURE_WITH_UNIT (LENGTH_MEASURE( 1.000000000000000082E-05 ), #263, 'distance_accuracy_value', 'NONE');
#184 = CARTESIAN_POINT ( 'NONE',  ( -0.2500000000000001110, 3.000000000000000444, 0.000000000000000000 ) ) ;
#185 = VERTEX_POINT ( 'NONE', #283 ) ;
#186 = PRESENTATION_LAYER_ASSIGNMENT (  '', '', ( #12 ) ) ;
#187 =( NAMED_UNIT ( * ) SI_UNIT ( $, .STERADIAN. ) SOLID_ANGLE_UNIT ( ) );
#188 = DIMENSIONAL_EXPONENTS ( 1.000000000000000000, 0.000000000000000000, 0.000000000000000000, 0.000000000000000000, 0.000000000000000000, 0.000000000000000000, 0.000000000000000000 ) ;
#189 = ORIENTED_EDGE ( 'NONE', *, *, #106, .F. ) ;
#190 = EDGE_CURVE ( 'NONE', #236, #166, #212, .T. ) ;
#191 = AXIS2_PLACEMENT_3D ( 'NONE', #203, #108, #205 ) ;
#192 = DIRECTION ( 'NONE',  ( -1.000000000000000000, 0.000000000000000000, 0.000000000000000000 ) ) ;
#193 = PRESENTATION_STYLE_ASSIGNMENT (( #239 ) ) ;
#194 = EDGE_CURVE ( 'NONE', #166, #236, #21, .T. ) ;
#195 = SURFACE_SIDE_STYLE ('',( #197 ) ) ;
#196 = SURFACE_STYLE_USAGE ( .BOTH. , #100 ) ;
#197 = SURFACE_STYLE_FILL_AREA ( #216 ) ;
#198 = EDGE_LOOP ( 'NONE', ( #41, #290, #141, #117 ) ) ;
#199 = AXIS2_PLACEMENT_3D ( 'NONE', #278, #38, #277 ) ;
#200 = LINE ( 'NONE', #135, #171 ) ;
#201 = EDGE_LOOP ( 'NONE', ( #306, #284 ) ) ;
#202 = UNCERTAINTY_MEASURE_WITH_UNIT (LENGTH_MEASURE( 1.000000000000000082E-05 ), #219, 'distance_accuracy_value', 'NONE');
#203 = CARTESIAN_POINT ( 'NONE',  ( 0.000000000000000000, 0.000000000000000000, 0.000000000000000000 ) ) ;
#204 = VECTOR ( 'NONE', #56, 39.37007874015748143 ) ;
#205 = DIRECTION ( 'NONE',  ( 0.000000000000000000, 0.000000000000000000, -1.000000000000000000 ) ) ;
#206 = DIRECTION ( 'NONE',  ( 3.061616997868386099E-17, -1.000000000000000000, 0.000000000000000000 ) ) ;
#207 = VECTOR ( 'NONE', #1, 39.37007874015748143 ) ;
#208 = STYLED_ITEM ( 'NONE', ( #7 ), #92 ) ;
#209 = UNCERTAINTY_MEASURE_WITH_UNIT (LENGTH_MEASURE( 1.000000000000000082E-05 ), #32, 'distance_accuracy_value', 'NONE');
#210 = ORIENTED_EDGE ( 'NONE', *, *, #170, .T. ) ;
#211 =( CONVERSION_BASED_UNIT ( 'INCH', #140 ) LENGTH_UNIT ( ) NAMED_UNIT ( #214 ) );
#212 = CIRCLE ( 'NONE', #97, 0.2500000000000000000 ) ;
#213 = VERTEX_POINT ( 'NONE', #68 ) ;
#214 = DIMENSIONAL_EXPONENTS ( 1.000000000000000000, 0.000000000000000000, 0.000000000000000000, 0.000000000000000000, 0.000000000000000000, 0.000000000000000000, 0.000000000000000000 ) ;
#215 = DIRECTION ( 'NONE',  ( 0.000000000000000000, 0.000000000000000000, -1.000000000000000000 ) ) ;
#216 = FILL_AREA_STYLE ('',( #247 ) ) ;
#217 = FILL_AREA_STYLE ('',( #98 ) ) ;
#218 = AXIS2_PLACEMENT_3D ( 'NONE', #110, #301, #181 ) ;
#219 =( CONVERSION_BASED_UNIT ( 'INCH', #174 ) LENGTH_UNIT ( ) NAMED_UNIT ( #94 ) );
#220 = SURFACE_STYLE_FILL_AREA ( #217 ) ;
#221 = CARTESIAN_POINT ( 'NONE',  ( 3.061616997868383018E-17, 0.000000000000000000, 0.2500000000000000000 ) ) ;
#222 = AXIS2_PLACEMENT_3D ( 'NONE', #45, #74, #271 ) ;
#223 = SURFACE_SIDE_STYLE ('',( #246 ) ) ;
#224 = CIRCLE ( 'NONE', #123, 0.2500000000000000555 ) ;
#225 = LENGTH_MEASURE_WITH_UNIT ( LENGTH_MEASURE( 0.02539999999999999897 ), #127 );
#226 = CARTESIAN_POINT ( 'NONE',  ( -6.123233995736772199E-17, 3.000000000000000444, 0.000000000000000000 ) ) ;
#227 = APPLICATION_PROTOCOL_DEFINITION ( 'draft international standard', 'automotive_design', 1998, #31 ) ;
#228 =( NAMED_UNIT ( * ) PLANE_ANGLE_UNIT ( ) SI_UNIT ( $, .RADIAN. ) );
#229 = FILL_AREA_STYLE ('',( #43 ) ) ;
#230 = AXIS2_PLACEMENT_3D ( 'NONE', #231, #142, #66 ) ;
#231 = CARTESIAN_POINT ( 'NONE',  ( 0.000000000000000000, 1.000000000000000000, 0.000000000000000000 ) ) ;
#232 = UNCERTAINTY_MEASURE_WITH_UNIT (LENGTH_MEASURE( 1.000000000000000082E-05 ), #252, 'distance_accuracy_value', 'NONE');
#233 = CARTESIAN_POINT ( 'NONE',  ( 0.2499999999999999722, 3.000000000000000444, 3.061616997868383634E-17 ) ) ;
#234 = VERTEX_POINT ( 'NONE', #235 ) ;
#235 = CARTESIAN_POINT ( 'NONE',  ( 0.000000000000000000, 1.000000000000000000, -0.2500000000000000000 ) ) ;
#236 = VERTEX_POINT ( 'NONE', #115 ) ;
#237 = SURFACE_STYLE_FILL_AREA ( #229 ) ;
#238 = SURFACE_STYLE_USAGE ( .BOTH. , #195 ) ;
#239 = SURFACE_STYLE_USAGE ( .BOTH. , #29 ) ;
#240 =( NAMED_UNIT ( * ) SI_UNIT ( $, .STERADIAN. ) SOLID_ANGLE_UNIT ( ) );
#241 = CYLINDRICAL_SURFACE ( 'NONE', #118, 0.2500000000000000000 ) ;
#242 =( LENGTH_UNIT ( ) NAMED_UNIT ( * ) SI_UNIT ( $, .METRE. ) );
#243 = VERTEX_POINT ( 'NONE', #184 ) ;
#244 = EDGE_CURVE ( 'NONE', #213, #64, #58, .T. ) ;
#245 =( GEOMETRIC_REPRESENTATION_CONTEXT ( 3 ) GLOBAL_UNCERTAINTY_ASSIGNED_CONTEXT ( ( #232 ) ) GLOBAL_UNIT_ASSIGNED_CONTEXT ( ( #252, #130, #13 ) ) REPRESENTATION_CONTEXT ( 'NONE', 'WORKASPACE' ) );
#246 = SURFACE_STYLE_FILL_AREA ( #129 ) ;
#247 = FILL_AREA_STYLE_COLOUR ( '', #25 ) ;
#248 = SURFACE_STYLE_USAGE ( .BOTH. , #223 ) ;
#249 = PRESENTATION_STYLE_ASSIGNMENT (( #238 ) ) ;
#250 = PRESENTATION_LAYER_ASSIGNMENT (  '', '', ( #164 ) ) ;
#251 =( LENGTH_UNIT ( ) NAMED_UNIT ( * ) SI_UNIT ( $, .METRE. ) );
#252 =( CONVERSION_BASED_UNIT ( 'INCH', #34 ) LENGTH_UNIT ( ) NAMED_UNIT ( #188 ) );
#253 = CARTESIAN_POINT ( 'NONE',  ( 7.582401355855259480E-33, 1.000000000000000000, 0.000000000000000000 ) ) ;
#254 = SURFACE_SIDE_STYLE ('',( #146 ) ) ;
#255 = PRODUCT_DEFINITION_FORMATION_WITH_SPECIFIED_SOURCE ( 'ANY', '', #103, .NOT_KNOWN. ) ;
#256 = ORIENTED_EDGE ( 'NONE', *, *, #44, .T. ) ;
#257 =( NAMED_UNIT ( * ) PLANE_ANGLE_UNIT ( ) SI_UNIT ( $, .RADIAN. ) );
#258 = ORIENTED_EDGE ( 'NONE', *, *, #190, .F. ) ;
#259 = MECHANICAL_DESIGN_GEOMETRIC_PRESENTATION_REPRESENTATION (  '', ( #12 ), #109 ) ;
#260 = EDGE_LOOP ( 'NONE', ( #20, #93, #121, #172 ) ) ;
#261 = ADVANCED_FACE ( 'NONE', ( #167 ), #40, .T. ) ;
#262 = DIMENSIONAL_EXPONENTS ( 1.000000000000000000, 0.000000000000000000, 0.000000000000000000, 0.000000000000000000, 0.000000000000000000, 0.000000000000000000, 0.000000000000000000 ) ;
#263 =( CONVERSION_BASED_UNIT ( 'INCH', #148 ) LENGTH_UNIT ( ) NAMED_UNIT ( #114 ) );
#264 = ORIENTED_EDGE ( 'NONE', *, *, #112, .F. ) ;
#265 = DIRECTION ( 'NONE',  ( -1.000000000000000000, 0.000000000000000000, 0.000000000000000000 ) ) ;
#266 = DIRECTION ( 'NONE',  ( -3.061616997868386099E-17, 1.000000000000000000, -0.000000000000000000 ) ) ;
#267 = ORIENTED_EDGE ( 'NONE', *, *, #153, .T. ) ;
#268 = DIRECTION ( 'NONE',  ( -0.000000000000000000, -1.000000000000000000, -0.000000000000000000 ) ) ;
#269 = PRODUCT_DEFINITION_CONTEXT ( 'detailed design', #31, 'design' ) ;
#270 = STYLED_ITEM ( 'NONE', ( #193 ), #82 ) ;
#271 = DIRECTION ( 'NONE',  ( 0.000000000000000000, 0.000000000000000000, -1.000000000000000000 ) ) ;
#272 = CYLINDRICAL_SURFACE ( 'NONE', #65, 0.2500000000000000555 ) ;
#273 = DIRECTION ( 'NONE',  ( -3.061616997868386099E-17, 1.000000000000000000, -0.000000000000000000 ) ) ;
#274 = EDGE_CURVE ( 'NONE', #64, #213, #126, .T. ) ;
#275 = CARTESIAN_POINT ( 'NONE',  ( -0.2500000000000001110, 3.000000000000000444, 0.000000000000000000 ) ) ;
#276 = PRODUCT_CONTEXT ( 'NONE', #285, 'mechanical' ) ;
#277 = DIRECTION ( 'NONE',  ( -1.000000000000000000, 0.000000000000000000, 0.000000000000000000 ) ) ;
#278 = CARTESIAN_POINT ( 'NONE',  ( 7.582401355855259480E-33, 1.000000000000000000, 0.000000000000000000 ) ) ;
#279 = PRODUCT_RELATED_PRODUCT_CATEGORY ( 'part', '', ( #103 ) ) ;
#280 = STYLED_ITEM ( 'NONE', ( #249 ), #295 ) ;
#281 = PRESENTATION_STYLE_ASSIGNMENT (( #39 ) ) ;
#282 = ORIENTED_EDGE ( 'NONE', *, *, #158, .T. ) ;
#283 = CARTESIAN_POINT ( 'NONE',  ( 0.2500000000000000000, 3.000000000000000444, 3.061616997868383634E-17 ) ) ;
#284 = ORIENTED_EDGE ( 'NONE', *, *, #274, .T. ) ;
#285 = APPLICATION_CONTEXT ( 'automotive_design' ) ;
#286 = SURFACE_STYLE_USAGE ( .BOTH. , #254 ) ;
#287 =( LENGTH_UNIT ( ) NAMED_UNIT ( * ) SI_UNIT ( $, .METRE. ) );
#288 = AXIS2_PLACEMENT_3D ( 'NONE', #72, #2, #192 ) ;
#289 = DIRECTION ( 'NONE',  ( -3.061616997868386099E-17, 1.000000000000000000, 0.000000000000000000 ) ) ;
#290 = ORIENTED_EDGE ( 'NONE', *, *, #106, .T. ) ;
#291 = ADVANCED_FACE ( 'NONE', ( #70 ), #169, .T. ) ;
#292 = ORIENTED_EDGE ( 'NONE', *, *, #76, .F. ) ;
#293 = ORIENTED_EDGE ( 'NONE', *, *, #134, .F. ) ;
#294 = CARTESIAN_POINT ( 'NONE',  ( 0.2500000000000000000, 3.000000000000000444, 0.000000000000000000 ) ) ;
#295 = MANIFOLD_SOLID_BREP ( 'Revolve - Tool Body (Straight Shanked)', #128 ) ;
#296 = AXIS2_PLACEMENT_3D ( 'NONE', #294, #206, #299 ) ;
#297 = VECTOR ( 'NONE', #273, 39.37007874015748143 ) ;
#298 = CIRCLE ( 'NONE', #15, 0.2500000000000000555 ) ;
#299 = DIRECTION ( 'NONE',  ( 1.000000000000000000, 3.061616997868386099E-17, 0.000000000000000000 ) ) ;
#300 = CARTESIAN_POINT ( 'NONE',  ( 0.000000000000000000, 1.000000000000000000, 0.000000000000000000 ) ) ;
#301 = DIRECTION ( 'NONE',  ( 0.000000000000000000, 0.000000000000000000, 1.000000000000000000 ) ) ;
#302 = CIRCLE ( 'NONE', #4, 0.2500000000000000000 ) ;
#303 =( NAMED_UNIT ( * ) SI_UNIT ( $, .STERADIAN. ) SOLID_ANGLE_UNIT ( ) );
#304 = SHAPE_DEFINITION_REPRESENTATION ( #78, #88 ) ;
#305 = ADVANCED_FACE ( 'NONE', ( #83 ), #53, .T. ) ;
#306 = ORIENTED_EDGE ( 'NONE', *, *, #244, .T. ) ;
#307 = MECHANICAL_DESIGN_GEOMETRIC_PRESENTATION_REPRESENTATION (  '', ( #280 ), #5 ) ;
#308 = DIRECTION ( 'NONE',  ( -0.000000000000000000, -1.000000000000000000, -0.000000000000000000 ) ) ;
#309 = ORIENTED_EDGE ( 'NONE', *, *, #190, .T. ) ;
ENDSEC;
END-ISO-10303-21;
