ISO-10303-21;
HEADER;
FILE_DESCRIPTION (( 'STEP AP214' ),
    '1' );
FILE_NAME ('Micro_RDB-30.STEP',
    '2021-08-31T16:59:49',
    ( '' ),
    ( '' ),
    'SwSTEP 2.0',
    'SolidWorks 2020',
    '' );
FILE_SCHEMA (( 'AUTOMOTIVE_DESIGN' ));
ENDSEC;

DATA;
#1 = VERTEX_POINT ( 'NONE', #65 ) ;
#2 = VECTOR ( 'NONE', #77, 39.37007874015748143 ) ;
#3 = CARTESIAN_POINT ( 'NONE',  ( 0.06243750000000005546, 0.0000000000000000000, 0.5000000000000000000 ) ) ;
#4 = ORIENTED_EDGE ( 'NONE', *, *, #144, .F. ) ;
#5 = DIRECTION ( 'NONE',  ( -1.000000000000000000, 0.0000000000000000000, 0.0000000000000000000 ) ) ;
#6 = APPLICATION_CONTEXT ( 'automotive_design' ) ;
#7 = PRESENTATION_LAYER_ASSIGNMENT (  '', '', ( #40 ) ) ;
#8 = VERTEX_POINT ( 'NONE', #277 ) ;
#9 = AXIS2_PLACEMENT_3D ( 'NONE', #131, #231, #25 ) ;
#10 = CIRCLE ( 'NONE', #270, 0.06243749999999999994 ) ;
#11 = CARTESIAN_POINT ( 'NONE',  ( -0.06243749999999999301, 0.0000000000000000000, 7.646388452176287375E-18 ) ) ;
#12 = CARTESIAN_POINT ( 'NONE',  ( 0.06243749999999999301, 7.646388452176285834E-18, -7.646388452176287375E-18 ) ) ;
#13 = EDGE_CURVE ( 'NONE', #82, #293, #48, .T. ) ;
#14 = CARTESIAN_POINT ( 'NONE',  ( 9.364125142994977476E-34, 0.0000000000000000000, 7.646388452176288915E-18 ) ) ;
#15 = ORIENTED_EDGE ( 'NONE', *, *, #79, .T. ) ;
#16 = FACE_OUTER_BOUND ( 'NONE', #47, .T. ) ;
#17 = ORIENTED_EDGE ( 'NONE', *, *, #139, .T. ) ;
#18 = FACE_OUTER_BOUND ( 'NONE', #101, .T. ) ;
#19 = DIRECTION ( 'NONE',  ( 0.1736481776669313859, 0.0000000000000000000, 0.9848077530122077983 ) ) ;
#20 = FILL_AREA_STYLE_COLOUR ( '', #291 ) ;
#21 = VERTEX_POINT ( 'NONE', #209 ) ;
#22 = APPLICATION_CONTEXT ( 'automotive_design' ) ;
#23 = ORIENTED_EDGE ( 'NONE', *, *, #127, .F. ) ;
#24 = SURFACE_STYLE_FILL_AREA ( #249 ) ;
#25 = DIRECTION ( 'NONE',  ( 1.000000000000000000, 0.0000000000000000000, -0.0000000000000000000 ) ) ;
#26 = LENGTH_MEASURE_WITH_UNIT ( LENGTH_MEASURE( 0.02539999999999999897 ), #44 );
#27 = DIRECTION ( 'NONE',  ( 1.224646799147353454E-16, 0.0000000000000000000, 1.000000000000000000 ) ) ;
#28 = VECTOR ( 'NONE', #64, 39.37007874015748143 ) ;
#29 = EDGE_LOOP ( 'NONE', ( #186, #164, #23, #138 ) ) ;
#30 = VERTEX_POINT ( 'NONE', #205 ) ;
#31 = LINE ( 'NONE', #102, #221 ) ;
#32 = MECHANICAL_DESIGN_GEOMETRIC_PRESENTATION_REPRESENTATION (  '', ( #265 ), #104 ) ;
#33 = LINE ( 'NONE', #60, #283 ) ;
#34 = ADVANCED_FACE ( 'NONE', ( #162 ), #183, .T. ) ;
#35 = DIRECTION ( 'NONE',  ( 1.000000000000000000, 0.0000000000000000000, 0.0000000000000000000 ) ) ;
#36 = PRODUCT_DEFINITION_SHAPE ( 'NONE', 'NONE',  #289 ) ;
#37 = CARTESIAN_POINT ( 'NONE',  ( 6.127574818941430966E-17, 0.0000000000000000000, 0.5003544551137263374 ) ) ;
#38 = EDGE_LOOP ( 'NONE', ( #54, #149 ) ) ;
#39 = DIRECTION ( 'NONE',  ( -1.000000000000000000, 0.0000000000000000000, 1.224646799147353454E-16 ) ) ;
#40 = STYLED_ITEM ( 'NONE', ( #272 ), #224 ) ;
#41 = ADVANCED_FACE ( 'NONE', ( #161 ), #245, .T. ) ;
#42 =( NAMED_UNIT ( * ) SI_UNIT ( $, .STERADIAN. ) SOLID_ANGLE_UNIT ( ) );
#43 = ORIENTED_EDGE ( 'NONE', *, *, #79, .F. ) ;
#44 =( LENGTH_UNIT ( ) NAMED_UNIT ( * ) SI_UNIT ( $, .METRE. ) );
#45 = CARTESIAN_POINT ( 'NONE',  ( 0.06250000000000008327, 7.654042494670966789E-18, 0.5003544551137263374 ) ) ;
#46 = FACE_OUTER_BOUND ( 'NONE', #38, .T. ) ;
#47 = EDGE_LOOP ( 'NONE', ( #4, #43, #201, #271 ) ) ;
#48 = CIRCLE ( 'NONE', #288, 0.06243749999999999301 ) ;
#49 = ORIENTED_EDGE ( 'NONE', *, *, #222, .F. ) ;
#50 =( LENGTH_UNIT ( ) NAMED_UNIT ( * ) SI_UNIT ( $, .METRE. ) );
#51 = MECHANICAL_DESIGN_GEOMETRIC_PRESENTATION_REPRESENTATION (  '', ( #40 ), #260 ) ;
#52 = ORIENTED_EDGE ( 'NONE', *, *, #254, .F. ) ;
#53 = UNCERTAINTY_MEASURE_WITH_UNIT (LENGTH_MEASURE( 1.000000000000000082E-05 ), #247, 'distance_accuracy_value', 'NONE');
#54 = ORIENTED_EDGE ( 'NONE', *, *, #127, .T. ) ;
#55 = FACE_OUTER_BOUND ( 'NONE', #117, .T. ) ;
#56 = PRODUCT ( 'Micro_RDB-30', 'Micro_RDB-30', '', ( #236 ) ) ;
#57 = AXIS2_PLACEMENT_3D ( 'NONE', #294, #74, #219 ) ;
#58 = CYLINDRICAL_SURFACE ( 'NONE', #119, 0.06243749999999999301 ) ;
#59 = DIRECTION ( 'NONE',  ( -1.224646799147353454E-16, -0.0000000000000000000, -1.000000000000000000 ) ) ;
#60 = CARTESIAN_POINT ( 'NONE',  ( -0.04750000000000064587, 0.0000000000000000000, 1.500000000000000222 ) ) ;
#61 = EDGE_LOOP ( 'NONE', ( #188, #248, #198, #182 ) ) ;
#62 = EDGE_CURVE ( 'NONE', #66, #30, #70, .T. ) ;
#63 = ORIENTED_EDGE ( 'NONE', *, *, #166, .F. ) ;
#64 = DIRECTION ( 'NONE',  ( -0.0000000000000000000, -0.0000000000000000000, -1.000000000000000000 ) ) ;
#65 = CARTESIAN_POINT ( 'NONE',  ( 0.06243750000000001382, 7.646388452176287375E-18, 0.0000000000000000000 ) ) ;
#66 = VERTEX_POINT ( 'NONE', #45 ) ;
#67 = DIRECTION ( 'NONE',  ( 1.000000000000000000, 0.0000000000000000000, 0.0000000000000000000 ) ) ;
#68 = ORIENTED_EDGE ( 'NONE', *, *, #166, .T. ) ;
#69 = AXIS2_PLACEMENT_3D ( 'NONE', #148, #122, #223 ) ;
#70 = CIRCLE ( 'NONE', #152, 0.06250000000000002776 ) ;
#71 = AXIS2_PLACEMENT_3D ( 'NONE', #299, #275, #230 ) ;
#72 = ORIENTED_EDGE ( 'NONE', *, *, #168, .T. ) ;
#73 = DIRECTION ( 'NONE',  ( -1.224646799147353454E-16, -0.0000000000000000000, -1.000000000000000000 ) ) ;
#74 = DIRECTION ( 'NONE',  ( -0.0000000000000000000, -0.0000000000000000000, -1.000000000000000000 ) ) ;
#75 = DIRECTION ( 'NONE',  ( -0.0000000000000000000, -0.0000000000000000000, -1.000000000000000000 ) ) ;
#76 = ORIENTED_EDGE ( 'NONE', *, *, #222, .T. ) ;
#77 = DIRECTION ( 'NONE',  ( -1.224646799147353454E-16, -0.0000000000000000000, -1.000000000000000000 ) ) ;
#78 = AXIS2_PLACEMENT_3D ( 'NONE', #197, #73, #147 ) ;
#79 = EDGE_CURVE ( 'NONE', #98, #21, #92, .T. ) ;
#80 = CARTESIAN_POINT ( 'NONE',  ( 0.0000000000000000000, 0.0000000000000000000, 0.0000000000000000000 ) ) ;
#81 = SURFACE_STYLE_FILL_AREA ( #132 ) ;
#82 = VERTEX_POINT ( 'NONE', #213 ) ;
#83 = PRESENTATION_STYLE_ASSIGNMENT (( #251 ) ) ;
#84 = AXIS2_PLACEMENT_3D ( 'NONE', #297, #86, #5 ) ;
#85 = EDGE_LOOP ( 'NONE', ( #49, #208, #180, #151 ) ) ;
#86 = DIRECTION ( 'NONE',  ( -0.0000000000000000000, -0.0000000000000000000, -1.000000000000000000 ) ) ;
#87 = ADVANCED_FACE ( 'NONE', ( #284 ), #261, .T. ) ;
#88 = DIRECTION ( 'NONE',  ( -1.224646799147353454E-16, -0.0000000000000000000, -1.000000000000000000 ) ) ;
#89 = VECTOR ( 'NONE', #97, 39.37007874015747433 ) ;
#90 = DIMENSIONAL_EXPONENTS ( 1.000000000000000000, 0.0000000000000000000, 0.0000000000000000000, 0.0000000000000000000, 0.0000000000000000000, 0.0000000000000000000, 0.0000000000000000000 ) ;
#91 = ORIENTED_EDGE ( 'NONE', *, *, #13, .F. ) ;
#92 = CIRCLE ( 'NONE', #136, 0.04750000000000064587 ) ;
#93 = AXIS2_PLACEMENT_3D ( 'NONE', #14, #292, #199 ) ;
#94 = DIMENSIONAL_EXPONENTS ( 1.000000000000000000, 0.0000000000000000000, 0.0000000000000000000, 0.0000000000000000000, 0.0000000000000000000, 0.0000000000000000000, 0.0000000000000000000 ) ;
#95 = CARTESIAN_POINT ( 'NONE',  ( 0.0000000000000000000, 0.0000000000000000000, 1.485000000000000764 ) ) ;
#96 = DIRECTION ( 'NONE',  ( 0.7071067811865462405, 8.659560562354916834E-17, -0.7071067811865486830 ) ) ;
#97 = DIRECTION ( 'NONE',  ( -0.1736481776669311916, 2.126576849575783316E-17, 0.9848077530122080203 ) ) ;
#98 = VERTEX_POINT ( 'NONE', #253 ) ;
#99 = COLOUR_RGB ( '',0.7921568627450980005, 0.8196078431372548767, 0.9333333333333333481 ) ;
#100 = CYLINDRICAL_SURFACE ( 'NONE', #57, 0.06250000000000002776 ) ;
#101 = EDGE_LOOP ( 'NONE', ( #91, #72, #257, #52 ) ) ;
#102 = CARTESIAN_POINT ( 'NONE',  ( 0.04750000000000064587, 5.817072295950006528E-18, 1.500000000000000222 ) ) ;
#103 = CARTESIAN_POINT ( 'NONE',  ( 0.06243750000000005546, 0.0000000000000000000, 0.5000000000000000000 ) ) ;
#104 =( GEOMETRIC_REPRESENTATION_CONTEXT ( 3 ) GLOBAL_UNCERTAINTY_ASSIGNED_CONTEXT ( ( #167 ) ) GLOBAL_UNIT_ASSIGNED_CONTEXT ( ( #184, #160, #187 ) ) REPRESENTATION_CONTEXT ( 'NONE', 'WORKASPACE' ) );
#105 = ORIENTED_EDGE ( 'NONE', *, *, #200, .T. ) ;
#106 = ADVANCED_FACE ( 'NONE', ( #133 ), #215, .T. ) ;
#107 = DIRECTION ( 'NONE',  ( 1.000000000000000000, 0.0000000000000000000, 0.0000000000000000000 ) ) ;
#108 = CARTESIAN_POINT ( 'NONE',  ( 6.123233995736767268E-17, 0.0000000000000000000, 0.5000000000000000000 ) ) ;
#109 = SURFACE_STYLE_USAGE ( .BOTH. , #228 ) ;
#110 = VERTEX_POINT ( 'NONE', #239 ) ;
#111 = ADVANCED_FACE ( 'NONE', ( #16 ), #246, .T. ) ;
#112 = CIRCLE ( 'NONE', #125, 0.06250000000000002776 ) ;
#113 = DIRECTION ( 'NONE',  ( 1.000000000000000000, 0.0000000000000000000, 0.0000000000000000000 ) ) ;
#114 = DIRECTION ( 'NONE',  ( -1.000000000000000000, 0.0000000000000000000, 0.0000000000000000000 ) ) ;
#115 = EDGE_CURVE ( 'NONE', #293, #1, #216, .T. ) ;
#116 = CIRCLE ( 'NONE', #137, 0.04750000000000064587 ) ;
#117 = EDGE_LOOP ( 'NONE', ( #17, #68, #155, #207 ) ) ;
#118 = CARTESIAN_POINT ( 'NONE',  ( 0.06250000000000002776, 7.654042494670959086E-18, 1.500000000000000222 ) ) ;
#119 = AXIS2_PLACEMENT_3D ( 'NONE', #242, #59, #39 ) ;
#120 = CYLINDRICAL_SURFACE ( 'NONE', #78, 0.06243749999999999301 ) ;
#121 = DIRECTION ( 'NONE',  ( 0.0000000000000000000, 0.0000000000000000000, -1.000000000000000000 ) ) ;
#122 = DIRECTION ( 'NONE',  ( 0.0000000000000000000, 0.0000000000000000000, -1.000000000000000000 ) ) ;
#123 = ORIENTED_EDGE ( 'NONE', *, *, #217, .T. ) ;
#124 = AXIS2_PLACEMENT_3D ( 'NONE', #80, #281, #212 ) ;
#125 = AXIS2_PLACEMENT_3D ( 'NONE', #95, #174, #35 ) ;
#126 = DIRECTION ( 'NONE',  ( -1.224646799147353454E-16, -0.0000000000000000000, -1.000000000000000000 ) ) ;
#127 = EDGE_CURVE ( 'NONE', #235, #1, #163, .T. ) ;
#128 = FILL_AREA_STYLE_COLOUR ( '', #99 ) ;
#129 =( GEOMETRIC_REPRESENTATION_CONTEXT ( 3 ) GLOBAL_UNCERTAINTY_ASSIGNED_CONTEXT ( ( #53 ) ) GLOBAL_UNIT_ASSIGNED_CONTEXT ( ( #247, #225, #42 ) ) REPRESENTATION_CONTEXT ( 'NONE', 'WORKASPACE' ) );
#130 = LENGTH_MEASURE_WITH_UNIT ( LENGTH_MEASURE( 0.02539999999999999897 ), #153 );
#131 = CARTESIAN_POINT ( 'NONE',  ( 0.0000000000000000000, 0.0000000000000000000, 1.500000000000000222 ) ) ;
#132 = FILL_AREA_STYLE ('',( #20 ) ) ;
#133 = FACE_OUTER_BOUND ( 'NONE', #61, .T. ) ;
#134 = CLOSED_SHELL ( 'NONE', ( #237, #154, #41, #194, #34, #87, #111, #106, #204, #267 ) ) ;
#135 = LENGTH_MEASURE_WITH_UNIT ( LENGTH_MEASURE( 0.02539999999999999897 ), #50 );
#136 = AXIS2_PLACEMENT_3D ( 'NONE', #255, #189, #278 ) ;
#137 = AXIS2_PLACEMENT_3D ( 'NONE', #193, #290, #263 ) ;
#138 = ORIENTED_EDGE ( 'NONE', *, *, #217, .F. ) ;
#139 = EDGE_CURVE ( 'NONE', #110, #8, #112, .T. ) ;
#140 =( CONVERSION_BASED_UNIT ( 'INCH', #135 ) LENGTH_UNIT ( ) NAMED_UNIT ( #143 ) );
#141 = AXIS2_PLACEMENT_3D ( 'NONE', #233, #27, #113 ) ;
#142 = CARTESIAN_POINT ( 'NONE',  ( 6.127574818941430966E-17, 0.0000000000000000000, 0.5003544551137263374 ) ) ;
#143 = DIMENSIONAL_EXPONENTS ( 1.000000000000000000, 0.0000000000000000000, 0.0000000000000000000, 0.0000000000000000000, 0.0000000000000000000, 0.0000000000000000000, 0.0000000000000000000 ) ;
#144 = EDGE_CURVE ( 'NONE', #21, #8, #31, .T. ) ;
#145 = DIRECTION ( 'NONE',  ( 1.224646799147353454E-16, 0.0000000000000000000, 1.000000000000000000 ) ) ;
#146 = CARTESIAN_POINT ( 'NONE',  ( 6.123233995736767268E-17, 0.0000000000000000000, 0.5000000000000000000 ) ) ;
#147 = DIRECTION ( 'NONE',  ( -1.000000000000000000, 0.0000000000000000000, 1.224646799147353454E-16 ) ) ;
#148 = CARTESIAN_POINT ( 'NONE',  ( 0.0000000000000000000, 0.0000000000000000000, 1.500000000000000222 ) ) ;
#149 = ORIENTED_EDGE ( 'NONE', *, *, #171, .T. ) ;
#150 = DIRECTION ( 'NONE',  ( -0.7071067811865462405, 0.0000000000000000000, -0.7071067811865486830 ) ) ;
#151 = ORIENTED_EDGE ( 'NONE', *, *, #234, .F. ) ;
#152 = AXIS2_PLACEMENT_3D ( 'NONE', #142, #252, #67 ) ;
#153 =( LENGTH_UNIT ( ) NAMED_UNIT ( * ) SI_UNIT ( $, .METRE. ) );
#154 = ADVANCED_FACE ( 'NONE', ( #18 ), #158, .T. ) ;
#155 = ORIENTED_EDGE ( 'NONE', *, *, #241, .F. ) ;
#156 = ORIENTED_EDGE ( 'NONE', *, *, #115, .F. ) ;
#157 = PLANE ( 'NONE',  #71 ) ;
#158 = CONICAL_SURFACE ( 'NONE', #190, 0.06243749999999999301, 0.1745329251994338915 ) ;
#159 = ORIENTED_EDGE ( 'NONE', *, *, #226, .T. ) ;
#160 =( NAMED_UNIT ( * ) PLANE_ANGLE_UNIT ( ) SI_UNIT ( $, .RADIAN. ) );
#161 = FACE_OUTER_BOUND ( 'NONE', #85, .T. ) ;
#162 = FACE_OUTER_BOUND ( 'NONE', #175, .T. ) ;
#163 = CIRCLE ( 'NONE', #93, 0.06243749999999999994 ) ;
#164 = ORIENTED_EDGE ( 'NONE', *, *, #115, .T. ) ;
#165 = APPLICATION_PROTOCOL_DEFINITION ( 'draft international standard', 'automotive_design', 1998, #22 ) ;
#166 = EDGE_CURVE ( 'NONE', #8, #66, #286, .T. ) ;
#167 = UNCERTAINTY_MEASURE_WITH_UNIT (LENGTH_MEASURE( 1.000000000000000082E-05 ), #184, 'distance_accuracy_value', 'NONE');
#168 = EDGE_CURVE ( 'NONE', #82, #30, #243, .T. ) ;
#169 = EDGE_LOOP ( 'NONE', ( #156, #159, #123, #220 ) ) ;
#170 = DIRECTION ( 'NONE',  ( 1.000000000000000000, 0.0000000000000000000, 0.0000000000000000000 ) ) ;
#171 = EDGE_CURVE ( 'NONE', #1, #235, #10, .T. ) ;
#172 = DIRECTION ( 'NONE',  ( -1.000000000000000000, 0.0000000000000000000, 0.0000000000000000000 ) ) ;
#173 = CIRCLE ( 'NONE', #250, 0.06250000000000002776 ) ;
#174 = DIRECTION ( 'NONE',  ( 0.0000000000000000000, 0.0000000000000000000, -1.000000000000000000 ) ) ;
#175 = EDGE_LOOP ( 'NONE', ( #63, #105, #238, #276 ) ) ;
#176 = LINE ( 'NONE', #11, #185 ) ;
#177 = FACE_OUTER_BOUND ( 'NONE', #169, .T. ) ;
#178 = AXIS2_PLACEMENT_3D ( 'NONE', #146, #240, #172 ) ;
#179 = CARTESIAN_POINT ( 'NONE',  ( -0.06250000000000002776, 0.0000000000000000000, 1.500000000000000222 ) ) ;
#180 = ORIENTED_EDGE ( 'NONE', *, *, #139, .F. ) ;
#181 = LINE ( 'NONE', #179, #28 ) ;
#182 = ORIENTED_EDGE ( 'NONE', *, *, #62, .T. ) ;
#183 = CYLINDRICAL_SURFACE ( 'NONE', #84, 0.06250000000000002776 ) ;
#184 =( CONVERSION_BASED_UNIT ( 'INCH', #26 ) LENGTH_UNIT ( ) NAMED_UNIT ( #94 ) );
#185 = VECTOR ( 'NONE', #196, 39.37007874015748143 ) ;
#186 = ORIENTED_EDGE ( 'NONE', *, *, #13, .T. ) ;
#187 =( NAMED_UNIT ( * ) SI_UNIT ( $, .STERADIAN. ) SOLID_ANGLE_UNIT ( ) );
#188 = ORIENTED_EDGE ( 'NONE', *, *, #168, .F. ) ;
#189 = DIRECTION ( 'NONE',  ( 0.0000000000000000000, 0.0000000000000000000, 1.000000000000000000 ) ) ;
#190 = AXIS2_PLACEMENT_3D ( 'NONE', #269, #145, #218 ) ;
#191 = DIRECTION ( 'NONE',  ( 0.0000000000000000000, 0.0000000000000000000, -1.000000000000000000 ) ) ;
#192 = UNCERTAINTY_MEASURE_WITH_UNIT (LENGTH_MEASURE( 1.000000000000000082E-05 ), #140, 'distance_accuracy_value', 'NONE');
#193 = CARTESIAN_POINT ( 'NONE',  ( 0.0000000000000000000, 0.0000000000000000000, 1.500000000000000222 ) ) ;
#194 = ADVANCED_FACE ( 'NONE', ( #55 ), #100, .T. ) ;
#195 = DIRECTION ( 'NONE',  ( -1.000000000000000000, 0.0000000000000000000, 1.224646799147353700E-16 ) ) ;
#196 = DIRECTION ( 'NONE',  ( -1.224646799147353454E-16, -0.0000000000000000000, -1.000000000000000000 ) ) ;
#197 = CARTESIAN_POINT ( 'NONE',  ( 0.0000000000000000000, 0.0000000000000000000, 0.0000000000000000000 ) ) ;
#198 = ORIENTED_EDGE ( 'NONE', *, *, #254, .T. ) ;
#199 = DIRECTION ( 'NONE',  ( -1.000000000000000000, 0.0000000000000000000, 1.224646799147353700E-16 ) ) ;
#200 = EDGE_CURVE ( 'NONE', #8, #110, #173, .T. ) ;
#201 = ORIENTED_EDGE ( 'NONE', *, *, #234, .T. ) ;
#202 = VECTOR ( 'NONE', #75, 39.37007874015748143 ) ;
#203 = APPLICATION_PROTOCOL_DEFINITION ( 'draft international standard', 'automotive_design', 1998, #6 ) ;
#204 = ADVANCED_FACE ( 'NONE', ( #177 ), #120, .T. ) ;
#205 = CARTESIAN_POINT ( 'NONE',  ( -0.06249999999999996531, 0.0000000000000000000, 0.5003544551137263374 ) ) ;
#206 = LINE ( 'NONE', #3, #259 ) ;
#207 = ORIENTED_EDGE ( 'NONE', *, *, #279, .F. ) ;
#208 = ORIENTED_EDGE ( 'NONE', *, *, #144, .T. ) ;
#209 = CARTESIAN_POINT ( 'NONE',  ( 0.04750000000000064587, 6.735557395310483192E-18, 1.500000000000000222 ) ) ;
#210 = PRODUCT_DEFINITION_FORMATION_WITH_SPECIFIED_SOURCE ( 'ANY', '', #56, .NOT_KNOWN. ) ;
#211 =( NAMED_UNIT ( * ) SI_UNIT ( $, .STERADIAN. ) SOLID_ANGLE_UNIT ( ) );
#212 = DIRECTION ( 'NONE',  ( 1.000000000000000000, 0.0000000000000000000, 0.0000000000000000000 ) ) ;
#213 = CARTESIAN_POINT ( 'NONE',  ( -0.06243749999999993749, 7.650215473423623230E-18, 0.5000000000000000000 ) ) ;
#214 = CARTESIAN_POINT ( 'NONE',  ( -0.06243749999999993749, 7.646388452176285834E-18, 0.5000000000000000000 ) ) ;
#215 = CONICAL_SURFACE ( 'NONE', #141, 0.06243749999999999301, 0.1745329251994338915 ) ;
#216 = LINE ( 'NONE', #12, #2 ) ;
#217 = EDGE_CURVE ( 'NONE', #82, #235, #176, .T. ) ;
#218 = DIRECTION ( 'NONE',  ( 1.000000000000000000, 0.0000000000000000000, 0.0000000000000000000 ) ) ;
#219 = DIRECTION ( 'NONE',  ( -1.000000000000000000, 0.0000000000000000000, 0.0000000000000000000 ) ) ;
#220 = ORIENTED_EDGE ( 'NONE', *, *, #171, .F. ) ;
#221 = VECTOR ( 'NONE', #96, 39.37007874015748854 ) ;
#222 = EDGE_CURVE ( 'NONE', #21, #98, #116, .T. ) ;
#223 = DIRECTION ( 'NONE',  ( -1.000000000000000000, 0.0000000000000000000, 0.0000000000000000000 ) ) ;
#224 = ADVANCED_BREP_SHAPE_REPRESENTATION ( 'Micro_RDB-30', ( #298, #124 ), #129 ) ;
#225 =( NAMED_UNIT ( * ) PLANE_ANGLE_UNIT ( ) SI_UNIT ( $, .RADIAN. ) );
#226 = EDGE_CURVE ( 'NONE', #293, #82, #256, .T. ) ;
#227 = CIRCLE ( 'NONE', #295, 0.06250000000000002776 ) ;
#228 = SURFACE_SIDE_STYLE ('',( #24 ) ) ;
#229 = DIRECTION ( 'NONE',  ( -1.000000000000000000, 0.0000000000000000000, 0.0000000000000000000 ) ) ;
#230 = DIRECTION ( 'NONE',  ( 1.000000000000000000, 0.0000000000000000000, -0.0000000000000000000 ) ) ;
#231 = DIRECTION ( 'NONE',  ( 0.0000000000000000000, 0.0000000000000000000, 1.000000000000000000 ) ) ;
#232 = SURFACE_SIDE_STYLE ('',( #81 ) ) ;
#233 = CARTESIAN_POINT ( 'NONE',  ( 6.123233995736767268E-17, 0.0000000000000000000, 0.5000000000000000000 ) ) ;
#234 = EDGE_CURVE ( 'NONE', #98, #110, #33, .T. ) ;
#235 = VERTEX_POINT ( 'NONE', #264 ) ;
#236 = PRODUCT_CONTEXT ( 'NONE', #6, 'mechanical' ) ;
#237 = ADVANCED_FACE ( 'NONE', ( #244 ), #58, .T. ) ;
#238 = ORIENTED_EDGE ( 'NONE', *, *, #279, .T. ) ;
#239 = CARTESIAN_POINT ( 'NONE',  ( -0.06250000000000002776, 0.0000000000000000000, 1.485000000000000764 ) ) ;
#240 = DIRECTION ( 'NONE',  ( -1.224646799147353454E-16, -0.0000000000000000000, -1.000000000000000000 ) ) ;
#241 = EDGE_CURVE ( 'NONE', #30, #66, #227, .T. ) ;
#242 = CARTESIAN_POINT ( 'NONE',  ( 0.0000000000000000000, 0.0000000000000000000, 0.0000000000000000000 ) ) ;
#243 = LINE ( 'NONE', #214, #89 ) ;
#244 = FACE_OUTER_BOUND ( 'NONE', #29, .T. ) ;
#245 = CONICAL_SURFACE ( 'NONE', #282, 0.04750000000000064587, 0.7853981633974466137 ) ;
#246 = CONICAL_SURFACE ( 'NONE', #69, 0.04750000000000064587, 0.7853981633974466137 ) ;
#247 =( CONVERSION_BASED_UNIT ( 'INCH', #130 ) LENGTH_UNIT ( ) NAMED_UNIT ( #90 ) );
#248 = ORIENTED_EDGE ( 'NONE', *, *, #226, .F. ) ;
#249 = FILL_AREA_STYLE ('',( #128 ) ) ;
#250 = AXIS2_PLACEMENT_3D ( 'NONE', #268, #121, #170 ) ;
#251 = SURFACE_STYLE_USAGE ( .BOTH. , #232 ) ;
#252 = DIRECTION ( 'NONE',  ( -1.224646799147353454E-16, -0.0000000000000000000, -1.000000000000000000 ) ) ;
#253 = CARTESIAN_POINT ( 'NONE',  ( -0.04750000000000064587, 0.0000000000000000000, 1.500000000000000222 ) ) ;
#254 = EDGE_CURVE ( 'NONE', #293, #66, #206, .T. ) ;
#255 = CARTESIAN_POINT ( 'NONE',  ( 0.0000000000000000000, 0.0000000000000000000, 1.500000000000000222 ) ) ;
#256 = CIRCLE ( 'NONE', #178, 0.06243749999999999301 ) ;
#257 = ORIENTED_EDGE ( 'NONE', *, *, #241, .T. ) ;
#258 = SHAPE_DEFINITION_REPRESENTATION ( #36, #224 ) ;
#259 = VECTOR ( 'NONE', #19, 39.37007874015748143 ) ;
#260 =( GEOMETRIC_REPRESENTATION_CONTEXT ( 3 ) GLOBAL_UNCERTAINTY_ASSIGNED_CONTEXT ( ( #192 ) ) GLOBAL_UNIT_ASSIGNED_CONTEXT ( ( #140, #280, #211 ) ) REPRESENTATION_CONTEXT ( 'NONE', 'WORKASPACE' ) );
#261 = PLANE ( 'NONE',  #9 ) ;
#262 = PRODUCT_DEFINITION_CONTEXT ( 'detailed design', #22, 'design' ) ;
#263 = DIRECTION ( 'NONE',  ( 1.000000000000000000, 0.0000000000000000000, 0.0000000000000000000 ) ) ;
#264 = CARTESIAN_POINT ( 'NONE',  ( -0.06243749999999999994, 0.0000000000000000000, 1.529277690435257783E-17 ) ) ;
#265 = STYLED_ITEM ( 'NONE', ( #83 ), #298 ) ;
#266 = DIRECTION ( 'NONE',  ( -1.224646799147353454E-16, -0.0000000000000000000, -1.000000000000000000 ) ) ;
#267 = ADVANCED_FACE ( 'NONE', ( #46 ), #157, .F. ) ;
#268 = CARTESIAN_POINT ( 'NONE',  ( 0.0000000000000000000, 0.0000000000000000000, 1.485000000000000764 ) ) ;
#269 = CARTESIAN_POINT ( 'NONE',  ( 6.123233995736767268E-17, 0.0000000000000000000, 0.5000000000000000000 ) ) ;
#270 = AXIS2_PLACEMENT_3D ( 'NONE', #287, #266, #195 ) ;
#271 = ORIENTED_EDGE ( 'NONE', *, *, #200, .F. ) ;
#272 = PRESENTATION_STYLE_ASSIGNMENT (( #109 ) ) ;
#273 = CARTESIAN_POINT ( 'NONE',  ( 0.0000000000000000000, 0.0000000000000000000, 1.500000000000000222 ) ) ;
#274 = PRESENTATION_LAYER_ASSIGNMENT (  '', '', ( #265 ) ) ;
#275 = DIRECTION ( 'NONE',  ( 0.0000000000000000000, 0.0000000000000000000, 1.000000000000000000 ) ) ;
#276 = ORIENTED_EDGE ( 'NONE', *, *, #62, .F. ) ;
#277 = CARTESIAN_POINT ( 'NONE',  ( 0.06250000000000002776, 7.654042494670959086E-18, 1.485000000000000764 ) ) ;
#278 = DIRECTION ( 'NONE',  ( 1.000000000000000000, 0.0000000000000000000, 0.0000000000000000000 ) ) ;
#279 = EDGE_CURVE ( 'NONE', #110, #30, #181, .T. ) ;
#280 =( NAMED_UNIT ( * ) PLANE_ANGLE_UNIT ( ) SI_UNIT ( $, .RADIAN. ) );
#281 = DIRECTION ( 'NONE',  ( 0.0000000000000000000, 0.0000000000000000000, 1.000000000000000000 ) ) ;
#282 = AXIS2_PLACEMENT_3D ( 'NONE', #273, #191, #229 ) ;
#283 = VECTOR ( 'NONE', #150, 39.37007874015748854 ) ;
#284 = FACE_OUTER_BOUND ( 'NONE', #296, .T. ) ;
#285 = PRODUCT_RELATED_PRODUCT_CATEGORY ( 'part', '', ( #56 ) ) ;
#286 = LINE ( 'NONE', #118, #202 ) ;
#287 = CARTESIAN_POINT ( 'NONE',  ( 9.364125142994977476E-34, 0.0000000000000000000, 7.646388452176288915E-18 ) ) ;
#288 = AXIS2_PLACEMENT_3D ( 'NONE', #108, #88, #114 ) ;
#289 = PRODUCT_DEFINITION ( 'UNKNOWN', '', #210, #262 ) ;
#290 = DIRECTION ( 'NONE',  ( 0.0000000000000000000, 0.0000000000000000000, 1.000000000000000000 ) ) ;
#291 = COLOUR_RGB ( '',0.7921568627450980005, 0.8196078431372548767, 0.9333333333333333481 ) ;
#292 = DIRECTION ( 'NONE',  ( -1.224646799147353454E-16, -0.0000000000000000000, -1.000000000000000000 ) ) ;
#293 = VERTEX_POINT ( 'NONE', #103 ) ;
#294 = CARTESIAN_POINT ( 'NONE',  ( 0.0000000000000000000, 0.0000000000000000000, 1.500000000000000222 ) ) ;
#295 = AXIS2_PLACEMENT_3D ( 'NONE', #37, #126, #107 ) ;
#296 = EDGE_LOOP ( 'NONE', ( #15, #76 ) ) ;
#297 = CARTESIAN_POINT ( 'NONE',  ( 0.0000000000000000000, 0.0000000000000000000, 1.500000000000000222 ) ) ;
#298 = MANIFOLD_SOLID_BREP ( 'Cut-Revolve1', #134 ) ;
#299 = CARTESIAN_POINT ( 'NONE',  ( 0.0000000000000000000, 0.0000000000000000000, 0.0000000000000000000 ) ) ;
ENDSEC;
END-ISO-10303-21;
