ISO-10303-21;
HEADER;
FILE_DESCRIPTION (( 'STEP AP214' ),
    '1' );
FILE_NAME ('00180.STEP',
    '2023-06-22T14:03:54',
    ( '' ),
    ( '' ),
    'SwSTEP 2.0',
    'SolidWorks 2023',
    '' );
FILE_SCHEMA (( 'AUTOMOTIVE_DESIGN' ));
ENDSEC;

DATA;
#1 = DIRECTION ( 'NONE',  ( -3.061616997868386099E-17, 1.000000000000000000, 0.000000000000000000 ) ) ;
#2 = MECHANICAL_DESIGN_GEOMETRIC_PRESENTATION_REPRESENTATION (  '', ( #208 ), #268 ) ;
#3 =( CONVERSION_BASED_UNIT ( 'INCH', #26 ) LENGTH_UNIT ( ) NAMED_UNIT ( #267 ) );
#4 = VECTOR ( 'NONE', #195, 39.37007874015748143 ) ;
#5 = UNCERTAINTY_MEASURE_WITH_UNIT (LENGTH_MEASURE( 1.000000000000000082E-05 ), #303, 'distance_accuracy_value', 'NONE');
#6 = CARTESIAN_POINT ( 'NONE',  ( 0.1250000000000000278, 1.000000000000000000, 1.530808498934192125E-17 ) ) ;
#7 = DIRECTION ( 'NONE',  ( -3.061616997868386099E-17, 1.000000000000000000, -0.000000000000000000 ) ) ;
#8 = ORIENTED_EDGE ( 'NONE', *, *, #81, .F. ) ;
#9 = MECHANICAL_DESIGN_GEOMETRIC_PRESENTATION_REPRESENTATION (  '', ( #39 ), #64 ) ;
#10 = EDGE_CURVE ( 'NONE', #65, #198, #187, .T. ) ;
#11 = VECTOR ( 'NONE', #49, 39.37007874015748143 ) ;
#12 =( NAMED_UNIT ( * ) SI_UNIT ( $, .STERADIAN. ) SOLID_ANGLE_UNIT ( ) );
#13 = LENGTH_MEASURE_WITH_UNIT ( LENGTH_MEASURE( 0.02539999999999999897 ), #84 );
#14 =( LENGTH_UNIT ( ) NAMED_UNIT ( * ) SI_UNIT ( $, .METRE. ) );
#15 = CYLINDRICAL_SURFACE ( 'NONE', #188, 0.1250000000000000278 ) ;
#16 =( CONVERSION_BASED_UNIT ( 'INCH', #281 ) LENGTH_UNIT ( ) NAMED_UNIT ( #150 ) );
#17 = AXIS2_PLACEMENT_3D ( 'NONE', #229, #235, #67 ) ;
#18 = COLOUR_RGB ( '',1.000000000000000000, 0.000000000000000000, 0.000000000000000000 ) ;
#19 = PLANE ( 'NONE',  #167 ) ;
#20 = AXIS2_PLACEMENT_3D ( 'NONE', #305, #288, #44 ) ;
#21 = DIRECTION ( 'NONE',  ( -0.000000000000000000, -1.000000000000000000, -0.000000000000000000 ) ) ;
#22 = PRESENTATION_STYLE_ASSIGNMENT (( #205 ) ) ;
#23 = ADVANCED_FACE ( 'NONE', ( #73 ), #139, .T. ) ;
#24 =( NAMED_UNIT ( * ) SI_UNIT ( $, .STERADIAN. ) SOLID_ANGLE_UNIT ( ) );
#25 = PRESENTATION_STYLE_ASSIGNMENT (( #157 ) ) ;
#26 = LENGTH_MEASURE_WITH_UNIT ( LENGTH_MEASURE( 0.02539999999999999897 ), #232 );
#27 = AXIS2_PLACEMENT_3D ( 'NONE', #57, #272, #225 ) ;
#28 = CARTESIAN_POINT ( 'NONE',  ( 0.000000000000000000, 1.000000000000000000, -0.1250000000000000000 ) ) ;
#29 = AXIS2_PLACEMENT_3D ( 'NONE', #165, #258, #30 ) ;
#30 = DIRECTION ( 'NONE',  ( 0.000000000000000000, 0.000000000000000000, -1.000000000000000000 ) ) ;
#31 = PLANE ( 'NONE',  #192 ) ;
#32 = AXIS2_PLACEMENT_3D ( 'NONE', #262, #7, #46 ) ;
#33 = PRODUCT_DEFINITION_FORMATION_WITH_SPECIFIED_SOURCE ( 'ANY', '', #156, .NOT_KNOWN. ) ;
#34 = ORIENTED_EDGE ( 'NONE', *, *, #206, .F. ) ;
#35 = ORIENTED_EDGE ( 'NONE', *, *, #122, .T. ) ;
#36 =( GEOMETRIC_REPRESENTATION_CONTEXT ( 3 ) GLOBAL_UNCERTAINTY_ASSIGNED_CONTEXT ( ( #137 ) ) GLOBAL_UNIT_ASSIGNED_CONTEXT ( ( #264, #43, #12 ) ) REPRESENTATION_CONTEXT ( 'NONE', 'WORKASPACE' ) );
#37 = APPLICATION_PROTOCOL_DEFINITION ( 'draft international standard', 'automotive_design', 1998, #299 ) ;
#38 = ORIENTED_EDGE ( 'NONE', *, *, #68, .F. ) ;
#39 = STYLED_ITEM ( 'NONE', ( #51 ), #224 ) ;
#40 = SHAPE_DEFINITION_REPRESENTATION ( #186, #270 ) ;
#41 = ORIENTED_EDGE ( 'NONE', *, *, #86, .T. ) ;
#42 = LINE ( 'NONE', #201, #4 ) ;
#43 =( NAMED_UNIT ( * ) PLANE_ANGLE_UNIT ( ) SI_UNIT ( $, .RADIAN. ) );
#44 = DIRECTION ( 'NONE',  ( -1.000000000000000000, 0.000000000000000000, 0.000000000000000000 ) ) ;
#45 = FILL_AREA_STYLE ('',( #114 ) ) ;
#46 = DIRECTION ( 'NONE',  ( -1.000000000000000000, 0.000000000000000000, 0.000000000000000000 ) ) ;
#47 = COLOUR_RGB ( '',1.000000000000000000, 0.000000000000000000, 0.000000000000000000 ) ;
#48 = EDGE_CURVE ( 'NONE', #103, #198, #185, .T. ) ;
#49 = DIRECTION ( 'NONE',  ( -0.000000000000000000, -1.000000000000000000, -0.000000000000000000 ) ) ;
#50 = DIRECTION ( 'NONE',  ( -3.061616997868386099E-17, 1.000000000000000000, -0.000000000000000000 ) ) ;
#51 = PRESENTATION_STYLE_ASSIGNMENT (( #182 ) ) ;
#52 = AXIS2_PLACEMENT_3D ( 'NONE', #215, #194, #166 ) ;
#53 =( GEOMETRIC_REPRESENTATION_CONTEXT ( 3 ) GLOBAL_UNCERTAINTY_ASSIGNED_CONTEXT ( ( #294 ) ) GLOBAL_UNIT_ASSIGNED_CONTEXT ( ( #87, #109, #276 ) ) REPRESENTATION_CONTEXT ( 'NONE', 'WORKASPACE' ) );
#54 = ORIENTED_EDGE ( 'NONE', *, *, #86, .F. ) ;
#55 = DIRECTION ( 'NONE',  ( -3.061616997868386099E-17, 1.000000000000000000, -0.000000000000000000 ) ) ;
#56 = ORIENTED_EDGE ( 'NONE', *, *, #206, .T. ) ;
#57 = CARTESIAN_POINT ( 'NONE',  ( -6.123233995736772199E-17, 3.000000000000000444, 0.000000000000000000 ) ) ;
#58 = MECHANICAL_DESIGN_GEOMETRIC_PRESENTATION_REPRESENTATION (  '', ( #153 ), #36 ) ;
#59 = DIRECTION ( 'NONE',  ( -1.000000000000000000, 0.000000000000000000, 0.000000000000000000 ) ) ;
#60 = DIMENSIONAL_EXPONENTS ( 1.000000000000000000, 0.000000000000000000, 0.000000000000000000, 0.000000000000000000, 0.000000000000000000, 0.000000000000000000, 0.000000000000000000 ) ;
#61 = PRESENTATION_STYLE_ASSIGNMENT (( #155 ) ) ;
#62 = CARTESIAN_POINT ( 'NONE',  ( 0.000000000000000000, 0.000000000000000000, 0.000000000000000000 ) ) ;
#63 = PRODUCT_DEFINITION ( 'UNKNOWN', '', #33, #190 ) ;
#64 =( GEOMETRIC_REPRESENTATION_CONTEXT ( 3 ) GLOBAL_UNCERTAINTY_ASSIGNED_CONTEXT ( ( #80 ) ) GLOBAL_UNIT_ASSIGNED_CONTEXT ( ( #239, #98, #24 ) ) REPRESENTATION_CONTEXT ( 'NONE', 'WORKASPACE' ) );
#65 = VERTEX_POINT ( 'NONE', #280 ) ;
#66 = SURFACE_SIDE_STYLE ('',( #129 ) ) ;
#67 = DIRECTION ( 'NONE',  ( 0.000000000000000000, 0.000000000000000000, -1.000000000000000000 ) ) ;
#68 = EDGE_CURVE ( 'NONE', #103, #242, #105, .T. ) ;
#69 = CIRCLE ( 'NONE', #193, 0.1250000000000000000 ) ;
#70 = AXIS2_PLACEMENT_3D ( 'NONE', #151, #246, #59 ) ;
#71 = SURFACE_STYLE_FILL_AREA ( #116 ) ;
#72 = CYLINDRICAL_SURFACE ( 'NONE', #124, 0.1250000000000000000 ) ;
#73 = FACE_OUTER_BOUND ( 'NONE', #199, .T. ) ;
#74 = CARTESIAN_POINT ( 'NONE',  ( 0.1250000000000000000, 3.000000000000000444, 0.000000000000000000 ) ) ;
#75 = CARTESIAN_POINT ( 'NONE',  ( -0.1250000000000001110, 3.000000000000000444, 0.000000000000000000 ) ) ;
#76 = FILL_AREA_STYLE ('',( #123 ) ) ;
#77 = MECHANICAL_DESIGN_GEOMETRIC_PRESENTATION_REPRESENTATION (  '', ( #203 ), #285 ) ;
#78 = CYLINDRICAL_SURFACE ( 'NONE', #52, 0.1250000000000000000 ) ;
#79 = SURFACE_SIDE_STYLE ('',( #212 ) ) ;
#80 = UNCERTAINTY_MEASURE_WITH_UNIT (LENGTH_MEASURE( 1.000000000000000082E-05 ), #239, 'distance_accuracy_value', 'NONE');
#81 = EDGE_CURVE ( 'NONE', #218, #223, #263, .T. ) ;
#82 = EDGE_LOOP ( 'NONE', ( #170, #278 ) ) ;
#83 = DIMENSIONAL_EXPONENTS ( 1.000000000000000000, 0.000000000000000000, 0.000000000000000000, 0.000000000000000000, 0.000000000000000000, 0.000000000000000000, 0.000000000000000000 ) ;
#84 =( LENGTH_UNIT ( ) NAMED_UNIT ( * ) SI_UNIT ( $, .METRE. ) );
#85 = ORIENTED_EDGE ( 'NONE', *, *, #10, .T. ) ;
#86 = EDGE_CURVE ( 'NONE', #175, #223, #257, .T. ) ;
#87 =( CONVERSION_BASED_UNIT ( 'INCH', #13 ) LENGTH_UNIT ( ) NAMED_UNIT ( #83 ) );
#88 = SURFACE_SIDE_STYLE ('',( #228 ) ) ;
#89 = PRESENTATION_LAYER_ASSIGNMENT (  '', '', ( #208 ) ) ;
#90 = FILL_AREA_STYLE_COLOUR ( '', #18 ) ;
#91 = DIRECTION ( 'NONE',  ( -0.000000000000000000, -1.000000000000000000, -0.000000000000000000 ) ) ;
#92 = LENGTH_MEASURE_WITH_UNIT ( LENGTH_MEASURE( 0.02539999999999999897 ), #287 );
#93 = DIRECTION ( 'NONE',  ( 3.061616997868386099E-17, -1.000000000000000000, 0.000000000000000000 ) ) ;
#94 = SURFACE_SIDE_STYLE ('',( #71 ) ) ;
#95 = FILL_AREA_STYLE ('',( #142 ) ) ;
#96 = DIRECTION ( 'NONE',  ( 0.000000000000000000, 0.000000000000000000, -1.000000000000000000 ) ) ;
#97 = FACE_OUTER_BOUND ( 'NONE', #146, .T. ) ;
#98 =( NAMED_UNIT ( * ) PLANE_ANGLE_UNIT ( ) SI_UNIT ( $, .RADIAN. ) );
#99 = EDGE_CURVE ( 'NONE', #242, #65, #140, .T. ) ;
#100 = DIMENSIONAL_EXPONENTS ( 1.000000000000000000, 0.000000000000000000, 0.000000000000000000, 0.000000000000000000, 0.000000000000000000, 0.000000000000000000, 0.000000000000000000 ) ;
#101 = ORIENTED_EDGE ( 'NONE', *, *, #295, .T. ) ;
#102 = MECHANICAL_DESIGN_GEOMETRIC_PRESENTATION_REPRESENTATION (  '', ( #221 ), #163 ) ;
#103 = VERTEX_POINT ( 'NONE', #28 ) ;
#104 = SURFACE_STYLE_USAGE ( .BOTH. , #66 ) ;
#105 = CIRCLE ( 'NONE', #260, 0.1250000000000000000 ) ;
#106 = EDGE_LOOP ( 'NONE', ( #38, #291 ) ) ;
#107 = DIRECTION ( 'NONE',  ( 0.000000000000000000, 0.000000000000000000, 1.000000000000000000 ) ) ;
#108 = EDGE_LOOP ( 'NONE', ( #273, #297, #41, #8 ) ) ;
#109 =( NAMED_UNIT ( * ) PLANE_ANGLE_UNIT ( ) SI_UNIT ( $, .RADIAN. ) );
#110 = DIRECTION ( 'NONE',  ( -3.061616997868386099E-17, 1.000000000000000000, -0.000000000000000000 ) ) ;
#111 = COLOUR_RGB ( '',1.000000000000000000, 0.000000000000000000, 0.000000000000000000 ) ;
#112 = CARTESIAN_POINT ( 'NONE',  ( 0.000000000000000000, 1.000000000000000000, 0.000000000000000000 ) ) ;
#113 =( NAMED_UNIT ( * ) SI_UNIT ( $, .STERADIAN. ) SOLID_ANGLE_UNIT ( ) );
#114 = FILL_AREA_STYLE_COLOUR ( '', #130 ) ;
#115 = APPLICATION_CONTEXT ( 'automotive_design' ) ;
#116 = FILL_AREA_STYLE ('',( #255 ) ) ;
#117 = SURFACE_STYLE_USAGE ( .BOTH. , #79 ) ;
#118 = ADVANCED_FACE ( 'NONE', ( #158 ), #15, .T. ) ;
#119 = CARTESIAN_POINT ( 'NONE',  ( -6.123233995736772199E-17, 3.000000000000000444, 0.000000000000000000 ) ) ;
#120 = CARTESIAN_POINT ( 'NONE',  ( 0.1250000000000000278, 3.000000000000000444, 1.530808498934192125E-17 ) ) ;
#121 = PLANE ( 'NONE',  #230 ) ;
#122 = EDGE_CURVE ( 'NONE', #242, #103, #69, .T. ) ;
#123 = FILL_AREA_STYLE_COLOUR ( '', #111 ) ;
#124 = AXIS2_PLACEMENT_3D ( 'NONE', #289, #161, #211 ) ;
#125 = EDGE_LOOP ( 'NONE', ( #126, #265, #34, #226 ) ) ;
#126 = ORIENTED_EDGE ( 'NONE', *, *, #68, .T. ) ;
#127 = ADVANCED_FACE ( 'NONE', ( #202 ), #19, .T. ) ;
#128 = EDGE_LOOP ( 'NONE', ( #101, #248 ) ) ;
#129 = SURFACE_STYLE_FILL_AREA ( #45 ) ;
#130 = COLOUR_RGB ( '',0.7921568627450980005, 0.8196078431372548767, 0.9333333333333333481 ) ;
#131 = ORIENTED_EDGE ( 'NONE', *, *, #99, .F. ) ;
#132 = PRODUCT_CONTEXT ( 'NONE', #299, 'mechanical' ) ;
#133 = CARTESIAN_POINT ( 'NONE',  ( 1.530808498934191509E-17, 0.000000000000000000, 0.1250000000000000000 ) ) ;
#134 = FACE_OUTER_BOUND ( 'NONE', #128, .T. ) ;
#135 = SURFACE_SIDE_STYLE ('',( #253 ) ) ;
#136 = AXIS2_PLACEMENT_3D ( 'NONE', #251, #307, #96 ) ;
#137 = UNCERTAINTY_MEASURE_WITH_UNIT (LENGTH_MEASURE( 1.000000000000000082E-05 ), #264, 'distance_accuracy_value', 'NONE');
#138 = CARTESIAN_POINT ( 'NONE',  ( 0.000000000000000000, 1.000000000000000000, 0.000000000000000000 ) ) ;
#139 = PLANE ( 'NONE',  #136 ) ;
#140 = LINE ( 'NONE', #133, #11 ) ;
#141 = STYLED_ITEM ( 'NONE', ( #252 ), #245 ) ;
#142 = FILL_AREA_STYLE_COLOUR ( '', #47 ) ;
#143 = CIRCLE ( 'NONE', #159, 0.1250000000000000000 ) ;
#144 = PRESENTATION_LAYER_ASSIGNMENT (  '', '', ( #39 ) ) ;
#145 = DIRECTION ( 'NONE',  ( -1.000000000000000000, 0.000000000000000000, 0.000000000000000000 ) ) ;
#146 = EDGE_LOOP ( 'NONE', ( #131, #35, #300, #292 ) ) ;
#147 = FACE_OUTER_BOUND ( 'NONE', #82, .T. ) ;
#148 = CLOSED_SHELL ( 'NONE', ( #271, #247, #118, #172 ) ) ;
#149 = CLOSED_SHELL ( 'NONE', ( #180, #127, #224, #23 ) ) ;
#150 = DIMENSIONAL_EXPONENTS ( 1.000000000000000000, 0.000000000000000000, 0.000000000000000000, 0.000000000000000000, 0.000000000000000000, 0.000000000000000000, 0.000000000000000000 ) ;
#151 = CARTESIAN_POINT ( 'NONE',  ( -6.123233995736772199E-17, 3.000000000000000444, 0.000000000000000000 ) ) ;
#152 = ORIENTED_EDGE ( 'NONE', *, *, #295, .F. ) ;
#153 = STYLED_ITEM ( 'NONE', ( #22 ), #127 ) ;
#154 = EDGE_LOOP ( 'NONE', ( #298, #191, #152, #54 ) ) ;
#155 = SURFACE_STYLE_USAGE ( .BOTH. , #88 ) ;
#156 = PRODUCT ( '00180', '00180', '', ( #132 ) ) ;
#157 = SURFACE_STYLE_USAGE ( .BOTH. , #94 ) ;
#158 = FACE_OUTER_BOUND ( 'NONE', #108, .T. ) ;
#159 = AXIS2_PLACEMENT_3D ( 'NONE', #168, #55, #145 ) ;
#160 = LENGTH_MEASURE_WITH_UNIT ( LENGTH_MEASURE( 0.02539999999999999897 ), #164 );
#161 = DIRECTION ( 'NONE',  ( -0.000000000000000000, -1.000000000000000000, -0.000000000000000000 ) ) ;
#162 = SURFACE_STYLE_FILL_AREA ( #76 ) ;
#163 =( GEOMETRIC_REPRESENTATION_CONTEXT ( 3 ) GLOBAL_UNCERTAINTY_ASSIGNED_CONTEXT ( ( #283 ) ) GLOBAL_UNIT_ASSIGNED_CONTEXT ( ( #16, #254, #178 ) ) REPRESENTATION_CONTEXT ( 'NONE', 'WORKASPACE' ) );
#164 =( LENGTH_UNIT ( ) NAMED_UNIT ( * ) SI_UNIT ( $, .METRE. ) );
#165 = CARTESIAN_POINT ( 'NONE',  ( 0.000000000000000000, 0.000000000000000000, 0.000000000000000000 ) ) ;
#166 = DIRECTION ( 'NONE',  ( 0.000000000000000000, 0.000000000000000000, -1.000000000000000000 ) ) ;
#167 = AXIS2_PLACEMENT_3D ( 'NONE', #112, #204, #304 ) ;
#168 = CARTESIAN_POINT ( 'NONE',  ( 7.582401355855259480E-33, 1.000000000000000000, 0.000000000000000000 ) ) ;
#169 = LENGTH_MEASURE_WITH_UNIT ( LENGTH_MEASURE( 0.02539999999999999897 ), #14 );
#170 = ORIENTED_EDGE ( 'NONE', *, *, #261, .F. ) ;
#171 = CARTESIAN_POINT ( 'NONE',  ( 5.858436651022893041E-35, 1.000000000000000000, 0.000000000000000000 ) ) ;
#172 = ADVANCED_FACE ( 'NONE', ( #134 ), #121, .F. ) ;
#173 = PRESENTATION_LAYER_ASSIGNMENT (  '', '', ( #153 ) ) ;
#174 = FILL_AREA_STYLE ('',( #274 ) ) ;
#175 = VERTEX_POINT ( 'NONE', #207 ) ;
#176 = DIMENSIONAL_EXPONENTS ( 1.000000000000000000, 0.000000000000000000, 0.000000000000000000, 0.000000000000000000, 0.000000000000000000, 0.000000000000000000, 0.000000000000000000 ) ;
#177 = FILL_AREA_STYLE ('',( #90 ) ) ;
#178 =( NAMED_UNIT ( * ) SI_UNIT ( $, .STERADIAN. ) SOLID_ANGLE_UNIT ( ) );
#179 = UNCERTAINTY_MEASURE_WITH_UNIT (LENGTH_MEASURE( 1.000000000000000082E-05 ), #308, 'distance_accuracy_value', 'NONE');
#180 = ADVANCED_FACE ( 'NONE', ( #234 ), #72, .T. ) ;
#181 = CARTESIAN_POINT ( 'NONE',  ( 0.000000000000000000, 1.000000000000000000, 0.000000000000000000 ) ) ;
#182 = SURFACE_STYLE_USAGE ( .BOTH. , #259 ) ;
#183 = VECTOR ( 'NONE', #21, 39.37007874015748143 ) ;
#184 = PRESENTATION_STYLE_ASSIGNMENT (( #117 ) ) ;
#185 = LINE ( 'NONE', #231, #183 ) ;
#186 = PRODUCT_DEFINITION_SHAPE ( 'NONE', 'NONE',  #63 ) ;
#187 = CIRCLE ( 'NONE', #17, 0.1250000000000000000 ) ;
#188 = AXIS2_PLACEMENT_3D ( 'NONE', #119, #110, #209 ) ;
#189 = COLOUR_RGB ( '',1.000000000000000000, 0.000000000000000000, 0.000000000000000000 ) ;
#190 = PRODUCT_DEFINITION_CONTEXT ( 'detailed design', #115, 'design' ) ;
#191 = ORIENTED_EDGE ( 'NONE', *, *, #279, .T. ) ;
#192 = AXIS2_PLACEMENT_3D ( 'NONE', #171, #1, #290 ) ;
#193 = AXIS2_PLACEMENT_3D ( 'NONE', #138, #91, #227 ) ;
#194 = DIRECTION ( 'NONE',  ( -0.000000000000000000, -1.000000000000000000, -0.000000000000000000 ) ) ;
#195 = DIRECTION ( 'NONE',  ( -3.061616997868386099E-17, 1.000000000000000000, -0.000000000000000000 ) ) ;
#196 = COLOUR_RGB ( '',0.7921568627450980005, 0.8196078431372548767, 0.9333333333333333481 ) ;
#197 =( NAMED_UNIT ( * ) PLANE_ANGLE_UNIT ( ) SI_UNIT ( $, .RADIAN. ) );
#198 = VERTEX_POINT ( 'NONE', #306 ) ;
#199 = EDGE_LOOP ( 'NONE', ( #56, #85 ) ) ;
#200 =( LENGTH_UNIT ( ) NAMED_UNIT ( * ) SI_UNIT ( $, .METRE. ) );
#201 = CARTESIAN_POINT ( 'NONE',  ( 0.1249999999999999584, 3.000000000000000444, 1.530808498934191817E-17 ) ) ;
#202 = FACE_OUTER_BOUND ( 'NONE', #106, .T. ) ;
#203 = STYLED_ITEM ( 'NONE', ( #184 ), #180 ) ;
#204 = DIRECTION ( 'NONE',  ( 0.000000000000000000, 1.000000000000000000, 0.000000000000000000 ) ) ;
#205 = SURFACE_STYLE_USAGE ( .BOTH. , #135 ) ;
#206 = EDGE_CURVE ( 'NONE', #198, #65, #256, .T. ) ;
#207 = CARTESIAN_POINT ( 'NONE',  ( -0.1250000000000000000, 1.000000000000000000, 0.000000000000000000 ) ) ;
#208 = STYLED_ITEM ( 'NONE', ( #25 ), #23 ) ;
#209 = DIRECTION ( 'NONE',  ( -1.000000000000000000, 0.000000000000000000, 0.000000000000000000 ) ) ;
#210 =( NAMED_UNIT ( * ) PLANE_ANGLE_UNIT ( ) SI_UNIT ( $, .RADIAN. ) );
#211 = DIRECTION ( 'NONE',  ( 0.000000000000000000, 0.000000000000000000, -1.000000000000000000 ) ) ;
#212 = SURFACE_STYLE_FILL_AREA ( #95 ) ;
#213 = PRESENTATION_LAYER_ASSIGNMENT (  '', '', ( #203 ) ) ;
#214 =( GEOMETRIC_REPRESENTATION_CONTEXT ( 3 ) GLOBAL_UNCERTAINTY_ASSIGNED_CONTEXT ( ( #5 ) ) GLOBAL_UNIT_ASSIGNED_CONTEXT ( ( #303, #197, #250 ) ) REPRESENTATION_CONTEXT ( 'NONE', 'WORKASPACE' ) );
#215 = CARTESIAN_POINT ( 'NONE',  ( 0.000000000000000000, 0.000000000000000000, 0.000000000000000000 ) ) ;
#216 = PRODUCT_RELATED_PRODUCT_CATEGORY ( 'part', '', ( #156 ) ) ;
#217 = DIMENSIONAL_EXPONENTS ( 1.000000000000000000, 0.000000000000000000, 0.000000000000000000, 0.000000000000000000, 0.000000000000000000, 0.000000000000000000, 0.000000000000000000 ) ;
#218 = VERTEX_POINT ( 'NONE', #120 ) ;
#219 = LENGTH_MEASURE_WITH_UNIT ( LENGTH_MEASURE( 0.02539999999999999897 ), #301 );
#220 = AXIS2_PLACEMENT_3D ( 'NONE', #62, #107, #296 ) ;
#221 = STYLED_ITEM ( 'NONE', ( #61 ), #244 ) ;
#222 = CIRCLE ( 'NONE', #70, 0.1250000000000000555 ) ;
#223 = VERTEX_POINT ( 'NONE', #309 ) ;
#224 = ADVANCED_FACE ( 'NONE', ( #97 ), #78, .T. ) ;
#225 = DIRECTION ( 'NONE',  ( -1.000000000000000000, 0.000000000000000000, 0.000000000000000000 ) ) ;
#226 = ORIENTED_EDGE ( 'NONE', *, *, #48, .F. ) ;
#227 = DIRECTION ( 'NONE',  ( 0.000000000000000000, 0.000000000000000000, -1.000000000000000000 ) ) ;
#228 = SURFACE_STYLE_FILL_AREA ( #174 ) ;
#229 = CARTESIAN_POINT ( 'NONE',  ( 0.000000000000000000, 0.000000000000000000, 0.000000000000000000 ) ) ;
#230 = AXIS2_PLACEMENT_3D ( 'NONE', #74, #93, #238 ) ;
#231 = CARTESIAN_POINT ( 'NONE',  ( 0.000000000000000000, 0.000000000000000000, -0.1250000000000000000 ) ) ;
#232 =( LENGTH_UNIT ( ) NAMED_UNIT ( * ) SI_UNIT ( $, .METRE. ) );
#233 = DIRECTION ( 'NONE',  ( 0.000000000000000000, 0.000000000000000000, -1.000000000000000000 ) ) ;
#234 = FACE_OUTER_BOUND ( 'NONE', #125, .T. ) ;
#235 = DIRECTION ( 'NONE',  ( -0.000000000000000000, -1.000000000000000000, -0.000000000000000000 ) ) ;
#236 =( NAMED_UNIT ( * ) SI_UNIT ( $, .STERADIAN. ) SOLID_ANGLE_UNIT ( ) );
#237 = CIRCLE ( 'NONE', #32, 0.1250000000000000000 ) ;
#238 = DIRECTION ( 'NONE',  ( 1.000000000000000000, 3.061616997868386099E-17, 0.000000000000000000 ) ) ;
#239 =( CONVERSION_BASED_UNIT ( 'INCH', #160 ) LENGTH_UNIT ( ) NAMED_UNIT ( #60 ) );
#240 = UNCERTAINTY_MEASURE_WITH_UNIT (LENGTH_MEASURE( 1.000000000000000082E-05 ), #3, 'distance_accuracy_value', 'NONE');
#241 = EDGE_CURVE ( 'NONE', #249, #175, #237, .T. ) ;
#242 = VERTEX_POINT ( 'NONE', #275 ) ;
#243 = FACE_OUTER_BOUND ( 'NONE', #154, .T. ) ;
#244 = MANIFOLD_SOLID_BREP ( 'Revolve - Tool Body (Straight Shanked)', #148 ) ;
#245 = MANIFOLD_SOLID_BREP ( 'Revolve - Cutting Edge', #149 ) ;
#246 = DIRECTION ( 'NONE',  ( -3.061616997868386099E-17, 1.000000000000000000, -0.000000000000000000 ) ) ;
#247 = ADVANCED_FACE ( 'NONE', ( #147 ), #31, .F. ) ;
#248 = ORIENTED_EDGE ( 'NONE', *, *, #81, .T. ) ;
#249 = VERTEX_POINT ( 'NONE', #6 ) ;
#250 =( NAMED_UNIT ( * ) SI_UNIT ( $, .STERADIAN. ) SOLID_ANGLE_UNIT ( ) );
#251 = CARTESIAN_POINT ( 'NONE',  ( 0.000000000000000000, 0.000000000000000000, 0.000000000000000000 ) ) ;
#252 = PRESENTATION_STYLE_ASSIGNMENT (( #104 ) ) ;
#253 = SURFACE_STYLE_FILL_AREA ( #177 ) ;
#254 =( NAMED_UNIT ( * ) PLANE_ANGLE_UNIT ( ) SI_UNIT ( $, .RADIAN. ) );
#255 = FILL_AREA_STYLE_COLOUR ( '', #189 ) ;
#256 = CIRCLE ( 'NONE', #29, 0.1250000000000000000 ) ;
#257 = LINE ( 'NONE', #75, #293 ) ;
#258 = DIRECTION ( 'NONE',  ( -0.000000000000000000, -1.000000000000000000, -0.000000000000000000 ) ) ;
#259 = SURFACE_SIDE_STYLE ('',( #162 ) ) ;
#260 = AXIS2_PLACEMENT_3D ( 'NONE', #181, #284, #233 ) ;
#261 = EDGE_CURVE ( 'NONE', #175, #249, #143, .T. ) ;
#262 = CARTESIAN_POINT ( 'NONE',  ( 7.582401355855259480E-33, 1.000000000000000000, 0.000000000000000000 ) ) ;
#263 = CIRCLE ( 'NONE', #20, 0.1250000000000000555 ) ;
#264 =( CONVERSION_BASED_UNIT ( 'INCH', #169 ) LENGTH_UNIT ( ) NAMED_UNIT ( #176 ) );
#265 = ORIENTED_EDGE ( 'NONE', *, *, #99, .T. ) ;
#266 = CYLINDRICAL_SURFACE ( 'NONE', #27, 0.1250000000000000278 ) ;
#267 = DIMENSIONAL_EXPONENTS ( 1.000000000000000000, 0.000000000000000000, 0.000000000000000000, 0.000000000000000000, 0.000000000000000000, 0.000000000000000000, 0.000000000000000000 ) ;
#268 =( GEOMETRIC_REPRESENTATION_CONTEXT ( 3 ) GLOBAL_UNCERTAINTY_ASSIGNED_CONTEXT ( ( #179 ) ) GLOBAL_UNIT_ASSIGNED_CONTEXT ( ( #308, #282, #113 ) ) REPRESENTATION_CONTEXT ( 'NONE', 'WORKASPACE' ) );
#269 = PRESENTATION_LAYER_ASSIGNMENT (  '', '', ( #141 ) ) ;
#270 = ADVANCED_BREP_SHAPE_REPRESENTATION ( '00180', ( #245, #244, #220 ), #53 ) ;
#271 = ADVANCED_FACE ( 'NONE', ( #243 ), #266, .T. ) ;
#272 = DIRECTION ( 'NONE',  ( -3.061616997868386099E-17, 1.000000000000000000, -0.000000000000000000 ) ) ;
#273 = ORIENTED_EDGE ( 'NONE', *, *, #279, .F. ) ;
#274 = FILL_AREA_STYLE_COLOUR ( '', #196 ) ;
#275 = CARTESIAN_POINT ( 'NONE',  ( 1.530808498934191509E-17, 1.000000000000000000, 0.1250000000000000000 ) ) ;
#276 =( NAMED_UNIT ( * ) SI_UNIT ( $, .STERADIAN. ) SOLID_ANGLE_UNIT ( ) );
#277 = PRESENTATION_LAYER_ASSIGNMENT (  '', '', ( #221 ) ) ;
#278 = ORIENTED_EDGE ( 'NONE', *, *, #241, .F. ) ;
#279 = EDGE_CURVE ( 'NONE', #249, #218, #42, .T. ) ;
#280 = CARTESIAN_POINT ( 'NONE',  ( 1.530808498934191509E-17, 0.000000000000000000, 0.1250000000000000000 ) ) ;
#281 = LENGTH_MEASURE_WITH_UNIT ( LENGTH_MEASURE( 0.02539999999999999897 ), #200 );
#282 =( NAMED_UNIT ( * ) PLANE_ANGLE_UNIT ( ) SI_UNIT ( $, .RADIAN. ) );
#283 = UNCERTAINTY_MEASURE_WITH_UNIT (LENGTH_MEASURE( 1.000000000000000082E-05 ), #16, 'distance_accuracy_value', 'NONE');
#284 = DIRECTION ( 'NONE',  ( -0.000000000000000000, -1.000000000000000000, -0.000000000000000000 ) ) ;
#285 =( GEOMETRIC_REPRESENTATION_CONTEXT ( 3 ) GLOBAL_UNCERTAINTY_ASSIGNED_CONTEXT ( ( #240 ) ) GLOBAL_UNIT_ASSIGNED_CONTEXT ( ( #3, #210, #236 ) ) REPRESENTATION_CONTEXT ( 'NONE', 'WORKASPACE' ) );
#286 = MECHANICAL_DESIGN_GEOMETRIC_PRESENTATION_REPRESENTATION (  '', ( #141 ), #214 ) ;
#287 =( LENGTH_UNIT ( ) NAMED_UNIT ( * ) SI_UNIT ( $, .METRE. ) );
#288 = DIRECTION ( 'NONE',  ( -3.061616997868386099E-17, 1.000000000000000000, -0.000000000000000000 ) ) ;
#289 = CARTESIAN_POINT ( 'NONE',  ( 0.000000000000000000, 0.000000000000000000, 0.000000000000000000 ) ) ;
#290 = DIRECTION ( 'NONE',  ( -1.000000000000000000, -3.061616997868386099E-17, 0.000000000000000000 ) ) ;
#291 = ORIENTED_EDGE ( 'NONE', *, *, #122, .F. ) ;
#292 = ORIENTED_EDGE ( 'NONE', *, *, #10, .F. ) ;
#293 = VECTOR ( 'NONE', #50, 39.37007874015748143 ) ;
#294 = UNCERTAINTY_MEASURE_WITH_UNIT (LENGTH_MEASURE( 1.000000000000000082E-05 ), #87, 'distance_accuracy_value', 'NONE');
#295 = EDGE_CURVE ( 'NONE', #223, #218, #222, .T. ) ;
#296 = DIRECTION ( 'NONE',  ( 1.000000000000000000, 0.000000000000000000, 0.000000000000000000 ) ) ;
#297 = ORIENTED_EDGE ( 'NONE', *, *, #241, .T. ) ;
#298 = ORIENTED_EDGE ( 'NONE', *, *, #261, .T. ) ;
#299 = APPLICATION_CONTEXT ( 'automotive_design' ) ;
#300 = ORIENTED_EDGE ( 'NONE', *, *, #48, .T. ) ;
#301 =( LENGTH_UNIT ( ) NAMED_UNIT ( * ) SI_UNIT ( $, .METRE. ) );
#302 = APPLICATION_PROTOCOL_DEFINITION ( 'draft international standard', 'automotive_design', 1998, #115 ) ;
#303 =( CONVERSION_BASED_UNIT ( 'INCH', #219 ) LENGTH_UNIT ( ) NAMED_UNIT ( #100 ) );
#304 = DIRECTION ( 'NONE',  ( 0.000000000000000000, -0.000000000000000000, 1.000000000000000000 ) ) ;
#305 = CARTESIAN_POINT ( 'NONE',  ( -6.123233995736772199E-17, 3.000000000000000444, 0.000000000000000000 ) ) ;
#306 = CARTESIAN_POINT ( 'NONE',  ( 0.000000000000000000, 0.000000000000000000, -0.1250000000000000000 ) ) ;
#307 = DIRECTION ( 'NONE',  ( 0.000000000000000000, -1.000000000000000000, -0.000000000000000000 ) ) ;
#308 =( CONVERSION_BASED_UNIT ( 'INCH', #92 ) LENGTH_UNIT ( ) NAMED_UNIT ( #217 ) );
#309 = CARTESIAN_POINT ( 'NONE',  ( -0.1250000000000001388, 3.000000000000000444, 0.000000000000000000 ) ) ;
ENDSEC;
END-ISO-10303-21;
