ISO-10303-21;
HEADER;
FILE_DESCRIPTION (( 'STEP AP214' ),
    '1' );
FILE_NAME ('Micro_SFBM-005-1X.STEP',
    '2021-09-03T16:35:33',
    ( '' ),
    ( '' ),
    'SwSTEP 2.0',
    'SolidWorks 2020',
    '' );
FILE_SCHEMA (( 'AUTOMOTIVE_DESIGN' ));
ENDSEC;

DATA;
#1 = COLOUR_RGB ( '',0.7921568627450980005, 0.8196078431372548767, 0.9333333333333333481 ) ;
#2 = VECTOR ( 'NONE', #371, 39.37007874015748143 ) ;
#3 = DIRECTION ( 'NONE',  ( -0.0000000000000000000, -0.0000000000000000000, -1.000000000000000000 ) ) ;
#4 =( LENGTH_UNIT ( ) NAMED_UNIT ( * ) SI_UNIT ( $, .METRE. ) );
#5 = DIRECTION ( 'NONE',  ( -0.0000000000000000000, -0.0000000000000000000, -1.000000000000000000 ) ) ;
#6 = LINE ( 'NONE', #217, #195 ) ;
#7 = EDGE_CURVE ( 'NONE', #130, #333, #172, .T. ) ;
#8 = DIRECTION ( 'NONE',  ( 1.000000000000000000, 0.0000000000000000000, -0.0000000000000000000 ) ) ;
#9 = DIRECTION ( 'NONE',  ( -1.000000000000000000, 0.0000000000000000000, 0.0000000000000000000 ) ) ;
#10 = CYLINDRICAL_SURFACE ( 'NONE', #153, 0.008858500000000005259 ) ;
#11 = AXIS2_PLACEMENT_3D ( 'NONE', #250, #135, #8 ) ;
#12 = DIRECTION ( 'NONE',  ( -1.000000000000000000, 0.0000000000000000000, 0.0000000000000000000 ) ) ;
#13 = PLANE ( 'NONE',  #11 ) ;
#14 = EDGE_LOOP ( 'NONE', ( #340, #309 ) ) ;
#15 = AXIS2_PLACEMENT_3D ( 'NONE', #75, #372, #243 ) ;
#16 = EDGE_LOOP ( 'NONE', ( #228, #173, #321, #283 ) ) ;
#17 = AXIS2_PLACEMENT_3D ( 'NONE', #205, #325, #178 ) ;
#18 = ORIENTED_EDGE ( 'NONE', *, *, #286, .T. ) ;
#19 = PRODUCT_DEFINITION ( 'UNKNOWN', '', #262, #21 ) ;
#20 = ORIENTED_EDGE ( 'NONE', *, *, #305, .T. ) ;
#21 = PRODUCT_DEFINITION_CONTEXT ( 'detailed design', #140, 'design' ) ;
#22 = CIRCLE ( 'NONE', #15, 0.008858500000000003524 ) ;
#23 = DIRECTION ( 'NONE',  ( -0.0000000000000000000, -0.0000000000000000000, -1.000000000000000000 ) ) ;
#24 = AXIS2_PLACEMENT_3D ( 'NONE', #26, #353, #273 ) ;
#25 = EDGE_CURVE ( 'NONE', #364, #141, #29, .T. ) ;
#26 = CARTESIAN_POINT ( 'NONE',  ( 0.0000000000000000000, 0.0000000000000000000, 2.244094000000000033 ) ) ;
#27 = DIRECTION ( 'NONE',  ( 0.0000000000000000000, 0.0000000000000000000, 1.000000000000000000 ) ) ;
#28 = DIRECTION ( 'NONE',  ( -0.0000000000000000000, -0.0000000000000000000, -1.000000000000000000 ) ) ;
#29 = CIRCLE ( 'NONE', #318, 0.1181100000000000066 ) ;
#30 = AXIS2_PLACEMENT_3D ( 'NONE', #159, #282, #379 ) ;
#31 = LINE ( 'NONE', #152, #106 ) ;
#32 = FACE_OUTER_BOUND ( 'NONE', #367, .T. ) ;
#33 = ORIENTED_EDGE ( 'NONE', *, *, #286, .F. ) ;
#34 = LINE ( 'NONE', #128, #111 ) ;
#35 = DIRECTION ( 'NONE',  ( -1.000000000000000000, 0.0000000000000000000, 0.0000000000000000000 ) ) ;
#36 =( NAMED_UNIT ( * ) PLANE_ANGLE_UNIT ( ) SI_UNIT ( $, .RADIAN. ) );
#37 = AXIS2_PLACEMENT_3D ( 'NONE', #170, #342, #198 ) ;
#38 = DIRECTION ( 'NONE',  ( -0.0000000000000000000, 0.0000000000000000000, -1.000000000000000000 ) ) ;
#39 = EDGE_CURVE ( 'NONE', #47, #76, #222, .T. ) ;
#40 =( NAMED_UNIT ( * ) PLANE_ANGLE_UNIT ( ) SI_UNIT ( $, .RADIAN. ) );
#41 = PLANE ( 'NONE',  #196 ) ;
#42 = CARTESIAN_POINT ( 'NONE',  ( 0.0000000000000000000, 0.0000000000000000000, 2.244094000000000033 ) ) ;
#43 = SURFACE_STYLE_USAGE ( .BOTH. , #249 ) ;
#44 = ORIENTED_EDGE ( 'NONE', *, *, #39, .T. ) ;
#45 = AXIS2_PLACEMENT_3D ( 'NONE', #74, #27, #155 ) ;
#46 = ORIENTED_EDGE ( 'NONE', *, *, #263, .F. ) ;
#47 = VERTEX_POINT ( 'NONE', #242 ) ;
#48 = EDGE_LOOP ( 'NONE', ( #123, #202, #314, #82 ) ) ;
#49 = ORIENTED_EDGE ( 'NONE', *, *, #312, .T. ) ;
#50 = VECTOR ( 'NONE', #358, 39.37007874015748143 ) ;
#51 = ORIENTED_EDGE ( 'NONE', *, *, #175, .T. ) ;
#52 = PRESENTATION_LAYER_ASSIGNMENT (  '', '', ( #330 ) ) ;
#53 = EDGE_LOOP ( 'NONE', ( #168, #18 ) ) ;
#54 = FACE_OUTER_BOUND ( 'NONE', #193, .T. ) ;
#55 = DIRECTION ( 'NONE',  ( 0.0000000000000000000, 0.0000000000000000000, 1.000000000000000000 ) ) ;
#56 = ADVANCED_FACE ( 'NONE', ( #61 ), #313, .T. ) ;
#57 = DIRECTION ( 'NONE',  ( -0.0000000000000000000, -0.0000000000000000000, -1.000000000000000000 ) ) ;
#58 = LINE ( 'NONE', #370, #59 ) ;
#59 = VECTOR ( 'NONE', #267, 39.37007874015748143 ) ;
#60 = DIRECTION ( 'NONE',  ( -1.000000000000000000, 0.0000000000000000000, 0.0000000000000000000 ) ) ;
#61 = FACE_OUTER_BOUND ( 'NONE', #281, .T. ) ;
#62 = DIRECTION ( 'NONE',  ( 0.7071067811865358044, 8.659560562354788645E-17, -0.7071067811865590080 ) ) ;
#63 = CONICAL_SURFACE ( 'NONE', #138, 0.1031100000000002570, 0.7853981633974318477 ) ;
#64 = AXIS2_PLACEMENT_3D ( 'NONE', #297, #221, #9 ) ;
#65 = LENGTH_MEASURE_WITH_UNIT ( LENGTH_MEASURE( 0.02539999999999999897 ), #253 );
#66 = ORIENTED_EDGE ( 'NONE', *, *, #142, .F. ) ;
#67 = EDGE_CURVE ( 'NONE', #364, #227, #31, .T. ) ;
#68 = DIRECTION ( 'NONE',  ( -1.000000000000000000, 0.0000000000000000000, 0.0000000000000000000 ) ) ;
#69 = ORIENTED_EDGE ( 'NONE', *, *, #122, .F. ) ;
#70 = AXIS2_PLACEMENT_3D ( 'NONE', #311, #71, #12 ) ;
#71 = DIRECTION ( 'NONE',  ( -0.0000000000000000000, -0.0000000000000000000, -1.000000000000000000 ) ) ;
#72 = ORIENTED_EDGE ( 'NONE', *, *, #25, .F. ) ;
#73 = DIRECTION ( 'NONE',  ( 0.0000000000000000000, 0.0000000000000000000, 1.000000000000000000 ) ) ;
#74 = CARTESIAN_POINT ( 'NONE',  ( 0.0000000000000000000, 0.0000000000000000000, 0.0000000000000000000 ) ) ;
#75 = CARTESIAN_POINT ( 'NONE',  ( 0.0000000000000000000, 0.0000000000000000000, 0.02919695935137286980 ) ) ;
#76 = VERTEX_POINT ( 'NONE', #180 ) ;
#77 = CIRCLE ( 'NONE', #295, 0.009841515750000005142 ) ;
#78 = ORIENTED_EDGE ( 'NONE', *, *, #164, .T. ) ;
#79 = ORIENTED_EDGE ( 'NONE', *, *, #7, .T. ) ;
#80 = ADVANCED_FACE ( 'NONE', ( #54 ), #63, .T. ) ;
#81 = ORIENTED_EDGE ( 'NONE', *, *, #233, .T. ) ;
#82 = ORIENTED_EDGE ( 'NONE', *, *, #150, .F. ) ;
#83 = UNCERTAINTY_MEASURE_WITH_UNIT (LENGTH_MEASURE( 1.000000000000000082E-05 ), #238, 'distance_accuracy_value', 'NONE');
#84 = CARTESIAN_POINT ( 'NONE',  ( 0.0000000000000000000, 0.0000000000000000000, 0.0000000000000000000 ) ) ;
#85 = SURFACE_SIDE_STYLE ('',( #346 ) ) ;
#86 = VECTOR ( 'NONE', #182, 39.37007874015748143 ) ;
#87 = CYLINDRICAL_SURFACE ( 'NONE', #284, 0.009841515750000005142 ) ;
#88 = FACE_OUTER_BOUND ( 'NONE', #290, .T. ) ;
#89 = DIRECTION ( 'NONE',  ( -1.000000000000000000, 0.0000000000000000000, 0.0000000000000000000 ) ) ;
#90 = CARTESIAN_POINT ( 'NONE',  ( 0.0000000000000000000, 0.0000000000000000000, 0.06299200000000000632 ) ) ;
#91 = ADVANCED_FACE ( 'NONE', ( #145 ), #87, .T. ) ;
#92 = ADVANCED_BREP_SHAPE_REPRESENTATION ( 'Micro_SFBM-005-1X', ( #113, #45 ), #235 ) ;
#93 = FACE_OUTER_BOUND ( 'NONE', #16, .T. ) ;
#94 = EDGE_LOOP ( 'NONE', ( #260, #171, #66, #105 ) ) ;
#95 = CARTESIAN_POINT ( 'NONE',  ( 0.009841515750000005142, 1.205238076199577027E-18, 0.02362200000000000064 ) ) ;
#96 = AXIS2_PLACEMENT_3D ( 'NONE', #134, #277, #104 ) ;
#97 = DIRECTION ( 'NONE',  ( -1.000000000000000000, 0.0000000000000000000, 0.0000000000000000000 ) ) ;
#98 = CARTESIAN_POINT ( 'NONE',  ( -0.1181100000000000066, 0.0000000000000000000, 2.229093999999999465 ) ) ;
#99 = FACE_OUTER_BOUND ( 'NONE', #114, .T. ) ;
#100 = ORIENTED_EDGE ( 'NONE', *, *, #150, .T. ) ;
#101 = FACE_OUTER_BOUND ( 'NONE', #256, .T. ) ;
#102 =( LENGTH_UNIT ( ) NAMED_UNIT ( * ) SI_UNIT ( $, .METRE. ) );
#103 = EDGE_LOOP ( 'NONE', ( #49, #44 ) ) ;
#104 = DIRECTION ( 'NONE',  ( -1.000000000000000000, 0.0000000000000000000, 0.0000000000000000000 ) ) ;
#105 = ORIENTED_EDGE ( 'NONE', *, *, #164, .F. ) ;
#106 = VECTOR ( 'NONE', #57, 39.37007874015748143 ) ;
#107 = ORIENTED_EDGE ( 'NONE', *, *, #312, .F. ) ;
#108 = VERTEX_POINT ( 'NONE', #345 ) ;
#109 = ORIENTED_EDGE ( 'NONE', *, *, #25, .T. ) ;
#110 = ADVANCED_FACE ( 'NONE', ( #204 ), #324, .T. ) ;
#111 = VECTOR ( 'NONE', #279, 39.37007874015748854 ) ;
#112 = DIRECTION ( 'NONE',  ( 0.0000000000000000000, 0.0000000000000000000, -1.000000000000000000 ) ) ;
#113 = MANIFOLD_SOLID_BREP ( 'Cut-Revolve1', #361 ) ;
#114 = EDGE_LOOP ( 'NONE', ( #109, #341, #316, #197 ) ) ;
#115 = CARTESIAN_POINT ( 'NONE',  ( 0.0000000000000000000, 0.0000000000000000000, 2.244094000000000033 ) ) ;
#116 = AXIS2_PLACEMENT_3D ( 'NONE', #209, #296, #148 ) ;
#117 = AXIS2_PLACEMENT_3D ( 'NONE', #42, #5, #97 ) ;
#118 = CARTESIAN_POINT ( 'NONE',  ( 0.0000000000000000000, 0.0000000000000000000, 0.0000000000000000000 ) ) ;
#119 = DIRECTION ( 'NONE',  ( 1.000000000000000000, 0.0000000000000000000, 0.0000000000000000000 ) ) ;
#120 = CARTESIAN_POINT ( 'NONE',  ( 0.1181100000000000066, 1.446430334472939084E-17, 2.229093999999999465 ) ) ;
#121 = CARTESIAN_POINT ( 'NONE',  ( 0.0000000000000000000, 0.0000000000000000000, 0.02919695935137286980 ) ) ;
#122 = EDGE_CURVE ( 'NONE', #232, #47, #6, .T. ) ;
#123 = ORIENTED_EDGE ( 'NONE', *, *, #233, .F. ) ;
#124 = VECTOR ( 'NONE', #62, 39.37007874015748854 ) ;
#125 = DIRECTION ( 'NONE',  ( -0.0000000000000000000, -0.0000000000000000000, -1.000000000000000000 ) ) ;
#126 =( CONVERSION_BASED_UNIT ( 'INCH', #65 ) LENGTH_UNIT ( ) NAMED_UNIT ( #331 ) );
#127 =( NAMED_UNIT ( * ) SI_UNIT ( $, .STERADIAN. ) SOLID_ANGLE_UNIT ( ) );
#128 = CARTESIAN_POINT ( 'NONE',  ( -0.1031100000000002570, 0.0000000000000000000, 2.244094000000000033 ) ) ;
#129 = CARTESIAN_POINT ( 'NONE',  ( 0.1031100000000002570, 1.354581824536888722E-17, 2.244094000000000033 ) ) ;
#130 = VERTEX_POINT ( 'NONE', #266 ) ;
#131 = AXIS2_PLACEMENT_3D ( 'NONE', #350, #301, #323 ) ;
#132 = EDGE_CURVE ( 'NONE', #333, #130, #229, .T. ) ;
#133 = CIRCLE ( 'NONE', #30, 0.1181100000000000066 ) ;
#134 = CARTESIAN_POINT ( 'NONE',  ( 0.0000000000000000000, 0.0000000000000000000, 0.02362200000000000064 ) ) ;
#135 = DIRECTION ( 'NONE',  ( 0.0000000000000000000, 0.0000000000000000000, 1.000000000000000000 ) ) ;
#136 = ORIENTED_EDGE ( 'NONE', *, *, #347, .F. ) ;
#137 = ORIENTED_EDGE ( 'NONE', *, *, #220, .F. ) ;
#138 = AXIS2_PLACEMENT_3D ( 'NONE', #115, #112, #176 ) ;
#139 = ORIENTED_EDGE ( 'NONE', *, *, #347, .T. ) ;
#140 = APPLICATION_CONTEXT ( 'automotive_design' ) ;
#141 = VERTEX_POINT ( 'NONE', #120 ) ;
#142 = EDGE_CURVE ( 'NONE', #366, #336, #22, .T. ) ;
#143 = ORIENTED_EDGE ( 'NONE', *, *, #142, .T. ) ;
#144 = PRESENTATION_LAYER_ASSIGNMENT (  '', '', ( #257 ) ) ;
#145 = FACE_OUTER_BOUND ( 'NONE', #188, .T. ) ;
#146 = DIRECTION ( 'NONE',  ( -0.0000000000000000000, -0.0000000000000000000, -1.000000000000000000 ) ) ;
#147 = APPLICATION_PROTOCOL_DEFINITION ( 'draft international standard', 'automotive_design', 1998, #140 ) ;
#148 = DIRECTION ( 'NONE',  ( 1.000000000000000000, 0.0000000000000000000, -0.0000000000000000000 ) ) ;
#149 = CARTESIAN_POINT ( 'NONE',  ( -0.009841515750000005142, 0.0000000000000000000, 0.02362200000000000064 ) ) ;
#150 = EDGE_CURVE ( 'NONE', #141, #364, #241, .T. ) ;
#151 = CARTESIAN_POINT ( 'NONE',  ( 0.0000000000000000000, 0.0000000000000000000, 0.02362200000000000064 ) ) ;
#152 = CARTESIAN_POINT ( 'NONE',  ( -0.1181100000000000066, 0.0000000000000000000, 2.244094000000000033 ) ) ;
#153 = AXIS2_PLACEMENT_3D ( 'NONE', #158, #3, #68 ) ;
#154 = CARTESIAN_POINT ( 'NONE',  ( -0.1181100000000000066, 0.0000000000000000000, 0.06299200000000011734 ) ) ;
#155 = DIRECTION ( 'NONE',  ( 1.000000000000000000, 0.0000000000000000000, 0.0000000000000000000 ) ) ;
#156 = CARTESIAN_POINT ( 'NONE',  ( -0.1031100000000002570, 0.0000000000000000000, 2.244094000000000033 ) ) ;
#157 = ADVANCED_FACE ( 'NONE', ( #88 ), #351, .T. ) ;
#158 = CARTESIAN_POINT ( 'NONE',  ( 0.0000000000000000000, 0.0000000000000000000, 0.0000000000000000000 ) ) ;
#159 = CARTESIAN_POINT ( 'NONE',  ( 0.0000000000000000000, 0.0000000000000000000, 0.06299200000000011734 ) ) ;
#160 = PRESENTATION_STYLE_ASSIGNMENT (( #43 ) ) ;
#161 = DIRECTION ( 'NONE',  ( -1.000000000000000000, 0.0000000000000000000, 0.0000000000000000000 ) ) ;
#162 = VERTEX_POINT ( 'NONE', #129 ) ;
#163 =( NAMED_UNIT ( * ) SI_UNIT ( $, .STERADIAN. ) SOLID_ANGLE_UNIT ( ) );
#164 = EDGE_CURVE ( 'NONE', #333, #366, #359, .T. ) ;
#165 = CARTESIAN_POINT ( 'NONE',  ( 0.0000000000000000000, 0.0000000000000000000, 2.244094000000000033 ) ) ;
#166 = AXIS2_PLACEMENT_3D ( 'NONE', #118, #211, #293 ) ;
#167 = MECHANICAL_DESIGN_GEOMETRIC_PRESENTATION_REPRESENTATION (  '', ( #330 ), #214 ) ;
#168 = ORIENTED_EDGE ( 'NONE', *, *, #354, .T. ) ;
#169 = ADVANCED_FACE ( 'NONE', ( #101 ), #337, .T. ) ;
#170 = CARTESIAN_POINT ( 'NONE',  ( 0.0000000000000000000, 0.0000000000000000000, 0.06299200000000000632 ) ) ;
#171 = ORIENTED_EDGE ( 'NONE', *, *, #320, .T. ) ;
#172 = CIRCLE ( 'NONE', #37, 0.008858500000000006994 ) ;
#173 = ORIENTED_EDGE ( 'NONE', *, *, #300, .T. ) ;
#174 = ORIENTED_EDGE ( 'NONE', *, *, #363, .F. ) ;
#175 = EDGE_CURVE ( 'NONE', #232, #108, #365, .T. ) ;
#176 = DIRECTION ( 'NONE',  ( -1.000000000000000000, 0.0000000000000000000, 0.0000000000000000000 ) ) ;
#177 = CARTESIAN_POINT ( 'NONE',  ( 0.0000000000000000000, 0.0000000000000000000, 0.06299200000000011734 ) ) ;
#178 = DIRECTION ( 'NONE',  ( 1.000000000000000000, 0.0000000000000000000, 0.0000000000000000000 ) ) ;
#179 = LINE ( 'NONE', #149, #2 ) ;
#180 = CARTESIAN_POINT ( 'NONE',  ( -0.009841515750000005142, 0.0000000000000000000, 0.0000000000000000000 ) ) ;
#181 = FILL_AREA_STYLE_COLOUR ( '', #1 ) ;
#182 = DIRECTION ( 'NONE',  ( 0.1736481776669306365, 2.126576849575774996E-17, -0.9848077530122080203 ) ) ;
#183 = CONICAL_SURFACE ( 'NONE', #24, 0.1031100000000002570, 0.7853981633974318477 ) ;
#184 = ADVANCED_FACE ( 'NONE', ( #99 ), #187, .T. ) ;
#185 = PRODUCT_CONTEXT ( 'NONE', #251, 'mechanical' ) ;
#186 = CARTESIAN_POINT ( 'NONE',  ( 0.008858500000000006994, 0.0000000000000000000, 0.06299200000000000632 ) ) ;
#187 = CYLINDRICAL_SURFACE ( 'NONE', #117, 0.1181100000000000066 ) ;
#188 = EDGE_LOOP ( 'NONE', ( #69, #51, #287, #259 ) ) ;
#189 = FACE_OUTER_BOUND ( 'NONE', #103, .T. ) ;
#190 = COLOUR_RGB ( '',0.7921568627450980005, 0.8196078431372548767, 0.9333333333333333481 ) ;
#191 = ADVANCED_FACE ( 'NONE', ( #32 ), #274, .T. ) ;
#192 = CARTESIAN_POINT ( 'NONE',  ( -0.008858500000000005259, 0.0000000000000000000, 0.0000000000000000000 ) ) ;
#193 = EDGE_LOOP ( 'NONE', ( #33, #81, #72, #174 ) ) ;
#194 = ORIENTED_EDGE ( 'NONE', *, *, #122, .T. ) ;
#195 = VECTOR ( 'NONE', #377, 39.37007874015748143 ) ;
#196 = AXIS2_PLACEMENT_3D ( 'NONE', #186, #38, #161 ) ;
#197 = ORIENTED_EDGE ( 'NONE', *, *, #67, .F. ) ;
#198 = DIRECTION ( 'NONE',  ( -1.000000000000000000, 0.0000000000000000000, 0.0000000000000000000 ) ) ;
#199 = FACE_OUTER_BOUND ( 'NONE', #94, .T. ) ;
#200 = CARTESIAN_POINT ( 'NONE',  ( 0.0000000000000000000, 0.0000000000000000000, 2.229093999999999465 ) ) ;
#201 = AXIS2_PLACEMENT_3D ( 'NONE', #271, #146, #215 ) ;
#202 = ORIENTED_EDGE ( 'NONE', *, *, #354, .F. ) ;
#203 = DIRECTION ( 'NONE',  ( 1.000000000000000000, 0.0000000000000000000, 0.0000000000000000000 ) ) ;
#204 = FACE_OUTER_BOUND ( 'NONE', #53, .T. ) ;
#205 = CARTESIAN_POINT ( 'NONE',  ( 0.0000000000000000000, 0.0000000000000000000, 2.229093999999999465 ) ) ;
#206 = CARTESIAN_POINT ( 'NONE',  ( -0.008858500000000006994, 0.0000000000000000000, 0.06299200000000000632 ) ) ;
#207 = ADVANCED_FACE ( 'NONE', ( #199 ), #10, .T. ) ;
#208 = PRESENTATION_STYLE_ASSIGNMENT (( #299 ) ) ;
#209 = CARTESIAN_POINT ( 'NONE',  ( 0.0000000000000000000, 0.0000000000000000000, 2.244094000000000033 ) ) ;
#210 = ADVANCED_FACE ( 'NONE', ( #218, #246 ), #41, .T. ) ;
#211 = DIRECTION ( 'NONE',  ( -0.0000000000000000000, -0.0000000000000000000, -1.000000000000000000 ) ) ;
#212 = DIRECTION ( 'NONE',  ( -0.0000000000000000000, -0.0000000000000000000, -1.000000000000000000 ) ) ;
#213 = APPLICATION_PROTOCOL_DEFINITION ( 'draft international standard', 'automotive_design', 1998, #251 ) ;
#214 =( GEOMETRIC_REPRESENTATION_CONTEXT ( 3 ) GLOBAL_UNCERTAINTY_ASSIGNED_CONTEXT ( ( #349 ) ) GLOBAL_UNIT_ASSIGNED_CONTEXT ( ( #126, #40, #225 ) ) REPRESENTATION_CONTEXT ( 'NONE', 'WORKASPACE' ) );
#215 = DIRECTION ( 'NONE',  ( -1.000000000000000000, 0.0000000000000000000, 0.0000000000000000000 ) ) ;
#216 = DIMENSIONAL_EXPONENTS ( 1.000000000000000000, 0.0000000000000000000, 0.0000000000000000000, 0.0000000000000000000, 0.0000000000000000000, 0.0000000000000000000, 0.0000000000000000000 ) ;
#217 = CARTESIAN_POINT ( 'NONE',  ( 0.009841515750000005142, 1.205238076199577027E-18, 0.0000000000000000000 ) ) ;
#218 = FACE_BOUND ( 'NONE', #14, .T. ) ;
#219 = ORIENTED_EDGE ( 'NONE', *, *, #339, .F. ) ;
#220 = EDGE_CURVE ( 'NONE', #141, #369, #378, .T. ) ;
#221 = DIRECTION ( 'NONE',  ( -0.0000000000000000000, -0.0000000000000000000, -1.000000000000000000 ) ) ;
#222 = CIRCLE ( 'NONE', #166, 0.009841515750000005142 ) ;
#223 = CARTESIAN_POINT ( 'NONE',  ( -0.008858500000000003524, 0.0000000000000000000, 0.02919695935137286980 ) ) ;
#224 = AXIS2_PLACEMENT_3D ( 'NONE', #375, #55, #119 ) ;
#225 =( NAMED_UNIT ( * ) SI_UNIT ( $, .STERADIAN. ) SOLID_ANGLE_UNIT ( ) );
#226 = EDGE_CURVE ( 'NONE', #336, #232, #247, .T. ) ;
#227 = VERTEX_POINT ( 'NONE', #154 ) ;
#228 = ORIENTED_EDGE ( 'NONE', *, *, #226, .F. ) ;
#229 = CIRCLE ( 'NONE', #307, 0.008858500000000006994 ) ;
#230 = AXIS2_PLACEMENT_3D ( 'NONE', #121, #294, #355 ) ;
#231 = ORIENTED_EDGE ( 'NONE', *, *, #320, .F. ) ;
#232 = VERTEX_POINT ( 'NONE', #95 ) ;
#233 = EDGE_CURVE ( 'NONE', #162, #141, #373, .T. ) ;
#234 = ORIENTED_EDGE ( 'NONE', *, *, #300, .F. ) ;
#235 =( GEOMETRIC_REPRESENTATION_CONTEXT ( 3 ) GLOBAL_UNCERTAINTY_ASSIGNED_CONTEXT ( ( #322 ) ) GLOBAL_UNIT_ASSIGNED_CONTEXT ( ( #306, #36, #163 ) ) REPRESENTATION_CONTEXT ( 'NONE', 'WORKASPACE' ) );
#236 = EDGE_CURVE ( 'NONE', #108, #232, #319, .T. ) ;
#237 = CARTESIAN_POINT ( 'NONE',  ( 0.0000000000000000000, 0.0000000000000000000, 0.0000000000000000000 ) ) ;
#238 =( CONVERSION_BASED_UNIT ( 'INCH', #292 ) LENGTH_UNIT ( ) NAMED_UNIT ( #329 ) );
#239 = FILL_AREA_STYLE ('',( #181 ) ) ;
#240 = DIRECTION ( 'NONE',  ( -1.000000000000000000, 0.0000000000000000000, 0.0000000000000000000 ) ) ;
#241 = CIRCLE ( 'NONE', #17, 0.1181100000000000066 ) ;
#242 = CARTESIAN_POINT ( 'NONE',  ( 0.009841515750000005142, 1.205238076199577027E-18, 0.0000000000000000000 ) ) ;
#243 = DIRECTION ( 'NONE',  ( -1.000000000000000000, 0.0000000000000000000, 0.0000000000000000000 ) ) ;
#244 = CARTESIAN_POINT ( 'NONE',  ( 0.1031100000000002570, 1.262733314600838667E-17, 2.244094000000000033 ) ) ;
#245 = FACE_OUTER_BOUND ( 'NONE', #48, .T. ) ;
#246 = FACE_OUTER_BOUND ( 'NONE', #289, .T. ) ;
#247 = LINE ( 'NONE', #302, #86 ) ;
#248 = CIRCLE ( 'NONE', #230, 0.008858500000000003524 ) ;
#249 = SURFACE_SIDE_STYLE ('',( #275 ) ) ;
#250 = CARTESIAN_POINT ( 'NONE',  ( 0.0000000000000000000, 0.0000000000000000000, 0.0000000000000000000 ) ) ;
#251 = APPLICATION_CONTEXT ( 'automotive_design' ) ;
#252 = LENGTH_MEASURE_WITH_UNIT ( LENGTH_MEASURE( 0.02539999999999999897 ), #102 );
#253 =( LENGTH_UNIT ( ) NAMED_UNIT ( * ) SI_UNIT ( $, .METRE. ) );
#254 = CONICAL_SURFACE ( 'NONE', #278, 0.009841515750000005142, 0.1745329251994332531 ) ;
#255 = CARTESIAN_POINT ( 'NONE',  ( 0.1181100000000000066, 1.446430334472939084E-17, 0.06299200000000011734 ) ) ;
#256 = EDGE_LOOP ( 'NONE', ( #137, #100, #343, #136 ) ) ;
#257 = STYLED_ITEM ( 'NONE', ( #208 ), #113 ) ;
#258 = VERTEX_POINT ( 'NONE', #156 ) ;
#259 = ORIENTED_EDGE ( 'NONE', *, *, #39, .F. ) ;
#260 = ORIENTED_EDGE ( 'NONE', *, *, #132, .T. ) ;
#261 = MECHANICAL_DESIGN_GEOMETRIC_PRESENTATION_REPRESENTATION (  '', ( #257 ), #356 ) ;
#262 = PRODUCT_DEFINITION_FORMATION_WITH_SPECIFIED_SOURCE ( 'ANY', '', #303, .NOT_KNOWN. ) ;
#263 = EDGE_CURVE ( 'NONE', #108, #76, #352, .T. ) ;
#264 = DIRECTION ( 'NONE',  ( -0.0000000000000000000, -0.0000000000000000000, -1.000000000000000000 ) ) ;
#265 = DIRECTION ( 'NONE',  ( -1.000000000000000000, 0.0000000000000000000, 0.0000000000000000000 ) ) ;
#266 = CARTESIAN_POINT ( 'NONE',  ( 0.008858500000000006994, 1.084853367024683596E-18, 0.06299200000000000632 ) ) ;
#267 = DIRECTION ( 'NONE',  ( -0.0000000000000000000, -0.0000000000000000000, -1.000000000000000000 ) ) ;
#268 = DIRECTION ( 'NONE',  ( -0.0000000000000000000, -0.0000000000000000000, -1.000000000000000000 ) ) ;
#269 = AXIS2_PLACEMENT_3D ( 'NONE', #332, #125, #335 ) ;
#270 = VECTOR ( 'NONE', #28, 39.37007874015748143 ) ;
#271 = CARTESIAN_POINT ( 'NONE',  ( 0.0000000000000000000, 0.0000000000000000000, 0.02362200000000000064 ) ) ;
#272 = ADVANCED_FACE ( 'NONE', ( #93 ), #254, .T. ) ;
#273 = DIRECTION ( 'NONE',  ( -1.000000000000000000, 0.0000000000000000000, 0.0000000000000000000 ) ) ;
#274 = CYLINDRICAL_SURFACE ( 'NONE', #269, 0.009841515750000005142 ) ;
#275 = SURFACE_STYLE_FILL_AREA ( #334 ) ;
#276 = DIRECTION ( 'NONE',  ( -0.0000000000000000000, -0.0000000000000000000, -1.000000000000000000 ) ) ;
#277 = DIRECTION ( 'NONE',  ( -0.0000000000000000000, -0.0000000000000000000, -1.000000000000000000 ) ) ;
#278 = AXIS2_PLACEMENT_3D ( 'NONE', #151, #268, #89 ) ;
#279 = DIRECTION ( 'NONE',  ( -0.7071067811865358044, 0.0000000000000000000, -0.7071067811865590080 ) ) ;
#280 = CARTESIAN_POINT ( 'NONE',  ( 0.1181100000000000066, 1.446430334472939084E-17, 2.244094000000000033 ) ) ;
#281 = EDGE_LOOP ( 'NONE', ( #143, #338, #285, #219 ) ) ;
#282 = DIRECTION ( 'NONE',  ( -0.0000000000000000000, -0.0000000000000000000, -1.000000000000000000 ) ) ;
#283 = ORIENTED_EDGE ( 'NONE', *, *, #175, .F. ) ;
#284 = AXIS2_PLACEMENT_3D ( 'NONE', #237, #264, #60 ) ;
#285 = ORIENTED_EDGE ( 'NONE', *, *, #236, .F. ) ;
#286 = EDGE_CURVE ( 'NONE', #162, #258, #362, .T. ) ;
#287 = ORIENTED_EDGE ( 'NONE', *, *, #263, .T. ) ;
#288 = CIRCLE ( 'NONE', #374, 0.1181100000000000066 ) ;
#289 = EDGE_LOOP ( 'NONE', ( #20, #139 ) ) ;
#290 = EDGE_LOOP ( 'NONE', ( #231, #79, #78, #234 ) ) ;
#291 = ADVANCED_FACE ( 'NONE', ( #245 ), #183, .T. ) ;
#292 = LENGTH_MEASURE_WITH_UNIT ( LENGTH_MEASURE( 0.02539999999999999897 ), #4 );
#293 = DIRECTION ( 'NONE',  ( -1.000000000000000000, 0.0000000000000000000, 0.0000000000000000000 ) ) ;
#294 = DIRECTION ( 'NONE',  ( -0.0000000000000000000, -0.0000000000000000000, -1.000000000000000000 ) ) ;
#295 = AXIS2_PLACEMENT_3D ( 'NONE', #84, #23, #265 ) ;
#296 = DIRECTION ( 'NONE',  ( 0.0000000000000000000, 0.0000000000000000000, 1.000000000000000000 ) ) ;
#297 = CARTESIAN_POINT ( 'NONE',  ( 0.0000000000000000000, 0.0000000000000000000, 0.0000000000000000000 ) ) ;
#298 = SHAPE_DEFINITION_REPRESENTATION ( #368, #92 ) ;
#299 = SURFACE_STYLE_USAGE ( .BOTH. , #85 ) ;
#300 = EDGE_CURVE ( 'NONE', #336, #366, #248, .T. ) ;
#301 = DIRECTION ( 'NONE',  ( -0.0000000000000000000, -0.0000000000000000000, -1.000000000000000000 ) ) ;
#302 = CARTESIAN_POINT ( 'NONE',  ( 0.009841515750000005142, 1.205238076199577027E-18, 0.02362200000000000064 ) ) ;
#303 = PRODUCT ( 'Micro_SFBM-005-1X', 'Micro_SFBM-005-1X', '', ( #185 ) ) ;
#304 = DIRECTION ( 'NONE',  ( 1.000000000000000000, 0.0000000000000000000, 0.0000000000000000000 ) ) ;
#305 = EDGE_CURVE ( 'NONE', #227, #369, #288, .T. ) ;
#306 =( CONVERSION_BASED_UNIT ( 'INCH', #252 ) LENGTH_UNIT ( ) NAMED_UNIT ( #216 ) );
#307 = AXIS2_PLACEMENT_3D ( 'NONE', #90, #376, #35 ) ;
#308 = ORIENTED_EDGE ( 'NONE', *, *, #236, .T. ) ;
#309 = ORIENTED_EDGE ( 'NONE', *, *, #7, .F. ) ;
#310 = FILL_AREA_STYLE_COLOUR ( '', #190 ) ;
#311 = CARTESIAN_POINT ( 'NONE',  ( 0.0000000000000000000, 0.0000000000000000000, 2.244094000000000033 ) ) ;
#312 = EDGE_CURVE ( 'NONE', #76, #47, #77, .T. ) ;
#313 = CONICAL_SURFACE ( 'NONE', #131, 0.009841515750000005142, 0.1745329251994332531 ) ;
#314 = ORIENTED_EDGE ( 'NONE', *, *, #363, .T. ) ;
#315 = PRODUCT_RELATED_PRODUCT_CATEGORY ( 'part', '', ( #303 ) ) ;
#316 = ORIENTED_EDGE ( 'NONE', *, *, #305, .F. ) ;
#317 = DIRECTION ( 'NONE',  ( 0.0000000000000000000, 0.0000000000000000000, -1.000000000000000000 ) ) ;
#318 = AXIS2_PLACEMENT_3D ( 'NONE', #200, #317, #203 ) ;
#319 = CIRCLE ( 'NONE', #201, 0.009841515750000005142 ) ;
#320 = EDGE_CURVE ( 'NONE', #130, #336, #58, .T. ) ;
#321 = ORIENTED_EDGE ( 'NONE', *, *, #339, .T. ) ;
#322 = UNCERTAINTY_MEASURE_WITH_UNIT (LENGTH_MEASURE( 1.000000000000000082E-05 ), #306, 'distance_accuracy_value', 'NONE');
#323 = DIRECTION ( 'NONE',  ( -1.000000000000000000, 0.0000000000000000000, 0.0000000000000000000 ) ) ;
#324 = PLANE ( 'NONE',  #116 ) ;
#325 = DIRECTION ( 'NONE',  ( 0.0000000000000000000, 0.0000000000000000000, -1.000000000000000000 ) ) ;
#326 = CARTESIAN_POINT ( 'NONE',  ( 0.008858500000000003524, 1.145045721612130312E-18, 0.02919695935137286980 ) ) ;
#327 = CARTESIAN_POINT ( 'NONE',  ( -0.009841515750000005142, 0.0000000000000000000, 0.0000000000000000000 ) ) ;
#328 =( NAMED_UNIT ( * ) PLANE_ANGLE_UNIT ( ) SI_UNIT ( $, .RADIAN. ) );
#329 = DIMENSIONAL_EXPONENTS ( 1.000000000000000000, 0.0000000000000000000, 0.0000000000000000000, 0.0000000000000000000, 0.0000000000000000000, 0.0000000000000000000, 0.0000000000000000000 ) ;
#330 = STYLED_ITEM ( 'NONE', ( #160 ), #92 ) ;
#331 = DIMENSIONAL_EXPONENTS ( 1.000000000000000000, 0.0000000000000000000, 0.0000000000000000000, 0.0000000000000000000, 0.0000000000000000000, 0.0000000000000000000, 0.0000000000000000000 ) ;
#332 = CARTESIAN_POINT ( 'NONE',  ( 0.0000000000000000000, 0.0000000000000000000, 0.0000000000000000000 ) ) ;
#333 = VERTEX_POINT ( 'NONE', #206 ) ;
#334 = FILL_AREA_STYLE ('',( #310 ) ) ;
#335 = DIRECTION ( 'NONE',  ( -1.000000000000000000, 0.0000000000000000000, 0.0000000000000000000 ) ) ;
#336 = VERTEX_POINT ( 'NONE', #326 ) ;
#337 = CYLINDRICAL_SURFACE ( 'NONE', #70, 0.1181100000000000066 ) ;
#338 = ORIENTED_EDGE ( 'NONE', *, *, #226, .T. ) ;
#339 = EDGE_CURVE ( 'NONE', #366, #108, #179, .T. ) ;
#340 = ORIENTED_EDGE ( 'NONE', *, *, #132, .F. ) ;
#341 = ORIENTED_EDGE ( 'NONE', *, *, #220, .T. ) ;
#342 = DIRECTION ( 'NONE',  ( -0.0000000000000000000, -0.0000000000000000000, -1.000000000000000000 ) ) ;
#343 = ORIENTED_EDGE ( 'NONE', *, *, #67, .T. ) ;
#344 = VECTOR ( 'NONE', #276, 39.37007874015748143 ) ;
#345 = CARTESIAN_POINT ( 'NONE',  ( -0.009841515750000005142, 0.0000000000000000000, 0.02362200000000000064 ) ) ;
#346 = SURFACE_STYLE_FILL_AREA ( #239 ) ;
#347 = EDGE_CURVE ( 'NONE', #369, #227, #133, .T. ) ;
#348 = AXIS2_PLACEMENT_3D ( 'NONE', #165, #73, #304 ) ;
#349 = UNCERTAINTY_MEASURE_WITH_UNIT (LENGTH_MEASURE( 1.000000000000000082E-05 ), #126, 'distance_accuracy_value', 'NONE');
#350 = CARTESIAN_POINT ( 'NONE',  ( 0.0000000000000000000, 0.0000000000000000000, 0.02362200000000000064 ) ) ;
#351 = CYLINDRICAL_SURFACE ( 'NONE', #64, 0.008858500000000005259 ) ;
#352 = LINE ( 'NONE', #327, #270 ) ;
#353 = DIRECTION ( 'NONE',  ( 0.0000000000000000000, 0.0000000000000000000, -1.000000000000000000 ) ) ;
#354 = EDGE_CURVE ( 'NONE', #258, #162, #357, .T. ) ;
#355 = DIRECTION ( 'NONE',  ( -1.000000000000000000, 0.0000000000000000000, 0.0000000000000000000 ) ) ;
#356 =( GEOMETRIC_REPRESENTATION_CONTEXT ( 3 ) GLOBAL_UNCERTAINTY_ASSIGNED_CONTEXT ( ( #83 ) ) GLOBAL_UNIT_ASSIGNED_CONTEXT ( ( #238, #328, #127 ) ) REPRESENTATION_CONTEXT ( 'NONE', 'WORKASPACE' ) );
#357 = CIRCLE ( 'NONE', #348, 0.1031100000000002570 ) ;
#358 = DIRECTION ( 'NONE',  ( -0.0000000000000000000, -0.0000000000000000000, -1.000000000000000000 ) ) ;
#359 = LINE ( 'NONE', #192, #50 ) ;
#360 = ADVANCED_FACE ( 'NONE', ( #189 ), #13, .F. ) ;
#361 = CLOSED_SHELL ( 'NONE', ( #191, #207, #56, #80, #184, #169, #110, #291, #210, #272, #157, #91, #360 ) ) ;
#362 = CIRCLE ( 'NONE', #224, 0.1031100000000002570 ) ;
#363 = EDGE_CURVE ( 'NONE', #258, #364, #34, .T. ) ;
#364 = VERTEX_POINT ( 'NONE', #98 ) ;
#365 = CIRCLE ( 'NONE', #96, 0.009841515750000005142 ) ;
#366 = VERTEX_POINT ( 'NONE', #223 ) ;
#367 = EDGE_LOOP ( 'NONE', ( #308, #194, #107, #46 ) ) ;
#368 = PRODUCT_DEFINITION_SHAPE ( 'NONE', 'NONE',  #19 ) ;
#369 = VERTEX_POINT ( 'NONE', #255 ) ;
#370 = CARTESIAN_POINT ( 'NONE',  ( 0.008858500000000005259, 1.084853367024683404E-18, 0.0000000000000000000 ) ) ;
#371 = DIRECTION ( 'NONE',  ( -0.1736481776669306365, 0.0000000000000000000, -0.9848077530122080203 ) ) ;
#372 = DIRECTION ( 'NONE',  ( -0.0000000000000000000, -0.0000000000000000000, -1.000000000000000000 ) ) ;
#373 = LINE ( 'NONE', #244, #124 ) ;
#374 = AXIS2_PLACEMENT_3D ( 'NONE', #177, #212, #240 ) ;
#375 = CARTESIAN_POINT ( 'NONE',  ( 0.0000000000000000000, 0.0000000000000000000, 2.244094000000000033 ) ) ;
#376 = DIRECTION ( 'NONE',  ( -0.0000000000000000000, -0.0000000000000000000, -1.000000000000000000 ) ) ;
#377 = DIRECTION ( 'NONE',  ( -0.0000000000000000000, -0.0000000000000000000, -1.000000000000000000 ) ) ;
#378 = LINE ( 'NONE', #280, #344 ) ;
#379 = DIRECTION ( 'NONE',  ( -1.000000000000000000, 0.0000000000000000000, 0.0000000000000000000 ) ) ;
ENDSEC;
END-ISO-10303-21;
