ISO-10303-21;
HEADER;
FILE_DESCRIPTION (( 'STEP AP214' ),
    '1' );
FILE_NAME ('Micro_SME-025-2.STEP',
    '2021-09-02T11:09:18',
    ( '' ),
    ( '' ),
    'SwSTEP 2.0',
    'SolidWorks 2020',
    '' );
FILE_SCHEMA (( 'AUTOMOTIVE_DESIGN' ));
ENDSEC;

DATA;
#1 = CARTESIAN_POINT ( 'NONE',  ( 4.531193156845208389E-18, 0.0000000000000000000, 0.03699999999999999817 ) ) ;
#2 = CARTESIAN_POINT ( 'NONE',  ( 0.04750000000000064587, 6.735557395310483192E-18, 1.500000000000000222 ) ) ;
#3 = EDGE_CURVE ( 'NONE', #282, #34, #283, .T. ) ;
#4 =( NAMED_UNIT ( * ) SI_UNIT ( $, .STERADIAN. ) SOLID_ANGLE_UNIT ( ) );
#5 = AXIS2_PLACEMENT_3D ( 'NONE', #223, #21, #227 ) ;
#6 = LINE ( 'NONE', #194, #255 ) ;
#7 =( NAMED_UNIT ( * ) PLANE_ANGLE_UNIT ( ) SI_UNIT ( $, .RADIAN. ) );
#8 = EDGE_LOOP ( 'NONE', ( #175, #135, #191, #137 ) ) ;
#9 = ORIENTED_EDGE ( 'NONE', *, *, #75, .T. ) ;
#10 = UNCERTAINTY_MEASURE_WITH_UNIT (LENGTH_MEASURE( 1.000000000000000082E-05 ), #61, 'distance_accuracy_value', 'NONE');
#11 = ORIENTED_EDGE ( 'NONE', *, *, #27, .F. ) ;
#12 = APPLICATION_PROTOCOL_DEFINITION ( 'draft international standard', 'automotive_design', 1998, #273 ) ;
#13 = VECTOR ( 'NONE', #272, 39.37007874015748854 ) ;
#14 = DIRECTION ( 'NONE',  ( 1.000000000000000000, 0.0000000000000000000, 0.0000000000000000000 ) ) ;
#15 = ADVANCED_FACE ( 'NONE', ( #215 ), #49, .T. ) ;
#16 = DIRECTION ( 'NONE',  ( 0.0000000000000000000, 0.0000000000000000000, -1.000000000000000000 ) ) ;
#17 = CARTESIAN_POINT ( 'NONE',  ( 0.0000000000000000000, 0.0000000000000000000, 0.0000000000000000000 ) ) ;
#18 = EDGE_CURVE ( 'NONE', #83, #195, #57, .T. ) ;
#19 = DIRECTION ( 'NONE',  ( -1.224646799147353700E-16, -0.0000000000000000000, -1.000000000000000000 ) ) ;
#20 = CONICAL_SURFACE ( 'NONE', #222, 0.04750000000000064587, 0.7853981633974466137 ) ;
#21 = DIRECTION ( 'NONE',  ( 0.0000000000000000000, 0.0000000000000000000, 1.000000000000000000 ) ) ;
#22 = DIRECTION ( 'NONE',  ( -1.000000000000000000, 0.0000000000000000000, 1.224646799147353700E-16 ) ) ;
#23 = PRODUCT ( 'Micro_SME-025-2', 'Micro_SME-025-2', '', ( #219 ) ) ;
#24 = FACE_OUTER_BOUND ( 'NONE', #176, .T. ) ;
#25 = EDGE_CURVE ( 'NONE', #282, #193, #6, .T. ) ;
#26 = CARTESIAN_POINT ( 'NONE',  ( 0.0000000000000000000, 0.0000000000000000000, 1.500000000000000222 ) ) ;
#27 = EDGE_CURVE ( 'NONE', #60, #242, #116, .T. ) ;
#28 =( NAMED_UNIT ( * ) SI_UNIT ( $, .STERADIAN. ) SOLID_ANGLE_UNIT ( ) );
#29 = DIRECTION ( 'NONE',  ( 1.000000000000000000, 0.0000000000000000000, 0.0000000000000000000 ) ) ;
#30 = PRODUCT_DEFINITION_CONTEXT ( 'detailed design', #273, 'design' ) ;
#31 = DIRECTION ( 'NONE',  ( -1.000000000000000000, 0.0000000000000000000, 1.224646799147353700E-16 ) ) ;
#32 = AXIS2_PLACEMENT_3D ( 'NONE', #50, #133, #31 ) ;
#33 = ORIENTED_EDGE ( 'NONE', *, *, #170, .T. ) ;
#34 = VERTEX_POINT ( 'NONE', #284 ) ;
#35 = ORIENTED_EDGE ( 'NONE', *, *, #247, .T. ) ;
#36 = ADVANCED_FACE ( 'NONE', ( #289 ), #78, .T. ) ;
#37 = DIMENSIONAL_EXPONENTS ( 1.000000000000000000, 0.0000000000000000000, 0.0000000000000000000, 0.0000000000000000000, 0.0000000000000000000, 0.0000000000000000000, 0.0000000000000000000 ) ;
#38 = MECHANICAL_DESIGN_GEOMETRIC_PRESENTATION_REPRESENTATION (  '', ( #46 ), #154 ) ;
#39 = EDGE_LOOP ( 'NONE', ( #110, #9, #237, #108 ) ) ;
#40 =( NAMED_UNIT ( * ) PLANE_ANGLE_UNIT ( ) SI_UNIT ( $, .RADIAN. ) );
#41 = CYLINDRICAL_SURFACE ( 'NONE', #132, 0.01248750000000000034 ) ;
#42 = PRODUCT_DEFINITION ( 'UNKNOWN', '', #45, #30 ) ;
#43 = DIRECTION ( 'NONE',  ( -0.7071067811865462405, 0.0000000000000000000, -0.7071067811865486830 ) ) ;
#44 = DIRECTION ( 'NONE',  ( -0.0000000000000000000, -0.0000000000000000000, -1.000000000000000000 ) ) ;
#45 = PRODUCT_DEFINITION_FORMATION_WITH_SPECIFIED_SOURCE ( 'ANY', '', #23, .NOT_KNOWN. ) ;
#46 = STYLED_ITEM ( 'NONE', ( #190 ), #276 ) ;
#47 = CARTESIAN_POINT ( 'NONE',  ( -0.01248749999999999860, 4.591660092553109051E-18, 0.03699999999999999817 ) ) ;
#48 = PLANE ( 'NONE',  #71 ) ;
#49 = CONICAL_SURFACE ( 'NONE', #216, 0.01248750000000000207, 0.1745329251994338915 ) ;
#50 = CARTESIAN_POINT ( 'NONE',  ( 1.872825028598996265E-34, 0.0000000000000000000, 1.529277690435257860E-18 ) ) ;
#51 = ADVANCED_FACE ( 'NONE', ( #292 ), #48, .T. ) ;
#52 = FILL_AREA_STYLE_COLOUR ( '', #200 ) ;
#53 = CARTESIAN_POINT ( 'NONE',  ( 4.531193156845208389E-18, 0.0000000000000000000, 0.03699999999999999817 ) ) ;
#54 = DIRECTION ( 'NONE',  ( 1.224646799147353700E-16, 0.0000000000000000000, 1.000000000000000000 ) ) ;
#55 = ORIENTED_EDGE ( 'NONE', *, *, #102, .T. ) ;
#56 = UNCERTAINTY_MEASURE_WITH_UNIT (LENGTH_MEASURE( 1.000000000000000082E-05 ), #260, 'distance_accuracy_value', 'NONE');
#57 = CIRCLE ( 'NONE', #76, 0.04750000000000064587 ) ;
#58 = VERTEX_POINT ( 'NONE', #47 ) ;
#59 = PRESENTATION_STYLE_ASSIGNMENT (( #196 ) ) ;
#60 = VERTEX_POINT ( 'NONE', #275 ) ;
#61 =( CONVERSION_BASED_UNIT ( 'INCH', #239 ) LENGTH_UNIT ( ) NAMED_UNIT ( #37 ) );
#62 = VECTOR ( 'NONE', #186, 39.37007874015747433 ) ;
#63 = VERTEX_POINT ( 'NONE', #67 ) ;
#64 = EDGE_CURVE ( 'NONE', #60, #58, #203, .T. ) ;
#65 = SURFACE_SIDE_STYLE ('',( #263 ) ) ;
#66 = CARTESIAN_POINT ( 'NONE',  ( 0.04750000000000064587, 5.817072295950006528E-18, 1.500000000000000222 ) ) ;
#67 = CARTESIAN_POINT ( 'NONE',  ( 0.01248750000000000034, 1.529277690435257475E-18, 0.0000000000000000000 ) ) ;
#68 = PRESENTATION_LAYER_ASSIGNMENT (  '', '', ( #112 ) ) ;
#69 = EDGE_CURVE ( 'NONE', #242, #193, #249, .T. ) ;
#70 = FACE_OUTER_BOUND ( 'NONE', #218, .T. ) ;
#71 = AXIS2_PLACEMENT_3D ( 'NONE', #119, #141, #199 ) ;
#72 = CARTESIAN_POINT ( 'NONE',  ( 1.872825028598996265E-34, 0.0000000000000000000, 1.529277690435257860E-18 ) ) ;
#73 = CARTESIAN_POINT ( 'NONE',  ( -0.06249999999999997918, 0.0000000000000000000, 0.3206349820036292764 ) ) ;
#74 = CARTESIAN_POINT ( 'NONE',  ( -0.01248750000000000034, 0.0000000000000000000, 3.058555380870515720E-18 ) ) ;
#75 = EDGE_CURVE ( 'NONE', #34, #282, #118, .T. ) ;
#76 = AXIS2_PLACEMENT_3D ( 'NONE', #106, #113, #172 ) ;
#77 = CIRCLE ( 'NONE', #286, 0.06250000000000002776 ) ;
#78 = CONICAL_SURFACE ( 'NONE', #146, 0.01248750000000000207, 0.1745329251994338915 ) ;
#79 =( NAMED_UNIT ( * ) PLANE_ANGLE_UNIT ( ) SI_UNIT ( $, .RADIAN. ) );
#80 = SURFACE_SIDE_STYLE ('',( #150 ) ) ;
#81 = DIRECTION ( 'NONE',  ( 1.224646799147353700E-16, 0.0000000000000000000, 1.000000000000000000 ) ) ;
#82 = ORIENTED_EDGE ( 'NONE', *, *, #123, .F. ) ;
#83 = VERTEX_POINT ( 'NONE', #2 ) ;
#84 = ADVANCED_FACE ( 'NONE', ( #24 ), #147, .T. ) ;
#85 = COLOUR_RGB ( '',0.7921568627450980005, 0.8196078431372548767, 0.9333333333333333481 ) ;
#86 = ORIENTED_EDGE ( 'NONE', *, *, #236, .T. ) ;
#87 = ORIENTED_EDGE ( 'NONE', *, *, #107, .T. ) ;
#88 = ADVANCED_FACE ( 'NONE', ( #201 ), #245, .T. ) ;
#89 = DIRECTION ( 'NONE',  ( 1.000000000000000000, 0.0000000000000000000, 0.0000000000000000000 ) ) ;
#90 = FILL_AREA_STYLE_COLOUR ( '', #85 ) ;
#91 = CARTESIAN_POINT ( 'NONE',  ( 0.0000000000000000000, 0.0000000000000000000, 1.500000000000000222 ) ) ;
#92 = DIRECTION ( 'NONE',  ( 0.0000000000000000000, 0.0000000000000000000, -1.000000000000000000 ) ) ;
#93 = EDGE_CURVE ( 'NONE', #58, #177, #228, .T. ) ;
#94 =( GEOMETRIC_REPRESENTATION_CONTEXT ( 3 ) GLOBAL_UNCERTAINTY_ASSIGNED_CONTEXT ( ( #10 ) ) GLOBAL_UNIT_ASSIGNED_CONTEXT ( ( #61, #40, #217 ) ) REPRESENTATION_CONTEXT ( 'NONE', 'WORKASPACE' ) );
#95 = ORIENTED_EDGE ( 'NONE', *, *, #129, .T. ) ;
#96 = ADVANCED_FACE ( 'NONE', ( #145 ), #294, .T. ) ;
#97 = ORIENTED_EDGE ( 'NONE', *, *, #247, .F. ) ;
#98 = DIRECTION ( 'NONE',  ( -1.000000000000000000, 0.0000000000000000000, 0.0000000000000000000 ) ) ;
#99 =( GEOMETRIC_REPRESENTATION_CONTEXT ( 3 ) GLOBAL_UNCERTAINTY_ASSIGNED_CONTEXT ( ( #235 ) ) GLOBAL_UNIT_ASSIGNED_CONTEXT ( ( #187, #79, #28 ) ) REPRESENTATION_CONTEXT ( 'NONE', 'WORKASPACE' ) );
#100 = DIRECTION ( 'NONE',  ( -1.000000000000000000, 0.0000000000000000000, 1.224646799147353700E-16 ) ) ;
#101 = LENGTH_MEASURE_WITH_UNIT ( LENGTH_MEASURE( 0.02539999999999999897 ), #169 );
#102 = EDGE_CURVE ( 'NONE', #60, #63, #252, .T. ) ;
#103 = CARTESIAN_POINT ( 'NONE',  ( -0.06250000000000002776, 0.0000000000000000000, 1.485000000000000764 ) ) ;
#104 = CIRCLE ( 'NONE', #32, 0.01248750000000000034 ) ;
#105 = DIRECTION ( 'NONE',  ( -0.0000000000000000000, -0.0000000000000000000, -1.000000000000000000 ) ) ;
#106 = CARTESIAN_POINT ( 'NONE',  ( 0.0000000000000000000, 0.0000000000000000000, 1.500000000000000222 ) ) ;
#107 = EDGE_CURVE ( 'NONE', #195, #282, #269, .T. ) ;
#108 = ORIENTED_EDGE ( 'NONE', *, *, #69, .F. ) ;
#109 = CARTESIAN_POINT ( 'NONE',  ( 0.0000000000000000000, 0.0000000000000000000, 1.500000000000000222 ) ) ;
#110 = ORIENTED_EDGE ( 'NONE', *, *, #224, .F. ) ;
#111 = DIRECTION ( 'NONE',  ( 0.0000000000000000000, 0.0000000000000000000, 1.000000000000000000 ) ) ;
#112 = STYLED_ITEM ( 'NONE', ( #59 ), #163 ) ;
#113 = DIRECTION ( 'NONE',  ( 0.0000000000000000000, 0.0000000000000000000, 1.000000000000000000 ) ) ;
#114 = DIMENSIONAL_EXPONENTS ( 1.000000000000000000, 0.0000000000000000000, 0.0000000000000000000, 0.0000000000000000000, 0.0000000000000000000, 0.0000000000000000000, 0.0000000000000000000 ) ;
#115 = ADVANCED_FACE ( 'NONE', ( #270 ), #293, .F. ) ;
#116 = LINE ( 'NONE', #189, #298 ) ;
#117 = DIRECTION ( 'NONE',  ( 0.0000000000000000000, 0.0000000000000000000, -1.000000000000000000 ) ) ;
#118 = CIRCLE ( 'NONE', #122, 0.06250000000000002776 ) ;
#119 = CARTESIAN_POINT ( 'NONE',  ( 0.0000000000000000000, 0.0000000000000000000, 1.500000000000000222 ) ) ;
#120 = DIRECTION ( 'NONE',  ( -1.224646799147353700E-16, -0.0000000000000000000, -1.000000000000000000 ) ) ;
#121 = EDGE_CURVE ( 'NONE', #193, #242, #77, .T. ) ;
#122 = AXIS2_PLACEMENT_3D ( 'NONE', #185, #117, #221 ) ;
#123 = EDGE_CURVE ( 'NONE', #83, #34, #182, .T. ) ;
#124 = CARTESIAN_POINT ( 'NONE',  ( 0.01248750000000000034, 1.529277690435257475E-18, -1.529277690435257860E-18 ) ) ;
#125 = CLOSED_SHELL ( 'NONE', ( #84, #36, #96, #151, #88, #51, #291, #15, #144, #115 ) ) ;
#126 = CYLINDRICAL_SURFACE ( 'NONE', #165, 0.06250000000000002776 ) ;
#127 = ORIENTED_EDGE ( 'NONE', *, *, #93, .T. ) ;
#128 = FILL_AREA_STYLE ('',( #52 ) ) ;
#129 = EDGE_CURVE ( 'NONE', #177, #63, #184, .T. ) ;
#130 = SURFACE_STYLE_USAGE ( .BOTH. , #80 ) ;
#131 = EDGE_LOOP ( 'NONE', ( #266, #213, #139, #209 ) ) ;
#132 = AXIS2_PLACEMENT_3D ( 'NONE', #164, #250, #22 ) ;
#133 = DIRECTION ( 'NONE',  ( -1.224646799147353700E-16, -0.0000000000000000000, -1.000000000000000000 ) ) ;
#134 = EDGE_LOOP ( 'NONE', ( #82, #230, #87, #267 ) ) ;
#135 = ORIENTED_EDGE ( 'NONE', *, *, #64, .F. ) ;
#136 = DIRECTION ( 'NONE',  ( 1.000000000000000000, 0.0000000000000000000, 0.0000000000000000000 ) ) ;
#137 = ORIENTED_EDGE ( 'NONE', *, *, #69, .T. ) ;
#138 = AXIS2_PLACEMENT_3D ( 'NONE', #1, #161, #183 ) ;
#139 = ORIENTED_EDGE ( 'NONE', *, *, #3, .F. ) ;
#140 = CARTESIAN_POINT ( 'NONE',  ( 0.0000000000000000000, 0.0000000000000000000, 1.500000000000000222 ) ) ;
#141 = DIRECTION ( 'NONE',  ( 0.0000000000000000000, 0.0000000000000000000, 1.000000000000000000 ) ) ;
#142 = APPLICATION_PROTOCOL_DEFINITION ( 'draft international standard', 'automotive_design', 1998, #248 ) ;
#143 = VECTOR ( 'NONE', #167, 39.37007874015748143 ) ;
#144 = ADVANCED_FACE ( 'NONE', ( #70 ), #41, .T. ) ;
#145 = FACE_OUTER_BOUND ( 'NONE', #131, .T. ) ;
#146 = AXIS2_PLACEMENT_3D ( 'NONE', #197, #54, #153 ) ;
#147 = CYLINDRICAL_SURFACE ( 'NONE', #268, 0.01248750000000000034 ) ;
#148 = CARTESIAN_POINT ( 'NONE',  ( 0.0000000000000000000, 0.0000000000000000000, 1.500000000000000222 ) ) ;
#149 = LINE ( 'NONE', #168, #143 ) ;
#150 = SURFACE_STYLE_FILL_AREA ( #128 ) ;
#151 = ADVANCED_FACE ( 'NONE', ( #166 ), #126, .T. ) ;
#152 = LINE ( 'NONE', #257, #62 ) ;
#153 = DIRECTION ( 'NONE',  ( 1.000000000000000000, 0.0000000000000000000, 0.0000000000000000000 ) ) ;
#154 =( GEOMETRIC_REPRESENTATION_CONTEXT ( 3 ) GLOBAL_UNCERTAINTY_ASSIGNED_CONTEXT ( ( #56 ) ) GLOBAL_UNIT_ASSIGNED_CONTEXT ( ( #260, #7, #4 ) ) REPRESENTATION_CONTEXT ( 'NONE', 'WORKASPACE' ) );
#155 = ORIENTED_EDGE ( 'NONE', *, *, #3, .T. ) ;
#156 = ORIENTED_EDGE ( 'NONE', *, *, #129, .F. ) ;
#157 = ORIENTED_EDGE ( 'NONE', *, *, #25, .F. ) ;
#158 = CARTESIAN_POINT ( 'NONE',  ( 0.0000000000000000000, 0.0000000000000000000, 0.0000000000000000000 ) ) ;
#159 = CARTESIAN_POINT ( 'NONE',  ( -0.04750000000000064587, 0.0000000000000000000, 1.500000000000000222 ) ) ;
#160 = DIRECTION ( 'NONE',  ( -0.0000000000000000000, -0.0000000000000000000, -1.000000000000000000 ) ) ;
#161 = DIRECTION ( 'NONE',  ( -1.224646799147353700E-16, -0.0000000000000000000, -1.000000000000000000 ) ) ;
#162 = AXIS2_PLACEMENT_3D ( 'NONE', #72, #243, #202 ) ;
#163 = ADVANCED_BREP_SHAPE_REPRESENTATION ( 'Micro_SME-025-2', ( #276, #256 ), #99 ) ;
#164 = CARTESIAN_POINT ( 'NONE',  ( 0.0000000000000000000, 0.0000000000000000000, 0.0000000000000000000 ) ) ;
#165 = AXIS2_PLACEMENT_3D ( 'NONE', #140, #160, #220 ) ;
#166 = FACE_OUTER_BOUND ( 'NONE', #290, .T. ) ;
#167 = DIRECTION ( 'NONE',  ( -0.0000000000000000000, -0.0000000000000000000, -1.000000000000000000 ) ) ;
#168 = CARTESIAN_POINT ( 'NONE',  ( 0.06250000000000002776, 7.654042494670959086E-18, 1.500000000000000222 ) ) ;
#169 =( LENGTH_UNIT ( ) NAMED_UNIT ( * ) SI_UNIT ( $, .METRE. ) );
#170 = EDGE_CURVE ( 'NONE', #195, #83, #179, .T. ) ;
#171 = LENGTH_MEASURE_WITH_UNIT ( LENGTH_MEASURE( 0.02539999999999999897 ), #229 );
#172 = DIRECTION ( 'NONE',  ( 1.000000000000000000, 0.0000000000000000000, 0.0000000000000000000 ) ) ;
#173 = ORIENTED_EDGE ( 'NONE', *, *, #226, .T. ) ;
#174 = AXIS2_PLACEMENT_3D ( 'NONE', #204, #244, #297 ) ;
#175 = ORIENTED_EDGE ( 'NONE', *, *, #236, .F. ) ;
#176 = EDGE_LOOP ( 'NONE', ( #173, #55, #156, #178 ) ) ;
#177 = VERTEX_POINT ( 'NONE', #74 ) ;
#178 = ORIENTED_EDGE ( 'NONE', *, *, #93, .F. ) ;
#179 = CIRCLE ( 'NONE', #274, 0.04750000000000064587 ) ;
#180 = CARTESIAN_POINT ( 'NONE',  ( 3.926646044054139173E-17, 0.0000000000000000000, 0.3206349820036292764 ) ) ;
#181 = CARTESIAN_POINT ( 'NONE',  ( -0.01248750000000000034, 0.0000000000000000000, 1.529277690435257860E-18 ) ) ;
#182 = LINE ( 'NONE', #66, #13 ) ;
#183 = DIRECTION ( 'NONE',  ( -1.000000000000000000, 0.0000000000000000000, 0.0000000000000000000 ) ) ;
#184 = CIRCLE ( 'NONE', #162, 0.01248750000000000034 ) ;
#185 = CARTESIAN_POINT ( 'NONE',  ( 0.0000000000000000000, 0.0000000000000000000, 1.485000000000000764 ) ) ;
#186 = DIRECTION ( 'NONE',  ( -0.1736481776669311916, 2.126576849575783316E-17, 0.9848077530122080203 ) ) ;
#187 =( CONVERSION_BASED_UNIT ( 'INCH', #171 ) LENGTH_UNIT ( ) NAMED_UNIT ( #114 ) );
#188 = AXIS2_PLACEMENT_3D ( 'NONE', #53, #253, #233 ) ;
#189 = CARTESIAN_POINT ( 'NONE',  ( 0.01248750000000000727, 0.0000000000000000000, 0.03699999999999999817 ) ) ;
#190 = PRESENTATION_STYLE_ASSIGNMENT (( #130 ) ) ;
#191 = ORIENTED_EDGE ( 'NONE', *, *, #27, .T. ) ;
#192 = EDGE_LOOP ( 'NONE', ( #264, #86, #238, #11 ) ) ;
#193 = VERTEX_POINT ( 'NONE', #73 ) ;
#194 = CARTESIAN_POINT ( 'NONE',  ( -0.06250000000000002776, 0.0000000000000000000, 1.500000000000000222 ) ) ;
#195 = VERTEX_POINT ( 'NONE', #254 ) ;
#196 = SURFACE_STYLE_USAGE ( .BOTH. , #65 ) ;
#197 = CARTESIAN_POINT ( 'NONE',  ( 4.531193156845208389E-18, 0.0000000000000000000, 0.03699999999999999817 ) ) ;
#198 = PRODUCT_RELATED_PRODUCT_CATEGORY ( 'part', '', ( #23 ) ) ;
#199 = DIRECTION ( 'NONE',  ( 1.000000000000000000, 0.0000000000000000000, -0.0000000000000000000 ) ) ;
#200 = COLOUR_RGB ( '',0.7921568627450980005, 0.8196078431372548767, 0.9333333333333333481 ) ;
#201 = FACE_OUTER_BOUND ( 'NONE', #39, .T. ) ;
#202 = DIRECTION ( 'NONE',  ( -1.000000000000000000, 0.0000000000000000000, 1.224646799147353700E-16 ) ) ;
#203 = CIRCLE ( 'NONE', #138, 0.01248750000000000207 ) ;
#204 = CARTESIAN_POINT ( 'NONE',  ( 3.926646044054139173E-17, 0.0000000000000000000, 0.3206349820036292764 ) ) ;
#205 = DIRECTION ( 'NONE',  ( -1.224646799147353700E-16, -0.0000000000000000000, -1.000000000000000000 ) ) ;
#206 = PRESENTATION_LAYER_ASSIGNMENT (  '', '', ( #46 ) ) ;
#207 = FACE_OUTER_BOUND ( 'NONE', #134, .T. ) ;
#208 = DIRECTION ( 'NONE',  ( 0.0000000000000000000, 0.0000000000000000000, 1.000000000000000000 ) ) ;
#209 = ORIENTED_EDGE ( 'NONE', *, *, #107, .F. ) ;
#210 = CARTESIAN_POINT ( 'NONE',  ( 4.531193156845208389E-18, 0.0000000000000000000, 0.03699999999999999817 ) ) ;
#211 = ORIENTED_EDGE ( 'NONE', *, *, #224, .T. ) ;
#212 = CARTESIAN_POINT ( 'NONE',  ( 0.06250000000000006939, 7.654042494670963708E-18, 0.3206349820036292764 ) ) ;
#213 = ORIENTED_EDGE ( 'NONE', *, *, #123, .T. ) ;
#214 = FILL_AREA_STYLE ('',( #90 ) ) ;
#215 = FACE_OUTER_BOUND ( 'NONE', #8, .T. ) ;
#216 = AXIS2_PLACEMENT_3D ( 'NONE', #210, #81, #14 ) ;
#217 =( NAMED_UNIT ( * ) SI_UNIT ( $, .STERADIAN. ) SOLID_ANGLE_UNIT ( ) );
#218 = EDGE_LOOP ( 'NONE', ( #262, #265, #127, #97 ) ) ;
#219 = PRODUCT_CONTEXT ( 'NONE', #248, 'mechanical' ) ;
#220 = DIRECTION ( 'NONE',  ( -1.000000000000000000, 0.0000000000000000000, 0.0000000000000000000 ) ) ;
#221 = DIRECTION ( 'NONE',  ( 1.000000000000000000, 0.0000000000000000000, 0.0000000000000000000 ) ) ;
#222 = AXIS2_PLACEMENT_3D ( 'NONE', #109, #280, #278 ) ;
#223 = CARTESIAN_POINT ( 'NONE',  ( 0.0000000000000000000, 0.0000000000000000000, 0.0000000000000000000 ) ) ;
#224 = EDGE_CURVE ( 'NONE', #34, #242, #149, .T. ) ;
#225 = CIRCLE ( 'NONE', #188, 0.01248750000000000207 ) ;
#226 = EDGE_CURVE ( 'NONE', #58, #60, #225, .T. ) ;
#227 = DIRECTION ( 'NONE',  ( 1.000000000000000000, 0.0000000000000000000, -0.0000000000000000000 ) ) ;
#228 = LINE ( 'NONE', #181, #271 ) ;
#229 =( LENGTH_UNIT ( ) NAMED_UNIT ( * ) SI_UNIT ( $, .METRE. ) );
#230 = ORIENTED_EDGE ( 'NONE', *, *, #170, .F. ) ;
#231 = EDGE_LOOP ( 'NONE', ( #95, #35 ) ) ;
#232 = ORIENTED_EDGE ( 'NONE', *, *, #18, .T. ) ;
#233 = DIRECTION ( 'NONE',  ( -1.000000000000000000, 0.0000000000000000000, 0.0000000000000000000 ) ) ;
#234 = VECTOR ( 'NONE', #43, 39.37007874015748854 ) ;
#235 = UNCERTAINTY_MEASURE_WITH_UNIT (LENGTH_MEASURE( 1.000000000000000082E-05 ), #187, 'distance_accuracy_value', 'NONE');
#236 = EDGE_CURVE ( 'NONE', #58, #193, #152, .T. ) ;
#237 = ORIENTED_EDGE ( 'NONE', *, *, #25, .T. ) ;
#238 = ORIENTED_EDGE ( 'NONE', *, *, #121, .T. ) ;
#239 = LENGTH_MEASURE_WITH_UNIT ( LENGTH_MEASURE( 0.02539999999999999897 ), #241 );
#240 = ORIENTED_EDGE ( 'NONE', *, *, #121, .F. ) ;
#241 =( LENGTH_UNIT ( ) NAMED_UNIT ( * ) SI_UNIT ( $, .METRE. ) );
#242 = VERTEX_POINT ( 'NONE', #212 ) ;
#243 = DIRECTION ( 'NONE',  ( -1.224646799147353700E-16, -0.0000000000000000000, -1.000000000000000000 ) ) ;
#244 = DIRECTION ( 'NONE',  ( -1.224646799147353700E-16, -0.0000000000000000000, -1.000000000000000000 ) ) ;
#245 = CYLINDRICAL_SURFACE ( 'NONE', #246, 0.06250000000000002776 ) ;
#246 = AXIS2_PLACEMENT_3D ( 'NONE', #148, #44, #296 ) ;
#247 = EDGE_CURVE ( 'NONE', #63, #177, #104, .T. ) ;
#248 = APPLICATION_CONTEXT ( 'automotive_design' ) ;
#249 = CIRCLE ( 'NONE', #174, 0.06250000000000002776 ) ;
#250 = DIRECTION ( 'NONE',  ( -1.224646799147353700E-16, -0.0000000000000000000, -1.000000000000000000 ) ) ;
#251 = PRODUCT_DEFINITION_SHAPE ( 'NONE', 'NONE',  #42 ) ;
#252 = LINE ( 'NONE', #124, #261 ) ;
#253 = DIRECTION ( 'NONE',  ( -1.224646799147353700E-16, -0.0000000000000000000, -1.000000000000000000 ) ) ;
#254 = CARTESIAN_POINT ( 'NONE',  ( -0.04750000000000064587, 0.0000000000000000000, 1.500000000000000222 ) ) ;
#255 = VECTOR ( 'NONE', #105, 39.37007874015748143 ) ;
#256 = AXIS2_PLACEMENT_3D ( 'NONE', #158, #111, #136 ) ;
#257 = CARTESIAN_POINT ( 'NONE',  ( -0.01248749999999999860, 1.529277690435257668E-18, 0.03699999999999999817 ) ) ;
#258 = DIRECTION ( 'NONE',  ( 1.000000000000000000, 0.0000000000000000000, 0.0000000000000000000 ) ) ;
#259 = DIRECTION ( 'NONE',  ( 0.1736481776669313859, 0.0000000000000000000, 0.9848077530122077983 ) ) ;
#260 =( CONVERSION_BASED_UNIT ( 'INCH', #101 ) LENGTH_UNIT ( ) NAMED_UNIT ( #288 ) );
#261 = VECTOR ( 'NONE', #277, 39.37007874015748143 ) ;
#262 = ORIENTED_EDGE ( 'NONE', *, *, #102, .F. ) ;
#263 = SURFACE_STYLE_FILL_AREA ( #214 ) ;
#264 = ORIENTED_EDGE ( 'NONE', *, *, #226, .F. ) ;
#265 = ORIENTED_EDGE ( 'NONE', *, *, #64, .T. ) ;
#266 = ORIENTED_EDGE ( 'NONE', *, *, #18, .F. ) ;
#267 = ORIENTED_EDGE ( 'NONE', *, *, #75, .F. ) ;
#268 = AXIS2_PLACEMENT_3D ( 'NONE', #17, #205, #100 ) ;
#269 = LINE ( 'NONE', #159, #234 ) ;
#270 = FACE_OUTER_BOUND ( 'NONE', #231, .T. ) ;
#271 = VECTOR ( 'NONE', #19, 39.37007874015748143 ) ;
#272 = DIRECTION ( 'NONE',  ( 0.7071067811865462405, 8.659560562354916834E-17, -0.7071067811865486830 ) ) ;
#273 = APPLICATION_CONTEXT ( 'automotive_design' ) ;
#274 = AXIS2_PLACEMENT_3D ( 'NONE', #26, #208, #258 ) ;
#275 = CARTESIAN_POINT ( 'NONE',  ( 0.01248750000000000727, 0.0000000000000000000, 0.03699999999999999817 ) ) ;
#276 = MANIFOLD_SOLID_BREP ( 'Cut-Revolve1', #125 ) ;
#277 = DIRECTION ( 'NONE',  ( -1.224646799147353700E-16, -0.0000000000000000000, -1.000000000000000000 ) ) ;
#278 = DIRECTION ( 'NONE',  ( -1.000000000000000000, 0.0000000000000000000, 0.0000000000000000000 ) ) ;
#279 = AXIS2_PLACEMENT_3D ( 'NONE', #287, #16, #29 ) ;
#280 = DIRECTION ( 'NONE',  ( 0.0000000000000000000, 0.0000000000000000000, -1.000000000000000000 ) ) ;
#281 = AXIS2_PLACEMENT_3D ( 'NONE', #91, #92, #98 ) ;
#282 = VERTEX_POINT ( 'NONE', #103 ) ;
#283 = CIRCLE ( 'NONE', #279, 0.06250000000000002776 ) ;
#284 = CARTESIAN_POINT ( 'NONE',  ( 0.06250000000000002776, 7.654042494670959086E-18, 1.485000000000000764 ) ) ;
#285 = EDGE_LOOP ( 'NONE', ( #33, #232 ) ) ;
#286 = AXIS2_PLACEMENT_3D ( 'NONE', #180, #120, #89 ) ;
#287 = CARTESIAN_POINT ( 'NONE',  ( 0.0000000000000000000, 0.0000000000000000000, 1.485000000000000764 ) ) ;
#288 = DIMENSIONAL_EXPONENTS ( 1.000000000000000000, 0.0000000000000000000, 0.0000000000000000000, 0.0000000000000000000, 0.0000000000000000000, 0.0000000000000000000, 0.0000000000000000000 ) ;
#289 = FACE_OUTER_BOUND ( 'NONE', #192, .T. ) ;
#290 = EDGE_LOOP ( 'NONE', ( #155, #211, #240, #157 ) ) ;
#291 = ADVANCED_FACE ( 'NONE', ( #207 ), #20, .T. ) ;
#292 = FACE_OUTER_BOUND ( 'NONE', #285, .T. ) ;
#293 = PLANE ( 'NONE',  #5 ) ;
#294 = CONICAL_SURFACE ( 'NONE', #281, 0.04750000000000064587, 0.7853981633974466137 ) ;
#295 = SHAPE_DEFINITION_REPRESENTATION ( #251, #163 ) ;
#296 = DIRECTION ( 'NONE',  ( -1.000000000000000000, 0.0000000000000000000, 0.0000000000000000000 ) ) ;
#297 = DIRECTION ( 'NONE',  ( 1.000000000000000000, 0.0000000000000000000, 0.0000000000000000000 ) ) ;
#298 = VECTOR ( 'NONE', #259, 39.37007874015748143 ) ;
#299 = MECHANICAL_DESIGN_GEOMETRIC_PRESENTATION_REPRESENTATION (  '', ( #112 ), #94 ) ;
ENDSEC;
END-ISO-10303-21;
