ISO-10303-21;
HEADER;
FILE_DESCRIPTION (( 'STEP AP214' ),
    '1' );
FILE_NAME ('Micro_SHLM-120-4.STEP',
    '2021-09-02T08:26:44',
    ( '' ),
    ( '' ),
    'SwSTEP 2.0',
    'SolidWorks 2020',
    '' );
FILE_SCHEMA (( 'AUTOMOTIVE_DESIGN' ));
ENDSEC;

DATA;
#1 = CONICAL_SURFACE ( 'NONE', #158, 0.2212204999999994870, 0.7853981633974573828 ) ;
#2 = ORIENTED_EDGE ( 'NONE', *, *, #147, .F. ) ;
#3 = FACE_OUTER_BOUND ( 'NONE', #241, .T. ) ;
#4 = DIRECTION ( 'NONE',  ( -1.224646799147353207E-16, -0.0000000000000000000, -1.000000000000000000 ) ) ;
#5 = DIRECTION ( 'NONE',  ( -1.000000000000000000, 0.0000000000000000000, 0.0000000000000000000 ) ) ;
#6 = CARTESIAN_POINT ( 'NONE',  ( -0.2359842795000000049, 0.0000000000000000000, 5.779947850775387426E-17 ) ) ;
#7 = CARTESIAN_POINT ( 'NONE',  ( 2.410722122708761257E-16, 0.0000000000000000000, 1.968503999999999809 ) ) ;
#8 = DIRECTION ( 'NONE',  ( 1.000000000000000000, 0.0000000000000000000, 0.0000000000000000000 ) ) ;
#9 = DIRECTION ( 'NONE',  ( 1.000000000000000000, 0.0000000000000000000, 0.0000000000000000000 ) ) ;
#10 = CARTESIAN_POINT ( 'NONE',  ( 0.0000000000000000000, 0.0000000000000000000, 0.0000000000000000000 ) ) ;
#11 = VERTEX_POINT ( 'NONE', #163 ) ;
#12 = CYLINDRICAL_SURFACE ( 'NONE', #185, 0.2362204999999999999 ) ;
#13 = LENGTH_MEASURE_WITH_UNIT ( LENGTH_MEASURE( 0.02539999999999999897 ), #180 );
#14 = DIMENSIONAL_EXPONENTS ( 1.000000000000000000, 0.0000000000000000000, 0.0000000000000000000, 0.0000000000000000000, 0.0000000000000000000, 0.0000000000000000000, 0.0000000000000000000 ) ;
#15 = EDGE_CURVE ( 'NONE', #196, #264, #105, .T. ) ;
#16 = UNCERTAINTY_MEASURE_WITH_UNIT (LENGTH_MEASURE( 1.000000000000000082E-05 ), #279, 'distance_accuracy_value', 'NONE');
#17 = AXIS2_PLACEMENT_3D ( 'NONE', #251, #35, #8 ) ;
#18 = FACE_OUTER_BOUND ( 'NONE', #73, .T. ) ;
#19 = ORIENTED_EDGE ( 'NONE', *, *, #101, .T. ) ;
#20 = ORIENTED_EDGE ( 'NONE', *, *, #289, .T. ) ;
#21 = ORIENTED_EDGE ( 'NONE', *, *, #132, .T. ) ;
#22 =( NAMED_UNIT ( * ) SI_UNIT ( $, .STERADIAN. ) SOLID_ANGLE_UNIT ( ) );
#23 = EDGE_LOOP ( 'NONE', ( #117, #287, #215, #114 ) ) ;
#24 =( GEOMETRIC_REPRESENTATION_CONTEXT ( 3 ) GLOBAL_UNCERTAINTY_ASSIGNED_CONTEXT ( ( #186 ) ) GLOBAL_UNIT_ASSIGNED_CONTEXT ( ( #74, #97, #142 ) ) REPRESENTATION_CONTEXT ( 'NONE', 'WORKASPACE' ) );
#25 = FILL_AREA_STYLE ('',( #276 ) ) ;
#26 = DIRECTION ( 'NONE',  ( 1.000000000000000000, 0.0000000000000000000, 0.0000000000000000000 ) ) ;
#27 = ORIENTED_EDGE ( 'NONE', *, *, #289, .F. ) ;
#28 = DIRECTION ( 'NONE',  ( -1.224646799147353207E-16, -0.0000000000000000000, -1.000000000000000000 ) ) ;
#29 = DIRECTION ( 'NONE',  ( -1.224646799147353207E-16, -0.0000000000000000000, -1.000000000000000000 ) ) ;
#30 = DIRECTION ( 'NONE',  ( 0.7071067811865540120, 8.659560562355011744E-17, -0.7071067811865410224 ) ) ;
#31 = CARTESIAN_POINT ( 'NONE',  ( 0.0000000000000000000, 0.0000000000000000000, 3.937007999999999619 ) ) ;
#32 = CARTESIAN_POINT ( 'NONE',  ( 3.539197317345351204E-33, 0.0000000000000000000, 2.889973925387693713E-17 ) ) ;
#33 = CARTESIAN_POINT ( 'NONE',  ( 0.2359842795000000049, 2.889973925387693713E-17, 0.0000000000000000000 ) ) ;
#34 = VECTOR ( 'NONE', #28, 39.37007874015748143 ) ;
#35 = DIRECTION ( 'NONE',  ( 0.0000000000000000000, 0.0000000000000000000, 1.000000000000000000 ) ) ;
#36 = PRESENTATION_STYLE_ASSIGNMENT (( #157 ) ) ;
#37 = ORIENTED_EDGE ( 'NONE', *, *, #137, .T. ) ;
#38 = VERTEX_POINT ( 'NONE', #112 ) ;
#39 = EDGE_CURVE ( 'NONE', #296, #38, #106, .T. ) ;
#40 = CARTESIAN_POINT ( 'NONE',  ( -0.2359842794999997828, 2.889973925387693713E-17, 1.968503999999999809 ) ) ;
#41 = CIRCLE ( 'NONE', #61, 0.2212204999999994870 ) ;
#42 = EDGE_LOOP ( 'NONE', ( #151, #145, #141, #168 ) ) ;
#43 = EDGE_CURVE ( 'NONE', #191, #197, #60, .T. ) ;
#44 = AXIS2_PLACEMENT_3D ( 'NONE', #58, #124, #9 ) ;
#45 = CARTESIAN_POINT ( 'NONE',  ( 0.2359842795000002547, 0.0000000000000000000, 1.968503999999999809 ) ) ;
#46 = ORIENTED_EDGE ( 'NONE', *, *, #159, .F. ) ;
#47 = ADVANCED_FACE ( 'NONE', ( #174 ), #271, .T. ) ;
#48 = ORIENTED_EDGE ( 'NONE', *, *, #292, .F. ) ;
#49 = SURFACE_STYLE_FILL_AREA ( #25 ) ;
#50 = ORIENTED_EDGE ( 'NONE', *, *, #101, .F. ) ;
#51 = ADVANCED_FACE ( 'NONE', ( #150 ), #285, .T. ) ;
#52 = DIRECTION ( 'NONE',  ( -1.224646799147353207E-16, -0.0000000000000000000, -1.000000000000000000 ) ) ;
#53 = VERTEX_POINT ( 'NONE', #254 ) ;
#54 = LINE ( 'NONE', #146, #34 ) ;
#55 = CIRCLE ( 'NONE', #127, 0.2359842795000000049 ) ;
#56 = CONICAL_SURFACE ( 'NONE', #252, 0.2212204999999994870, 0.7853981633974573828 ) ;
#57 = LINE ( 'NONE', #109, #128 ) ;
#58 = CARTESIAN_POINT ( 'NONE',  ( 0.0000000000000000000, 0.0000000000000000000, 3.922007999999999495 ) ) ;
#59 = DIRECTION ( 'NONE',  ( 1.224646799147353207E-16, 0.0000000000000000000, 1.000000000000000000 ) ) ;
#60 = CIRCLE ( 'NONE', #44, 0.2362204999999999999 ) ;
#61 = AXIS2_PLACEMENT_3D ( 'NONE', #182, #156, #125 ) ;
#62 = FILL_AREA_STYLE_COLOUR ( '', #293 ) ;
#63 = CARTESIAN_POINT ( 'NONE',  ( 0.0000000000000000000, 0.0000000000000000000, 3.937007999999999619 ) ) ;
#64 = EDGE_CURVE ( 'NONE', #264, #196, #55, .T. ) ;
#65 = MANIFOLD_SOLID_BREP ( 'Cut-Revolve1', #242 ) ;
#66 = ORIENTED_EDGE ( 'NONE', *, *, #292, .T. ) ;
#67 = CONICAL_SURFACE ( 'NONE', #207, 0.2359842795000000049, 0.1745329251994338915 ) ;
#68 = ADVANCED_FACE ( 'NONE', ( #148 ), #288, .T. ) ;
#69 =( GEOMETRIC_REPRESENTATION_CONTEXT ( 3 ) GLOBAL_UNCERTAINTY_ASSIGNED_CONTEXT ( ( #130 ) ) GLOBAL_UNIT_ASSIGNED_CONTEXT ( ( #78, #177, #205 ) ) REPRESENTATION_CONTEXT ( 'NONE', 'WORKASPACE' ) );
#70 = CARTESIAN_POINT ( 'NONE',  ( 0.0000000000000000000, 0.0000000000000000000, 3.922007999999999495 ) ) ;
#71 = ADVANCED_FACE ( 'NONE', ( #224 ), #67, .T. ) ;
#72 = EDGE_LOOP ( 'NONE', ( #2, #110, #91, #299 ) ) ;
#73 = EDGE_LOOP ( 'NONE', ( #50, #212, #129, #27 ) ) ;
#74 =( CONVERSION_BASED_UNIT ( 'INCH', #140 ) LENGTH_UNIT ( ) NAMED_UNIT ( #14 ) );
#75 = CARTESIAN_POINT ( 'NONE',  ( 2.412362748993267856E-16, 0.0000000000000000000, 1.969843673027070974 ) ) ;
#76 = DIRECTION ( 'NONE',  ( -1.224646799147353207E-16, -0.0000000000000000000, -1.000000000000000000 ) ) ;
#77 = DIRECTION ( 'NONE',  ( -0.1736481776669311916, 2.126576849575783316E-17, 0.9848077530122080203 ) ) ;
#78 =( CONVERSION_BASED_UNIT ( 'INCH', #13 ) LENGTH_UNIT ( ) NAMED_UNIT ( #121 ) );
#79 = LINE ( 'NONE', #274, #282 ) ;
#80 = CYLINDRICAL_SURFACE ( 'NONE', #227, 0.2359842795000000049 ) ;
#81 = DIRECTION ( 'NONE',  ( 1.000000000000000000, 0.0000000000000000000, 0.0000000000000000000 ) ) ;
#82 = DIRECTION ( 'NONE',  ( -1.224646799147353207E-16, -0.0000000000000000000, -1.000000000000000000 ) ) ;
#83 = CARTESIAN_POINT ( 'NONE',  ( 0.2362205000000002775, 2.892866792179876961E-17, 1.969843673027070974 ) ) ;
#84 =( GEOMETRIC_REPRESENTATION_CONTEXT ( 3 ) GLOBAL_UNCERTAINTY_ASSIGNED_CONTEXT ( ( #16 ) ) GLOBAL_UNIT_ASSIGNED_CONTEXT ( ( #279, #263, #22 ) ) REPRESENTATION_CONTEXT ( 'NONE', 'WORKASPACE' ) );
#85 = DIRECTION ( 'NONE',  ( -1.000000000000000000, 0.0000000000000000000, 0.0000000000000000000 ) ) ;
#86 = ADVANCED_FACE ( 'NONE', ( #284 ), #80, .T. ) ;
#87 = EDGE_CURVE ( 'NONE', #298, #38, #291, .T. ) ;
#88 = MECHANICAL_DESIGN_GEOMETRIC_PRESENTATION_REPRESENTATION (  '', ( #262 ), #24 ) ;
#89 = CARTESIAN_POINT ( 'NONE',  ( 2.412362748993267856E-16, 0.0000000000000000000, 1.969843673027070974 ) ) ;
#90 = DIRECTION ( 'NONE',  ( 1.000000000000000000, 0.0000000000000000000, 0.0000000000000000000 ) ) ;
#91 = ORIENTED_EDGE ( 'NONE', *, *, #237, .T. ) ;
#92 = ORIENTED_EDGE ( 'NONE', *, *, #64, .F. ) ;
#93 = ADVANCED_FACE ( 'NONE', ( #229 ), #12, .T. ) ;
#94 = ORIENTED_EDGE ( 'NONE', *, *, #147, .T. ) ;
#95 = LENGTH_MEASURE_WITH_UNIT ( LENGTH_MEASURE( 0.02539999999999999897 ), #213 );
#96 = CARTESIAN_POINT ( 'NONE',  ( -0.2362204999999999999, 0.0000000000000000000, 3.922007999999999495 ) ) ;
#97 =( NAMED_UNIT ( * ) PLANE_ANGLE_UNIT ( ) SI_UNIT ( $, .RADIAN. ) );
#98 = ORIENTED_EDGE ( 'NONE', *, *, #237, .F. ) ;
#99 = DIRECTION ( 'NONE',  ( 0.0000000000000000000, 0.0000000000000000000, -1.000000000000000000 ) ) ;
#100 = CARTESIAN_POINT ( 'NONE',  ( -0.2212204999999994870, 0.0000000000000000000, 3.937007999999999619 ) ) ;
#101 = EDGE_CURVE ( 'NONE', #11, #53, #102, .T. ) ;
#102 = CIRCLE ( 'NONE', #17, 0.2212204999999994870 ) ;
#103 = DIMENSIONAL_EXPONENTS ( 1.000000000000000000, 0.0000000000000000000, 0.0000000000000000000, 0.0000000000000000000, 0.0000000000000000000, 0.0000000000000000000, 0.0000000000000000000 ) ;
#104 = FILL_AREA_STYLE ('',( #62 ) ) ;
#105 = CIRCLE ( 'NONE', #107, 0.2359842795000000049 ) ;
#106 = CIRCLE ( 'NONE', #193, 0.2362204999999999999 ) ;
#107 = AXIS2_PLACEMENT_3D ( 'NONE', #233, #136, #153 ) ;
#108 = CIRCLE ( 'NONE', #200, 0.2359842795000000049 ) ;
#109 = CARTESIAN_POINT ( 'NONE',  ( -0.2362204999999999999, 0.0000000000000000000, 3.937007999999999619 ) ) ;
#110 = ORIENTED_EDGE ( 'NONE', *, *, #43, .T. ) ;
#111 = ADVANCED_FACE ( 'NONE', ( #253 ), #56, .T. ) ;
#112 = CARTESIAN_POINT ( 'NONE',  ( -0.2362204999999997779, 0.0000000000000000000, 1.969843673027070974 ) ) ;
#113 = DIRECTION ( 'NONE',  ( 0.0000000000000000000, 0.0000000000000000000, 1.000000000000000000 ) ) ;
#114 = ORIENTED_EDGE ( 'NONE', *, *, #39, .T. ) ;
#115 = DIRECTION ( 'NONE',  ( 0.1736481776669313859, 0.0000000000000000000, 0.9848077530122077983 ) ) ;
#116 = APPLICATION_PROTOCOL_DEFINITION ( 'draft international standard', 'automotive_design', 1998, #273 ) ;
#117 = ORIENTED_EDGE ( 'NONE', *, *, #87, .F. ) ;
#118 = CARTESIAN_POINT ( 'NONE',  ( 0.0000000000000000000, 0.0000000000000000000, 0.0000000000000000000 ) ) ;
#119 = DIRECTION ( 'NONE',  ( 0.0000000000000000000, 0.0000000000000000000, -1.000000000000000000 ) ) ;
#120 = DIRECTION ( 'NONE',  ( -1.000000000000000000, 0.0000000000000000000, 0.0000000000000000000 ) ) ;
#121 = DIMENSIONAL_EXPONENTS ( 1.000000000000000000, 0.0000000000000000000, 0.0000000000000000000, 0.0000000000000000000, 0.0000000000000000000, 0.0000000000000000000, 0.0000000000000000000 ) ;
#122 = LINE ( 'NONE', #281, #272 ) ;
#123 = CIRCLE ( 'NONE', #160, 0.2362204999999999999 ) ;
#124 = DIRECTION ( 'NONE',  ( 0.0000000000000000000, 0.0000000000000000000, -1.000000000000000000 ) ) ;
#125 = DIRECTION ( 'NONE',  ( 1.000000000000000000, 0.0000000000000000000, 0.0000000000000000000 ) ) ;
#126 = DIRECTION ( 'NONE',  ( -0.0000000000000000000, -0.0000000000000000000, -1.000000000000000000 ) ) ;
#127 = AXIS2_PLACEMENT_3D ( 'NONE', #32, #82, #199 ) ;
#128 = VECTOR ( 'NONE', #149, 39.37007874015748143 ) ;
#129 = ORIENTED_EDGE ( 'NONE', *, *, #137, .F. ) ;
#130 = UNCERTAINTY_MEASURE_WITH_UNIT (LENGTH_MEASURE( 1.000000000000000082E-05 ), #78, 'distance_accuracy_value', 'NONE');
#131 = PRODUCT ( 'Micro_SHLM-120-4', 'Micro_SHLM-120-4', '', ( #178 ) ) ;
#132 = EDGE_CURVE ( 'NONE', #53, #11, #41, .T. ) ;
#133 = PRODUCT_DEFINITION_SHAPE ( 'NONE', 'NONE',  #249 ) ;
#134 = FACE_OUTER_BOUND ( 'NONE', #277, .T. ) ;
#135 = ORIENTED_EDGE ( 'NONE', *, *, #15, .T. ) ;
#136 = DIRECTION ( 'NONE',  ( -1.224646799147353207E-16, -0.0000000000000000000, -1.000000000000000000 ) ) ;
#137 = EDGE_CURVE ( 'NONE', #197, #191, #167, .T. ) ;
#138 = AXIS2_PLACEMENT_3D ( 'NONE', #118, #228, #222 ) ;
#139 = ORIENTED_EDGE ( 'NONE', *, *, #87, .T. ) ;
#140 = LENGTH_MEASURE_WITH_UNIT ( LENGTH_MEASURE( 0.02539999999999999897 ), #169 );
#141 = ORIENTED_EDGE ( 'NONE', *, *, #225, .T. ) ;
#142 =( NAMED_UNIT ( * ) SI_UNIT ( $, .STERADIAN. ) SOLID_ANGLE_UNIT ( ) );
#143 = DIRECTION ( 'NONE',  ( -0.0000000000000000000, -0.0000000000000000000, -1.000000000000000000 ) ) ;
#144 = AXIS2_PLACEMENT_3D ( 'NONE', #239, #113, #280 ) ;
#145 = ORIENTED_EDGE ( 'NONE', *, *, #184, .T. ) ;
#146 = CARTESIAN_POINT ( 'NONE',  ( -0.2359842795000000049, 0.0000000000000000000, 2.889973925387693713E-17 ) ) ;
#147 = EDGE_CURVE ( 'NONE', #191, #296, #79, .T. ) ;
#148 = FACE_OUTER_BOUND ( 'NONE', #195, .T. ) ;
#149 = DIRECTION ( 'NONE',  ( -0.0000000000000000000, -0.0000000000000000000, -1.000000000000000000 ) ) ;
#150 = FACE_OUTER_BOUND ( 'NONE', #245, .T. ) ;
#151 = ORIENTED_EDGE ( 'NONE', *, *, #206, .F. ) ;
#152 = DIRECTION ( 'NONE',  ( -1.000000000000000000, 0.0000000000000000000, 0.0000000000000000000 ) ) ;
#153 = DIRECTION ( 'NONE',  ( -1.000000000000000000, 0.0000000000000000000, 1.224646799147353207E-16 ) ) ;
#154 = DIRECTION ( 'NONE',  ( 1.000000000000000000, 0.0000000000000000000, -0.0000000000000000000 ) ) ;
#155 = PRESENTATION_LAYER_ASSIGNMENT (  '', '', ( #210 ) ) ;
#156 = DIRECTION ( 'NONE',  ( 0.0000000000000000000, 0.0000000000000000000, 1.000000000000000000 ) ) ;
#157 = SURFACE_STYLE_USAGE ( .BOTH. , #268 ) ;
#158 = AXIS2_PLACEMENT_3D ( 'NONE', #209, #119, #226 ) ;
#159 = EDGE_CURVE ( 'NONE', #192, #296, #260, .T. ) ;
#160 = AXIS2_PLACEMENT_3D ( 'NONE', #89, #256, #81 ) ;
#161 = CARTESIAN_POINT ( 'NONE',  ( 0.2212204999999994870, 2.709169772307763601E-17, 3.937007999999999619 ) ) ;
#162 = ORIENTED_EDGE ( 'NONE', *, *, #206, .T. ) ;
#163 = CARTESIAN_POINT ( 'NONE',  ( 0.2212204999999994870, 2.801018282243818278E-17, 3.937007999999999619 ) ) ;
#164 = DIRECTION ( 'NONE',  ( -1.000000000000000000, 0.0000000000000000000, 0.0000000000000000000 ) ) ;
#165 = EDGE_CURVE ( 'NONE', #298, #192, #108, .T. ) ;
#166 = PRESENTATION_STYLE_ASSIGNMENT (( #218 ) ) ;
#167 = CIRCLE ( 'NONE', #235, 0.2362204999999999999 ) ;
#168 = ORIENTED_EDGE ( 'NONE', *, *, #15, .F. ) ;
#169 =( LENGTH_UNIT ( ) NAMED_UNIT ( * ) SI_UNIT ( $, .METRE. ) );
#170 = ORIENTED_EDGE ( 'NONE', *, *, #165, .F. ) ;
#171 = DIRECTION ( 'NONE',  ( 1.000000000000000000, 0.0000000000000000000, 0.0000000000000000000 ) ) ;
#172 = AXIS2_PLACEMENT_3D ( 'NONE', #246, #236, #90 ) ;
#173 = PLANE ( 'NONE',  #138 ) ;
#174 = FACE_OUTER_BOUND ( 'NONE', #243, .T. ) ;
#175 = CARTESIAN_POINT ( 'NONE',  ( 0.2359842795000002547, 0.0000000000000000000, 1.968503999999999809 ) ) ;
#176 = ADVANCED_FACE ( 'NONE', ( #3 ), #266, .T. ) ;
#177 =( NAMED_UNIT ( * ) PLANE_ANGLE_UNIT ( ) SI_UNIT ( $, .RADIAN. ) );
#178 = PRODUCT_CONTEXT ( 'NONE', #273, 'mechanical' ) ;
#179 = CARTESIAN_POINT ( 'NONE',  ( 0.0000000000000000000, 0.0000000000000000000, 3.937007999999999619 ) ) ;
#180 =( LENGTH_UNIT ( ) NAMED_UNIT ( * ) SI_UNIT ( $, .METRE. ) );
#181 = VECTOR ( 'NONE', #267, 39.37007874015748143 ) ;
#182 = CARTESIAN_POINT ( 'NONE',  ( 0.0000000000000000000, 0.0000000000000000000, 3.937007999999999619 ) ) ;
#183 = CARTESIAN_POINT ( 'NONE',  ( 0.0000000000000000000, 0.0000000000000000000, 3.937007999999999619 ) ) ;
#184 = EDGE_CURVE ( 'NONE', #192, #298, #211, .T. ) ;
#185 = AXIS2_PLACEMENT_3D ( 'NONE', #31, #283, #5 ) ;
#186 = UNCERTAINTY_MEASURE_WITH_UNIT (LENGTH_MEASURE( 1.000000000000000082E-05 ), #74, 'distance_accuracy_value', 'NONE');
#187 = CARTESIAN_POINT ( 'NONE',  ( 0.2362204999999999999, 2.892866792179873879E-17, 3.922007999999999495 ) ) ;
#188 = MECHANICAL_DESIGN_GEOMETRIC_PRESENTATION_REPRESENTATION (  '', ( #210 ), #69 ) ;
#189 = APPLICATION_PROTOCOL_DEFINITION ( 'draft international standard', 'automotive_design', 1998, #198 ) ;
#190 = DIRECTION ( 'NONE',  ( 1.000000000000000000, 0.0000000000000000000, 0.0000000000000000000 ) ) ;
#191 = VERTEX_POINT ( 'NONE', #187 ) ;
#192 = VERTEX_POINT ( 'NONE', #175 ) ;
#193 = AXIS2_PLACEMENT_3D ( 'NONE', #75, #52, #26 ) ;
#194 = AXIS2_PLACEMENT_3D ( 'NONE', #183, #126, #120 ) ;
#195 = EDGE_LOOP ( 'NONE', ( #37, #94, #48, #98 ) ) ;
#196 = VERTEX_POINT ( 'NONE', #33 ) ;
#197 = VERTEX_POINT ( 'NONE', #96 ) ;
#198 = APPLICATION_CONTEXT ( 'automotive_design' ) ;
#199 = DIRECTION ( 'NONE',  ( -1.000000000000000000, 0.0000000000000000000, 1.224646799147353207E-16 ) ) ;
#200 = AXIS2_PLACEMENT_3D ( 'NONE', #220, #4, #152 ) ;
#201 = LINE ( 'NONE', #100, #181 ) ;
#202 = SURFACE_STYLE_FILL_AREA ( #104 ) ;
#203 = DIRECTION ( 'NONE',  ( 0.0000000000000000000, 0.0000000000000000000, 1.000000000000000000 ) ) ;
#204 = DIRECTION ( 'NONE',  ( -1.000000000000000000, 0.0000000000000000000, 1.224646799147353207E-16 ) ) ;
#205 =( NAMED_UNIT ( * ) SI_UNIT ( $, .STERADIAN. ) SOLID_ANGLE_UNIT ( ) );
#206 = EDGE_CURVE ( 'NONE', #192, #196, #122, .T. ) ;
#207 = AXIS2_PLACEMENT_3D ( 'NONE', #7, #59, #171 ) ;
#208 = PRODUCT_DEFINITION_CONTEXT ( 'detailed design', #198, 'design' ) ;
#209 = CARTESIAN_POINT ( 'NONE',  ( 0.0000000000000000000, 0.0000000000000000000, 3.937007999999999619 ) ) ;
#210 = STYLED_ITEM ( 'NONE', ( #36 ), #65 ) ;
#211 = CIRCLE ( 'NONE', #269, 0.2359842795000000049 ) ;
#212 = ORIENTED_EDGE ( 'NONE', *, *, #255, .T. ) ;
#213 =( LENGTH_UNIT ( ) NAMED_UNIT ( * ) SI_UNIT ( $, .METRE. ) );
#214 = ORIENTED_EDGE ( 'NONE', *, *, #225, .F. ) ;
#215 = ORIENTED_EDGE ( 'NONE', *, *, #159, .T. ) ;
#216 = AXIS2_PLACEMENT_3D ( 'NONE', #63, #203, #154 ) ;
#217 = VECTOR ( 'NONE', #115, 39.37007874015748143 ) ;
#218 = SURFACE_STYLE_USAGE ( .BOTH. , #297 ) ;
#219 = ORIENTED_EDGE ( 'NONE', *, *, #43, .F. ) ;
#220 = CARTESIAN_POINT ( 'NONE',  ( 2.410722122708761257E-16, 0.0000000000000000000, 1.968503999999999809 ) ) ;
#221 = EDGE_LOOP ( 'NONE', ( #261, #240, #20, #219 ) ) ;
#222 = DIRECTION ( 'NONE',  ( 1.000000000000000000, 0.0000000000000000000, -0.0000000000000000000 ) ) ;
#223 = ADVANCED_BREP_SHAPE_REPRESENTATION ( 'Micro_SHLM-120-4', ( #65, #144 ), #84 ) ;
#224 = FACE_OUTER_BOUND ( 'NONE', #23, .T. ) ;
#225 = EDGE_CURVE ( 'NONE', #298, #264, #54, .T. ) ;
#226 = DIRECTION ( 'NONE',  ( -1.000000000000000000, 0.0000000000000000000, 0.0000000000000000000 ) ) ;
#227 = AXIS2_PLACEMENT_3D ( 'NONE', #247, #29, #257 ) ;
#228 = DIRECTION ( 'NONE',  ( 0.0000000000000000000, 0.0000000000000000000, 1.000000000000000000 ) ) ;
#229 = FACE_OUTER_BOUND ( 'NONE', #72, .T. ) ;
#230 = DIRECTION ( 'NONE',  ( -1.224646799147353207E-16, -0.0000000000000000000, -1.000000000000000000 ) ) ;
#231 = ORIENTED_EDGE ( 'NONE', *, *, #64, .T. ) ;
#232 = AXIS2_PLACEMENT_3D ( 'NONE', #10, #230, #204 ) ;
#233 = CARTESIAN_POINT ( 'NONE',  ( 3.539197317345351204E-33, 0.0000000000000000000, 2.889973925387693713E-17 ) ) ;
#234 = ADVANCED_FACE ( 'NONE', ( #134 ), #173, .F. ) ;
#235 = AXIS2_PLACEMENT_3D ( 'NONE', #70, #99, #190 ) ;
#236 = DIRECTION ( 'NONE',  ( 1.224646799147353207E-16, 0.0000000000000000000, 1.000000000000000000 ) ) ;
#237 = EDGE_CURVE ( 'NONE', #197, #38, #57, .T. ) ;
#238 = PRODUCT_DEFINITION_FORMATION_WITH_SPECIFIED_SOURCE ( 'ANY', '', #131, .NOT_KNOWN. ) ;
#239 = CARTESIAN_POINT ( 'NONE',  ( 0.0000000000000000000, 0.0000000000000000000, 0.0000000000000000000 ) ) ;
#240 = ORIENTED_EDGE ( 'NONE', *, *, #132, .F. ) ;
#241 = EDGE_LOOP ( 'NONE', ( #170, #139, #66, #46 ) ) ;
#242 = CLOSED_SHELL ( 'NONE', ( #51, #176, #259, #68, #93, #47, #111, #71, #86, #234 ) ) ;
#243 = EDGE_LOOP ( 'NONE', ( #21, #19 ) ) ;
#244 = VECTOR ( 'NONE', #77, 39.37007874015747433 ) ;
#245 = EDGE_LOOP ( 'NONE', ( #294, #162, #92, #214 ) ) ;
#246 = CARTESIAN_POINT ( 'NONE',  ( 2.410722122708761257E-16, 0.0000000000000000000, 1.968503999999999809 ) ) ;
#247 = CARTESIAN_POINT ( 'NONE',  ( 0.0000000000000000000, 0.0000000000000000000, 0.0000000000000000000 ) ) ;
#248 = LINE ( 'NONE', #161, #278 ) ;
#249 = PRODUCT_DEFINITION ( 'UNKNOWN', '', #238, #208 ) ;
#250 = DIRECTION ( 'NONE',  ( -1.224646799147353207E-16, -0.0000000000000000000, -1.000000000000000000 ) ) ;
#251 = CARTESIAN_POINT ( 'NONE',  ( 0.0000000000000000000, 0.0000000000000000000, 3.937007999999999619 ) ) ;
#252 = AXIS2_PLACEMENT_3D ( 'NONE', #179, #286, #85 ) ;
#253 = FACE_OUTER_BOUND ( 'NONE', #221, .T. ) ;
#254 = CARTESIAN_POINT ( 'NONE',  ( -0.2212204999999994870, 0.0000000000000000000, 3.937007999999999619 ) ) ;
#255 = EDGE_CURVE ( 'NONE', #11, #191, #248, .T. ) ;
#256 = DIRECTION ( 'NONE',  ( -1.224646799147353207E-16, -0.0000000000000000000, -1.000000000000000000 ) ) ;
#257 = DIRECTION ( 'NONE',  ( -1.000000000000000000, 0.0000000000000000000, 1.224646799147353207E-16 ) ) ;
#258 = COLOUR_RGB ( '',0.7921568627450980005, 0.8196078431372548767, 0.9333333333333333481 ) ;
#259 = ADVANCED_FACE ( 'NONE', ( #18 ), #1, .T. ) ;
#260 = LINE ( 'NONE', #45, #217 ) ;
#261 = ORIENTED_EDGE ( 'NONE', *, *, #255, .F. ) ;
#262 = STYLED_ITEM ( 'NONE', ( #166 ), #223 ) ;
#263 =( NAMED_UNIT ( * ) PLANE_ANGLE_UNIT ( ) SI_UNIT ( $, .RADIAN. ) );
#264 = VERTEX_POINT ( 'NONE', #6 ) ;
#265 = CARTESIAN_POINT ( 'NONE',  ( 2.410722122708761257E-16, 0.0000000000000000000, 1.968503999999999809 ) ) ;
#266 = CONICAL_SURFACE ( 'NONE', #172, 0.2359842795000000049, 0.1745329251994338915 ) ;
#267 = DIRECTION ( 'NONE',  ( -0.7071067811865540120, 0.0000000000000000000, -0.7071067811865410224 ) ) ;
#268 = SURFACE_SIDE_STYLE ('',( #202 ) ) ;
#269 = AXIS2_PLACEMENT_3D ( 'NONE', #265, #250, #164 ) ;
#270 = PRODUCT_RELATED_PRODUCT_CATEGORY ( 'part', '', ( #131 ) ) ;
#271 = PLANE ( 'NONE',  #216 ) ;
#272 = VECTOR ( 'NONE', #76, 39.37007874015748143 ) ;
#273 = APPLICATION_CONTEXT ( 'automotive_design' ) ;
#274 = CARTESIAN_POINT ( 'NONE',  ( 0.2362204999999999999, 2.892866792179873879E-17, 3.937007999999999619 ) ) ;
#275 = SHAPE_DEFINITION_REPRESENTATION ( #133, #223 ) ;
#276 = FILL_AREA_STYLE_COLOUR ( '', #258 ) ;
#277 = EDGE_LOOP ( 'NONE', ( #231, #135 ) ) ;
#278 = VECTOR ( 'NONE', #30, 39.37007874015748143 ) ;
#279 =( CONVERSION_BASED_UNIT ( 'INCH', #95 ) LENGTH_UNIT ( ) NAMED_UNIT ( #103 ) );
#280 = DIRECTION ( 'NONE',  ( 1.000000000000000000, 0.0000000000000000000, 0.0000000000000000000 ) ) ;
#281 = CARTESIAN_POINT ( 'NONE',  ( 0.2359842795000000049, 2.889973925387693713E-17, -2.889973925387693713E-17 ) ) ;
#282 = VECTOR ( 'NONE', #143, 39.37007874015748143 ) ;
#283 = DIRECTION ( 'NONE',  ( -0.0000000000000000000, -0.0000000000000000000, -1.000000000000000000 ) ) ;
#284 = FACE_OUTER_BOUND ( 'NONE', #42, .T. ) ;
#285 = CYLINDRICAL_SURFACE ( 'NONE', #232, 0.2359842795000000049 ) ;
#286 = DIRECTION ( 'NONE',  ( 0.0000000000000000000, 0.0000000000000000000, -1.000000000000000000 ) ) ;
#287 = ORIENTED_EDGE ( 'NONE', *, *, #184, .F. ) ;
#288 = CYLINDRICAL_SURFACE ( 'NONE', #194, 0.2362204999999999999 ) ;
#289 = EDGE_CURVE ( 'NONE', #53, #197, #201, .T. ) ;
#290 = CARTESIAN_POINT ( 'NONE',  ( -0.2359842794999997828, 2.891420358783783796E-17, 1.968503999999999809 ) ) ;
#291 = LINE ( 'NONE', #40, #244 ) ;
#292 = EDGE_CURVE ( 'NONE', #38, #296, #123, .T. ) ;
#293 = COLOUR_RGB ( '',0.7921568627450980005, 0.8196078431372548767, 0.9333333333333333481 ) ;
#294 = ORIENTED_EDGE ( 'NONE', *, *, #165, .T. ) ;
#295 = PRESENTATION_LAYER_ASSIGNMENT (  '', '', ( #262 ) ) ;
#296 = VERTEX_POINT ( 'NONE', #83 ) ;
#297 = SURFACE_SIDE_STYLE ('',( #49 ) ) ;
#298 = VERTEX_POINT ( 'NONE', #290 ) ;
#299 = ORIENTED_EDGE ( 'NONE', *, *, #39, .F. ) ;
ENDSEC;
END-ISO-10303-21;
