ISO-10303-21;
HEADER;
FILE_DESCRIPTION (( 'STEP AP214' ),
    '1' );
FILE_NAME ('Micro_SFL-375-69.STEP',
    '2021-09-02T05:03:04',
    ( '' ),
    ( '' ),
    'SwSTEP 2.0',
    'SolidWorks 2020',
    '' );
FILE_SCHEMA (( 'AUTOMOTIVE_DESIGN' ));
ENDSEC;

DATA;
#1 = VECTOR ( 'NONE', #227, 39.37007874015748143 ) ;
#2 = CARTESIAN_POINT ( 'NONE',  ( 0.0000000000000000000, 0.0000000000000000000, 3.000000000000000444 ) ) ;
#3 = VERTEX_POINT ( 'NONE', #78 ) ;
#4 = DIRECTION ( 'NONE',  ( 0.0000000000000000000, 0.0000000000000000000, 1.000000000000000000 ) ) ;
#5 = FACE_OUTER_BOUND ( 'NONE', #20, .T. ) ;
#6 = VERTEX_POINT ( 'NONE', #259 ) ;
#7 = CARTESIAN_POINT ( 'NONE',  ( 0.1725000000000009304, 2.204364238465241369E-17, 3.000000000000000444 ) ) ;
#8 = CARTESIAN_POINT ( 'NONE',  ( 0.0000000000000000000, 0.0000000000000000000, 3.000000000000000444 ) ) ;
#9 = CIRCLE ( 'NONE', #153, 0.1875000000000000278 ) ;
#10 = DIRECTION ( 'NONE',  ( 0.0000000000000000000, 0.0000000000000000000, 1.000000000000000000 ) ) ;
#11 = DIRECTION ( 'NONE',  ( -1.000000000000000000, 0.0000000000000000000, 0.0000000000000000000 ) ) ;
#12 = ADVANCED_FACE ( 'NONE', ( #132 ), #73, .F. ) ;
#13 = CARTESIAN_POINT ( 'NONE',  ( 0.1875000000000000278, 2.296212748401286801E-17, 2.985000000000001208 ) ) ;
#14 = CIRCLE ( 'NONE', #206, 0.1873124999999999929 ) ;
#15 = CONICAL_SURFACE ( 'NONE', #35, 0.1725000000000009304, 0.7853981633974460586 ) ;
#16 = FACE_OUTER_BOUND ( 'NONE', #284, .T. ) ;
#17 = VERTEX_POINT ( 'NONE', #265 ) ;
#18 = ORIENTED_EDGE ( 'NONE', *, *, #181, .T. ) ;
#19 = ORIENTED_EDGE ( 'NONE', *, *, #116, .T. ) ;
#20 = EDGE_LOOP ( 'NONE', ( #19, #233, #276, #67 ) ) ;
#21 =( NAMED_UNIT ( * ) PLANE_ANGLE_UNIT ( ) SI_UNIT ( $, .RADIAN. ) );
#22 = EDGE_LOOP ( 'NONE', ( #46, #251 ) ) ;
#23 = AXIS2_PLACEMENT_3D ( 'NONE', #151, #110, #263 ) ;
#24 = CARTESIAN_POINT ( 'NONE',  ( 1.377727649040772882E-16, 0.0000000000000000000, 1.125000000000000000 ) ) ;
#25 = EDGE_CURVE ( 'NONE', #146, #232, #74, .T. ) ;
#26 = PRODUCT ( 'Micro_SFL-375-69', 'Micro_SFL-375-69', '', ( #183 ) ) ;
#27 = DIRECTION ( 'NONE',  ( -0.0000000000000000000, -0.0000000000000000000, -1.000000000000000000 ) ) ;
#28 = DIRECTION ( 'NONE',  ( 1.000000000000000000, 0.0000000000000000000, 0.0000000000000000000 ) ) ;
#29 = CIRCLE ( 'NONE', #196, 0.1875000000000000278 ) ;
#30 = AXIS2_PLACEMENT_3D ( 'NONE', #212, #261, #53 ) ;
#31 = DIRECTION ( 'NONE',  ( -1.000000000000000000, 0.0000000000000000000, 0.0000000000000000000 ) ) ;
#32 = DIRECTION ( 'NONE',  ( 0.0000000000000000000, 0.0000000000000000000, -1.000000000000000000 ) ) ;
#33 = CARTESIAN_POINT ( 'NONE',  ( 0.1875000000000001388, 2.296212748401288342E-17, 1.126063365341178457 ) ) ;
#34 = CARTESIAN_POINT ( 'NONE',  ( -0.1725000000000009304, 0.0000000000000000000, 3.000000000000000444 ) ) ;
#35 = AXIS2_PLACEMENT_3D ( 'NONE', #270, #48, #100 ) ;
#36 = ADVANCED_FACE ( 'NONE', ( #236 ), #77, .T. ) ;
#37 = CARTESIAN_POINT ( 'NONE',  ( 1.379029896002171128E-16, 0.0000000000000000000, 1.126063365341178457 ) ) ;
#38 = DIMENSIONAL_EXPONENTS ( 1.000000000000000000, 0.0000000000000000000, 0.0000000000000000000, 0.0000000000000000000, 0.0000000000000000000, 0.0000000000000000000, 0.0000000000000000000 ) ;
#39 = CARTESIAN_POINT ( 'NONE',  ( 1.377727649040772882E-16, 0.0000000000000000000, 1.125000000000000000 ) ) ;
#40 = EDGE_CURVE ( 'NONE', #277, #252, #109, .T. ) ;
#41 = ORIENTED_EDGE ( 'NONE', *, *, #79, .T. ) ;
#42 = COLOUR_RGB ( '',0.7921568627450980005, 0.8196078431372548767, 0.9333333333333333481 ) ;
#43 = ADVANCED_FACE ( 'NONE', ( #5 ), #168, .T. ) ;
#44 =( GEOMETRIC_REPRESENTATION_CONTEXT ( 3 ) GLOBAL_UNCERTAINTY_ASSIGNED_CONTEXT ( ( #95 ) ) GLOBAL_UNIT_ASSIGNED_CONTEXT ( ( #166, #52, #189 ) ) REPRESENTATION_CONTEXT ( 'NONE', 'WORKASPACE' ) );
#45 = APPLICATION_PROTOCOL_DEFINITION ( 'draft international standard', 'automotive_design', 1998, #58 ) ;
#46 = ORIENTED_EDGE ( 'NONE', *, *, #120, .T. ) ;
#47 = FILL_AREA_STYLE_COLOUR ( '', #94 ) ;
#48 = DIRECTION ( 'NONE',  ( 0.0000000000000000000, 0.0000000000000000000, -1.000000000000000000 ) ) ;
#49 = EDGE_CURVE ( 'NONE', #17, #6, #148, .T. ) ;
#50 = DIRECTION ( 'NONE',  ( 1.000000000000000000, 0.0000000000000000000, 0.0000000000000000000 ) ) ;
#51 = AXIS2_PLACEMENT_3D ( 'NONE', #8, #111, #50 ) ;
#52 =( NAMED_UNIT ( * ) PLANE_ANGLE_UNIT ( ) SI_UNIT ( $, .RADIAN. ) );
#53 = DIRECTION ( 'NONE',  ( -1.000000000000000000, 0.0000000000000000000, 1.224646799147353454E-16 ) ) ;
#54 = DIRECTION ( 'NONE',  ( 1.000000000000000000, 0.0000000000000000000, -0.0000000000000000000 ) ) ;
#55 = CARTESIAN_POINT ( 'NONE',  ( 0.1875000000000000278, 2.296212748401286801E-17, 3.000000000000000444 ) ) ;
#56 = CLOSED_SHELL ( 'NONE', ( #43, #158, #282, #267, #202, #194, #296, #208, #36, #12 ) ) ;
#57 = PRESENTATION_LAYER_ASSIGNMENT (  '', '', ( #254 ) ) ;
#58 = APPLICATION_CONTEXT ( 'automotive_design' ) ;
#59 = DIRECTION ( 'NONE',  ( -0.0000000000000000000, -0.0000000000000000000, -1.000000000000000000 ) ) ;
#60 = SURFACE_SIDE_STYLE ('',( #156 ) ) ;
#61 = VECTOR ( 'NONE', #221, 39.37007874015747433 ) ;
#62 = PRESENTATION_STYLE_ASSIGNMENT (( #273 ) ) ;
#63 =( CONVERSION_BASED_UNIT ( 'INCH', #288 ) LENGTH_UNIT ( ) NAMED_UNIT ( #86 ) );
#64 = CIRCLE ( 'NONE', #138, 0.1873124999999999929 ) ;
#65 = ORIENTED_EDGE ( 'NONE', *, *, #25, .T. ) ;
#66 =( LENGTH_UNIT ( ) NAMED_UNIT ( * ) SI_UNIT ( $, .METRE. ) );
#67 = ORIENTED_EDGE ( 'NONE', *, *, #49, .F. ) ;
#68 = APPLICATION_PROTOCOL_DEFINITION ( 'draft international standard', 'automotive_design', 1998, #69 ) ;
#69 = APPLICATION_CONTEXT ( 'automotive_design' ) ;
#70 = ORIENTED_EDGE ( 'NONE', *, *, #149, .T. ) ;
#71 = PRESENTATION_STYLE_ASSIGNMENT (( #180 ) ) ;
#72 = DIRECTION ( 'NONE',  ( 1.000000000000000000, 0.0000000000000000000, 0.0000000000000000000 ) ) ;
#73 = PLANE ( 'NONE',  #224 ) ;
#74 = CIRCLE ( 'NONE', #275, 0.1725000000000009304 ) ;
#75 = FACE_OUTER_BOUND ( 'NONE', #281, .T. ) ;
#76 = AXIS2_PLACEMENT_3D ( 'NONE', #205, #145, #98 ) ;
#77 = CYLINDRICAL_SURFACE ( 'NONE', #23, 0.1873124999999999929 ) ;
#78 = CARTESIAN_POINT ( 'NONE',  ( -0.1875000000000000278, 0.0000000000000000000, 2.985000000000001208 ) ) ;
#79 = EDGE_CURVE ( 'NONE', #146, #277, #154, .T. ) ;
#80 = CARTESIAN_POINT ( 'NONE',  ( -0.1725000000000009304, 0.0000000000000000000, 3.000000000000000444 ) ) ;
#81 = CIRCLE ( 'NONE', #51, 0.1725000000000009304 ) ;
#82 = MECHANICAL_DESIGN_GEOMETRIC_PRESENTATION_REPRESENTATION (  '', ( #246 ), #177 ) ;
#83 = LINE ( 'NONE', #89, #61 ) ;
#84 = EDGE_CURVE ( 'NONE', #161, #252, #238, .T. ) ;
#85 = CARTESIAN_POINT ( 'NONE',  ( 2.809237542898493243E-33, 0.0000000000000000000, 2.293916535652886521E-17 ) ) ;
#86 = DIMENSIONAL_EXPONENTS ( 1.000000000000000000, 0.0000000000000000000, 0.0000000000000000000, 0.0000000000000000000, 0.0000000000000000000, 0.0000000000000000000, 0.0000000000000000000 ) ;
#87 = DIRECTION ( 'NONE',  ( -1.000000000000000000, 0.0000000000000000000, 0.0000000000000000000 ) ) ;
#88 = AXIS2_PLACEMENT_3D ( 'NONE', #175, #133, #248 ) ;
#89 = CARTESIAN_POINT ( 'NONE',  ( -0.1873124999999998541, 2.293916535652885596E-17, 1.125000000000000000 ) ) ;
#90 = DIRECTION ( 'NONE',  ( 1.224646799147353454E-16, 0.0000000000000000000, 1.000000000000000000 ) ) ;
#91 = UNCERTAINTY_MEASURE_WITH_UNIT (LENGTH_MEASURE( 1.000000000000000082E-05 ), #235, 'distance_accuracy_value', 'NONE');
#92 = AXIS2_PLACEMENT_3D ( 'NONE', #24, #126, #209 ) ;
#93 = EDGE_LOOP ( 'NONE', ( #124, #18, #182, #299 ) ) ;
#94 = COLOUR_RGB ( '',0.7921568627450980005, 0.8196078431372548767, 0.9333333333333333481 ) ;
#95 = UNCERTAINTY_MEASURE_WITH_UNIT (LENGTH_MEASURE( 1.000000000000000082E-05 ), #166, 'distance_accuracy_value', 'NONE');
#96 = EDGE_CURVE ( 'NONE', #3, #101, #242, .T. ) ;
#97 = ORIENTED_EDGE ( 'NONE', *, *, #104, .F. ) ;
#98 = DIRECTION ( 'NONE',  ( 1.000000000000000000, 0.0000000000000000000, 0.0000000000000000000 ) ) ;
#99 = ORIENTED_EDGE ( 'NONE', *, *, #104, .T. ) ;
#100 = DIRECTION ( 'NONE',  ( -1.000000000000000000, 0.0000000000000000000, 0.0000000000000000000 ) ) ;
#101 = VERTEX_POINT ( 'NONE', #287 ) ;
#102 = VECTOR ( 'NONE', #266, 39.37007874015748143 ) ;
#103 = ORIENTED_EDGE ( 'NONE', *, *, #108, .T. ) ;
#104 = EDGE_CURVE ( 'NONE', #3, #277, #9, .T. ) ;
#105 = CARTESIAN_POINT ( 'NONE',  ( 0.0000000000000000000, 0.0000000000000000000, 3.000000000000000444 ) ) ;
#106 = DIRECTION ( 'NONE',  ( 1.000000000000000000, 0.0000000000000000000, 0.0000000000000000000 ) ) ;
#107 = AXIS2_PLACEMENT_3D ( 'NONE', #37, #244, #197 ) ;
#108 = EDGE_CURVE ( 'NONE', #252, #101, #29, .T. ) ;
#109 = LINE ( 'NONE', #55, #134 ) ;
#110 = DIRECTION ( 'NONE',  ( -1.224646799147353454E-16, -0.0000000000000000000, -1.000000000000000000 ) ) ;
#111 = DIRECTION ( 'NONE',  ( 0.0000000000000000000, 0.0000000000000000000, 1.000000000000000000 ) ) ;
#112 = PLANE ( 'NONE',  #260 ) ;
#113 = DIRECTION ( 'NONE',  ( -1.224646799147353454E-16, -0.0000000000000000000, -1.000000000000000000 ) ) ;
#114 = ADVANCED_BREP_SHAPE_REPRESENTATION ( 'Micro_SFL-375-69', ( #269, #159 ), #44 ) ;
#115 =( LENGTH_UNIT ( ) NAMED_UNIT ( * ) SI_UNIT ( $, .METRE. ) );
#116 = EDGE_CURVE ( 'NONE', #17, #161, #64, .T. ) ;
#117 = LINE ( 'NONE', #293, #1 ) ;
#118 = CARTESIAN_POINT ( 'NONE',  ( 1.377727649040772882E-16, 0.0000000000000000000, 1.125000000000000000 ) ) ;
#119 = ORIENTED_EDGE ( 'NONE', *, *, #155, .F. ) ;
#120 = EDGE_CURVE ( 'NONE', #6, #165, #14, .T. ) ;
#121 = PRODUCT_DEFINITION_FORMATION_WITH_SPECIFIED_SOURCE ( 'ANY', '', #26, .NOT_KNOWN. ) ;
#122 = ORIENTED_EDGE ( 'NONE', *, *, #40, .F. ) ;
#123 = LENGTH_MEASURE_WITH_UNIT ( LENGTH_MEASURE( 0.02539999999999999897 ), #66 );
#124 = ORIENTED_EDGE ( 'NONE', *, *, #163, .F. ) ;
#125 = PRESENTATION_LAYER_ASSIGNMENT (  '', '', ( #246 ) ) ;
#126 = DIRECTION ( 'NONE',  ( 1.224646799147353454E-16, 0.0000000000000000000, 1.000000000000000000 ) ) ;
#127 = PRODUCT_DEFINITION_SHAPE ( 'NONE', 'NONE',  #289 ) ;
#128 = SHAPE_DEFINITION_REPRESENTATION ( #127, #114 ) ;
#129 = CARTESIAN_POINT ( 'NONE',  ( 0.1873125000000001317, 0.0000000000000000000, 1.125000000000000000 ) ) ;
#130 = DIRECTION ( 'NONE',  ( -1.224646799147353454E-16, -0.0000000000000000000, -1.000000000000000000 ) ) ;
#131 = CARTESIAN_POINT ( 'NONE',  ( 2.809237542898493243E-33, 0.0000000000000000000, 2.293916535652886521E-17 ) ) ;
#132 = FACE_OUTER_BOUND ( 'NONE', #22, .T. ) ;
#133 = DIRECTION ( 'NONE',  ( -0.0000000000000000000, -0.0000000000000000000, -1.000000000000000000 ) ) ;
#134 = VECTOR ( 'NONE', #59, 39.37007874015748143 ) ;
#135 = FILL_AREA_STYLE ('',( #291 ) ) ;
#136 = PRODUCT_RELATED_PRODUCT_CATEGORY ( 'part', '', ( #26 ) ) ;
#137 = DIRECTION ( 'NONE',  ( 1.000000000000000000, 0.0000000000000000000, -0.0000000000000000000 ) ) ;
#138 = AXIS2_PLACEMENT_3D ( 'NONE', #285, #130, #31 ) ;
#139 = EDGE_LOOP ( 'NONE', ( #170, #41, #97, #203 ) ) ;
#140 = ORIENTED_EDGE ( 'NONE', *, *, #239, .F. ) ;
#141 = AXIS2_PLACEMENT_3D ( 'NONE', #85, #113, #173 ) ;
#142 = EDGE_LOOP ( 'NONE', ( #122, #204, #228, #160 ) ) ;
#143 =( LENGTH_UNIT ( ) NAMED_UNIT ( * ) SI_UNIT ( $, .METRE. ) );
#144 = ORIENTED_EDGE ( 'NONE', *, *, #230, .F. ) ;
#145 = DIRECTION ( 'NONE',  ( 0.0000000000000000000, 0.0000000000000000000, -1.000000000000000000 ) ) ;
#146 = VERTEX_POINT ( 'NONE', #7 ) ;
#147 = FACE_OUTER_BOUND ( 'NONE', #279, .T. ) ;
#148 = LINE ( 'NONE', #192, #225 ) ;
#149 = EDGE_CURVE ( 'NONE', #232, #3, #193, .T. ) ;
#150 = DIRECTION ( 'NONE',  ( 0.0000000000000000000, 0.0000000000000000000, -1.000000000000000000 ) ) ;
#151 = CARTESIAN_POINT ( 'NONE',  ( 0.0000000000000000000, 0.0000000000000000000, 0.0000000000000000000 ) ) ;
#152 = DIRECTION ( 'NONE',  ( 0.1736481776669313304, 0.0000000000000000000, 0.9848077530122077983 ) ) ;
#153 = AXIS2_PLACEMENT_3D ( 'NONE', #286, #32, #28 ) ;
#154 = LINE ( 'NONE', #195, #102 ) ;
#155 = EDGE_CURVE ( 'NONE', #232, #146, #81, .T. ) ;
#156 = SURFACE_STYLE_FILL_AREA ( #135 ) ;
#157 = CONICAL_SURFACE ( 'NONE', #191, 0.1873124999999999929, 0.1745329251994338360 ) ;
#158 = ADVANCED_FACE ( 'NONE', ( #147 ), #245, .T. ) ;
#159 = AXIS2_PLACEMENT_3D ( 'NONE', #169, #262, #253 ) ;
#160 = ORIENTED_EDGE ( 'NONE', *, *, #108, .F. ) ;
#161 = VERTEX_POINT ( 'NONE', #200 ) ;
#162 = AXIS2_PLACEMENT_3D ( 'NONE', #39, #198, #11 ) ;
#163 = EDGE_CURVE ( 'NONE', #161, #165, #117, .T. ) ;
#164 = SURFACE_STYLE_FILL_AREA ( #187 ) ;
#165 = VERTEX_POINT ( 'NONE', #217 ) ;
#166 =( CONVERSION_BASED_UNIT ( 'INCH', #123 ) LENGTH_UNIT ( ) NAMED_UNIT ( #38 ) );
#167 = DIRECTION ( 'NONE',  ( -1.000000000000000000, 0.0000000000000000000, 1.224646799147353454E-16 ) ) ;
#168 = CYLINDRICAL_SURFACE ( 'NONE', #30, 0.1873124999999999929 ) ;
#169 = CARTESIAN_POINT ( 'NONE',  ( 0.0000000000000000000, 0.0000000000000000000, 0.0000000000000000000 ) ) ;
#170 = ORIENTED_EDGE ( 'NONE', *, *, #25, .F. ) ;
#171 = CARTESIAN_POINT ( 'NONE',  ( 0.0000000000000000000, 0.0000000000000000000, 0.0000000000000000000 ) ) ;
#172 = DIRECTION ( 'NONE',  ( -0.7071067811865459074, 0.0000000000000000000, -0.7071067811865491270 ) ) ;
#173 = DIRECTION ( 'NONE',  ( -1.000000000000000000, 0.0000000000000000000, 1.224646799147353454E-16 ) ) ;
#174 = CARTESIAN_POINT ( 'NONE',  ( 0.0000000000000000000, 0.0000000000000000000, 3.000000000000000444 ) ) ;
#175 = CARTESIAN_POINT ( 'NONE',  ( 0.0000000000000000000, 0.0000000000000000000, 3.000000000000000444 ) ) ;
#176 = DIRECTION ( 'NONE',  ( -0.0000000000000000000, -0.0000000000000000000, -1.000000000000000000 ) ) ;
#177 =( GEOMETRIC_REPRESENTATION_CONTEXT ( 3 ) GLOBAL_UNCERTAINTY_ASSIGNED_CONTEXT ( ( #91 ) ) GLOBAL_UNIT_ASSIGNED_CONTEXT ( ( #235, #21, #278 ) ) REPRESENTATION_CONTEXT ( 'NONE', 'WORKASPACE' ) );
#178 = ORIENTED_EDGE ( 'NONE', *, *, #84, .F. ) ;
#179 = ORIENTED_EDGE ( 'NONE', *, *, #116, .F. ) ;
#180 = SURFACE_STYLE_USAGE ( .BOTH. , #210 ) ;
#181 = EDGE_CURVE ( 'NONE', #161, #17, #184, .T. ) ;
#182 = ORIENTED_EDGE ( 'NONE', *, *, #49, .T. ) ;
#183 = PRODUCT_CONTEXT ( 'NONE', #58, 'mechanical' ) ;
#184 = CIRCLE ( 'NONE', #162, 0.1873124999999999929 ) ;
#185 = EDGE_LOOP ( 'NONE', ( #99, #298, #140, #188 ) ) ;
#186 = ORIENTED_EDGE ( 'NONE', *, *, #292, .F. ) ;
#187 = FILL_AREA_STYLE ('',( #47 ) ) ;
#188 = ORIENTED_EDGE ( 'NONE', *, *, #96, .F. ) ;
#189 =( NAMED_UNIT ( * ) SI_UNIT ( $, .STERADIAN. ) SOLID_ANGLE_UNIT ( ) );
#190 = DIRECTION ( 'NONE',  ( 0.0000000000000000000, 0.0000000000000000000, 1.000000000000000000 ) ) ;
#191 = AXIS2_PLACEMENT_3D ( 'NONE', #118, #90, #290 ) ;
#192 = CARTESIAN_POINT ( 'NONE',  ( -0.1873124999999999929, 0.0000000000000000000, 2.293916535652886521E-17 ) ) ;
#193 = LINE ( 'NONE', #80, #213 ) ;
#194 = ADVANCED_FACE ( 'NONE', ( #16 ), #112, .T. ) ;
#195 = CARTESIAN_POINT ( 'NONE',  ( 0.1725000000000009304, 2.112515728529195628E-17, 3.000000000000000444 ) ) ;
#196 = AXIS2_PLACEMENT_3D ( 'NONE', #240, #211, #106 ) ;
#197 = DIRECTION ( 'NONE',  ( 1.000000000000000000, 0.0000000000000000000, 0.0000000000000000000 ) ) ;
#198 = DIRECTION ( 'NONE',  ( -1.224646799147353454E-16, -0.0000000000000000000, -1.000000000000000000 ) ) ;
#199 = AXIS2_PLACEMENT_3D ( 'NONE', #174, #176, #87 ) ;
#200 = CARTESIAN_POINT ( 'NONE',  ( 0.1873125000000001317, 0.0000000000000000000, 1.125000000000000000 ) ) ;
#201 = ORIENTED_EDGE ( 'NONE', *, *, #155, .T. ) ;
#202 = ADVANCED_FACE ( 'NONE', ( #271 ), #274, .T. ) ;
#203 = ORIENTED_EDGE ( 'NONE', *, *, #149, .F. ) ;
#204 = ORIENTED_EDGE ( 'NONE', *, *, #292, .T. ) ;
#205 = CARTESIAN_POINT ( 'NONE',  ( 0.0000000000000000000, 0.0000000000000000000, 2.985000000000001208 ) ) ;
#206 = AXIS2_PLACEMENT_3D ( 'NONE', #131, #214, #167 ) ;
#207 = ORIENTED_EDGE ( 'NONE', *, *, #181, .F. ) ;
#208 = ADVANCED_FACE ( 'NONE', ( #249 ), #157, .T. ) ;
#209 = DIRECTION ( 'NONE',  ( 1.000000000000000000, 0.0000000000000000000, 0.0000000000000000000 ) ) ;
#210 = SURFACE_SIDE_STYLE ('',( #164 ) ) ;
#211 = DIRECTION ( 'NONE',  ( -1.224646799147353454E-16, -0.0000000000000000000, -1.000000000000000000 ) ) ;
#212 = CARTESIAN_POINT ( 'NONE',  ( 0.0000000000000000000, 0.0000000000000000000, 0.0000000000000000000 ) ) ;
#213 = VECTOR ( 'NONE', #172, 39.37007874015748143 ) ;
#214 = DIRECTION ( 'NONE',  ( -1.224646799147353454E-16, -0.0000000000000000000, -1.000000000000000000 ) ) ;
#215 = CARTESIAN_POINT ( 'NONE',  ( -0.1875000000000000278, 0.0000000000000000000, 3.000000000000000444 ) ) ;
#216 = DIMENSIONAL_EXPONENTS ( 1.000000000000000000, 0.0000000000000000000, 0.0000000000000000000, 0.0000000000000000000, 0.0000000000000000000, 0.0000000000000000000, 0.0000000000000000000 ) ;
#217 = CARTESIAN_POINT ( 'NONE',  ( 0.1873124999999999929, 2.293916535652885596E-17, 0.0000000000000000000 ) ) ;
#218 = VECTOR ( 'NONE', #27, 39.37007874015748143 ) ;
#219 = AXIS2_PLACEMENT_3D ( 'NONE', #2, #150, #258 ) ;
#220 = UNCERTAINTY_MEASURE_WITH_UNIT (LENGTH_MEASURE( 1.000000000000000082E-05 ), #63, 'distance_accuracy_value', 'NONE');
#221 = DIRECTION ( 'NONE',  ( -0.1736481776669311639, 2.126576849575782392E-17, 0.9848077530122080203 ) ) ;
#222 =( NAMED_UNIT ( * ) SI_UNIT ( $, .STERADIAN. ) SOLID_ANGLE_UNIT ( ) );
#223 = FACE_OUTER_BOUND ( 'NONE', #185, .T. ) ;
#224 = AXIS2_PLACEMENT_3D ( 'NONE', #171, #4, #54 ) ;
#225 = VECTOR ( 'NONE', #237, 39.37007874015748143 ) ;
#226 = CONICAL_SURFACE ( 'NONE', #219, 0.1725000000000009304, 0.7853981633974460586 ) ;
#227 = DIRECTION ( 'NONE',  ( -1.224646799147353454E-16, -0.0000000000000000000, -1.000000000000000000 ) ) ;
#228 = ORIENTED_EDGE ( 'NONE', *, *, #96, .T. ) ;
#229 = ORIENTED_EDGE ( 'NONE', *, *, #239, .T. ) ;
#230 = EDGE_CURVE ( 'NONE', #17, #101, #83, .T. ) ;
#231 = CIRCLE ( 'NONE', #107, 0.1875000000000000278 ) ;
#232 = VERTEX_POINT ( 'NONE', #34 ) ;
#233 = ORIENTED_EDGE ( 'NONE', *, *, #163, .T. ) ;
#234 = ORIENTED_EDGE ( 'NONE', *, *, #230, .T. ) ;
#235 =( CONVERSION_BASED_UNIT ( 'INCH', #257 ) LENGTH_UNIT ( ) NAMED_UNIT ( #216 ) );
#236 = FACE_OUTER_BOUND ( 'NONE', #93, .T. ) ;
#237 = DIRECTION ( 'NONE',  ( -1.224646799147353454E-16, -0.0000000000000000000, -1.000000000000000000 ) ) ;
#238 = LINE ( 'NONE', #129, #280 ) ;
#239 = EDGE_CURVE ( 'NONE', #101, #252, #231, .T. ) ;
#240 = CARTESIAN_POINT ( 'NONE',  ( 1.379029896002171128E-16, 0.0000000000000000000, 1.126063365341178457 ) ) ;
#241 = CIRCLE ( 'NONE', #76, 0.1875000000000000278 ) ;
#242 = LINE ( 'NONE', #215, #218 ) ;
#243 =( NAMED_UNIT ( * ) PLANE_ANGLE_UNIT ( ) SI_UNIT ( $, .RADIAN. ) );
#244 = DIRECTION ( 'NONE',  ( -1.224646799147353454E-16, -0.0000000000000000000, -1.000000000000000000 ) ) ;
#245 = CONICAL_SURFACE ( 'NONE', #92, 0.1873124999999999929, 0.1745329251994338360 ) ;
#246 = STYLED_ITEM ( 'NONE', ( #71 ), #114 ) ;
#247 = CARTESIAN_POINT ( 'NONE',  ( 0.0000000000000000000, 0.0000000000000000000, 3.000000000000000444 ) ) ;
#248 = DIRECTION ( 'NONE',  ( -1.000000000000000000, 0.0000000000000000000, 0.0000000000000000000 ) ) ;
#249 = FACE_OUTER_BOUND ( 'NONE', #283, .T. ) ;
#250 = MECHANICAL_DESIGN_GEOMETRIC_PRESENTATION_REPRESENTATION (  '', ( #254 ), #255 ) ;
#251 = ORIENTED_EDGE ( 'NONE', *, *, #264, .T. ) ;
#252 = VERTEX_POINT ( 'NONE', #33 ) ;
#253 = DIRECTION ( 'NONE',  ( 1.000000000000000000, 0.0000000000000000000, 0.0000000000000000000 ) ) ;
#254 = STYLED_ITEM ( 'NONE', ( #62 ), #269 ) ;
#255 =( GEOMETRIC_REPRESENTATION_CONTEXT ( 3 ) GLOBAL_UNCERTAINTY_ASSIGNED_CONTEXT ( ( #220 ) ) GLOBAL_UNIT_ASSIGNED_CONTEXT ( ( #63, #243, #222 ) ) REPRESENTATION_CONTEXT ( 'NONE', 'WORKASPACE' ) );
#256 = ORIENTED_EDGE ( 'NONE', *, *, #84, .T. ) ;
#257 = LENGTH_MEASURE_WITH_UNIT ( LENGTH_MEASURE( 0.02539999999999999897 ), #143 );
#258 = DIRECTION ( 'NONE',  ( -1.000000000000000000, 0.0000000000000000000, 0.0000000000000000000 ) ) ;
#259 = CARTESIAN_POINT ( 'NONE',  ( -0.1873124999999999929, 0.0000000000000000000, 4.587833071305773041E-17 ) ) ;
#260 = AXIS2_PLACEMENT_3D ( 'NONE', #247, #10, #137 ) ;
#261 = DIRECTION ( 'NONE',  ( -1.224646799147353454E-16, -0.0000000000000000000, -1.000000000000000000 ) ) ;
#262 = DIRECTION ( 'NONE',  ( 0.0000000000000000000, 0.0000000000000000000, 1.000000000000000000 ) ) ;
#263 = DIRECTION ( 'NONE',  ( -1.000000000000000000, 0.0000000000000000000, 1.224646799147353454E-16 ) ) ;
#264 = EDGE_CURVE ( 'NONE', #165, #6, #272, .T. ) ;
#265 = CARTESIAN_POINT ( 'NONE',  ( -0.1873124999999998541, 2.295064642027086507E-17, 1.125000000000000000 ) ) ;
#266 = DIRECTION ( 'NONE',  ( 0.7071067811865459074, 8.659560562354913137E-17, -0.7071067811865491270 ) ) ;
#267 = ADVANCED_FACE ( 'NONE', ( #223 ), #268, .T. ) ;
#268 = CYLINDRICAL_SURFACE ( 'NONE', #88, 0.1875000000000000278 ) ;
#269 = MANIFOLD_SOLID_BREP ( 'Cut-Revolve1', #56 ) ;
#270 = CARTESIAN_POINT ( 'NONE',  ( 0.0000000000000000000, 0.0000000000000000000, 3.000000000000000444 ) ) ;
#271 = FACE_OUTER_BOUND ( 'NONE', #142, .T. ) ;
#272 = CIRCLE ( 'NONE', #141, 0.1873124999999999929 ) ;
#273 = SURFACE_STYLE_USAGE ( .BOTH. , #60 ) ;
#274 = CYLINDRICAL_SURFACE ( 'NONE', #199, 0.1875000000000000278 ) ;
#275 = AXIS2_PLACEMENT_3D ( 'NONE', #105, #190, #72 ) ;
#276 = ORIENTED_EDGE ( 'NONE', *, *, #120, .F. ) ;
#277 = VERTEX_POINT ( 'NONE', #13 ) ;
#278 =( NAMED_UNIT ( * ) SI_UNIT ( $, .STERADIAN. ) SOLID_ANGLE_UNIT ( ) );
#279 = EDGE_LOOP ( 'NONE', ( #179, #234, #229, #178 ) ) ;
#280 = VECTOR ( 'NONE', #152, 39.37007874015748143 ) ;
#281 = EDGE_LOOP ( 'NONE', ( #297, #119, #70, #186 ) ) ;
#282 = ADVANCED_FACE ( 'NONE', ( #295 ), #15, .T. ) ;
#283 = EDGE_LOOP ( 'NONE', ( #144, #207, #256, #103 ) ) ;
#284 = EDGE_LOOP ( 'NONE', ( #201, #65 ) ) ;
#285 = CARTESIAN_POINT ( 'NONE',  ( 1.377727649040772882E-16, 0.0000000000000000000, 1.125000000000000000 ) ) ;
#286 = CARTESIAN_POINT ( 'NONE',  ( 0.0000000000000000000, 0.0000000000000000000, 2.985000000000001208 ) ) ;
#287 = CARTESIAN_POINT ( 'NONE',  ( -0.1874999999999998890, 0.0000000000000000000, 1.126063365341178457 ) ) ;
#288 = LENGTH_MEASURE_WITH_UNIT ( LENGTH_MEASURE( 0.02539999999999999897 ), #115 );
#289 = PRODUCT_DEFINITION ( 'UNKNOWN', '', #121, #294 ) ;
#290 = DIRECTION ( 'NONE',  ( 1.000000000000000000, 0.0000000000000000000, 0.0000000000000000000 ) ) ;
#291 = FILL_AREA_STYLE_COLOUR ( '', #42 ) ;
#292 = EDGE_CURVE ( 'NONE', #277, #3, #241, .T. ) ;
#293 = CARTESIAN_POINT ( 'NONE',  ( 0.1873124999999999929, 2.293916535652885596E-17, -2.293916535652886521E-17 ) ) ;
#294 = PRODUCT_DEFINITION_CONTEXT ( 'detailed design', #69, 'design' ) ;
#295 = FACE_OUTER_BOUND ( 'NONE', #139, .T. ) ;
#296 = ADVANCED_FACE ( 'NONE', ( #75 ), #226, .T. ) ;
#297 = ORIENTED_EDGE ( 'NONE', *, *, #79, .F. ) ;
#298 = ORIENTED_EDGE ( 'NONE', *, *, #40, .T. ) ;
#299 = ORIENTED_EDGE ( 'NONE', *, *, #264, .F. ) ;
ENDSEC;
END-ISO-10303-21;
