ISO-10303-21;
HEADER;
FILE_DESCRIPTION (( 'STEP AP214' ),
    '1' );
FILE_NAME ('Micro_DR-125-2.STEP',
    '2021-09-01T15:31:35',
    ( '' ),
    ( '' ),
    'SwSTEP 2.0',
    'SolidWorks 2020',
    '' );
FILE_SCHEMA (( 'AUTOMOTIVE_DESIGN' ));
ENDSEC;

DATA;
#1 = CYLINDRICAL_SURFACE ( 'NONE', #133, 0.06250000000000000000 ) ;
#2 = AXIS2_PLACEMENT_3D ( 'NONE', #112, #144, #221 ) ;
#3 = CARTESIAN_POINT ( 'NONE',  ( 0.0000000000000000000, 0.0000000000000000000, 2.250000000000000000 ) ) ;
#4 = EDGE_CURVE ( 'NONE', #62, #125, #276, .T. ) ;
#5 = DIRECTION ( 'NONE',  ( -0.0000000000000000000, -0.0000000000000000000, 1.000000000000000000 ) ) ;
#6 = CARTESIAN_POINT ( 'NONE',  ( 0.0000000000000000000, 0.0000000000000000000, 1.250000000000000222 ) ) ;
#7 = EDGE_LOOP ( 'NONE', ( #47, #256, #99 ) ) ;
#8 = PRODUCT_RELATED_PRODUCT_CATEGORY ( 'part', '', ( #280 ) ) ;
#9 = EDGE_LOOP ( 'NONE', ( #179, #323 ) ) ;
#10 = DIRECTION ( 'NONE',  ( 0.0000000000000000000, 0.0000000000000000000, 1.000000000000000000 ) ) ;
#11 = CARTESIAN_POINT ( 'NONE',  ( 0.0000000000000000000, 0.0000000000000000000, 2.250000000000000000 ) ) ;
#12 = CARTESIAN_POINT ( 'NONE',  ( 0.0000000000000000000, 0.0000000000000000000, 2.235000000000000320 ) ) ;
#13 = CARTESIAN_POINT ( 'NONE',  ( 0.06250000000000000000, 7.654042494670957545E-18, 2.250000000000000000 ) ) ;
#14 = CARTESIAN_POINT ( 'NONE',  ( 0.0000000000000000000, 0.0000000000000000000, 2.250000000000000000 ) ) ;
#15 = CIRCLE ( 'NONE', #134, 0.06250000000000000000 ) ;
#16 = SHAPE_DEFINITION_REPRESENTATION ( #183, #258 ) ;
#17 = DIRECTION ( 'NONE',  ( 0.7071067811865422437, 8.659560562354868763E-17, -0.7071067811865526798 ) ) ;
#18 = MECHANICAL_DESIGN_GEOMETRIC_PRESENTATION_REPRESENTATION (  '', ( #59 ), #193 ) ;
#19 = DIRECTION ( 'NONE',  ( 1.000000000000000000, 0.0000000000000000000, 0.0000000000000000000 ) ) ;
#20 = ADVANCED_FACE ( 'NONE', ( #159 ), #1, .T. ) ;
#21 = CARTESIAN_POINT ( 'NONE',  ( 0.0000000000000000000, 0.0000000000000000000, 0.0000000000000000000 ) ) ;
#22 = MECHANICAL_DESIGN_GEOMETRIC_PRESENTATION_REPRESENTATION (  '', ( #171 ), #235 ) ;
#23 = VERTEX_POINT ( 'NONE', #21 ) ;
#24 = FACE_OUTER_BOUND ( 'NONE', #64, .T. ) ;
#25 = ORIENTED_EDGE ( 'NONE', *, *, #307, .F. ) ;
#26 = FACE_OUTER_BOUND ( 'NONE', #7, .T. ) ;
#27 = DIMENSIONAL_EXPONENTS ( 1.000000000000000000, 0.0000000000000000000, 0.0000000000000000000, 0.0000000000000000000, 0.0000000000000000000, 0.0000000000000000000, 0.0000000000000000000 ) ;
#28 = DIRECTION ( 'NONE',  ( 0.4999999999999973910, 0.0000000000000000000, 0.8660254037844400399 ) ) ;
#29 = ADVANCED_FACE ( 'NONE', ( #39 ), #67, .T. ) ;
#30 = DIRECTION ( 'NONE',  ( -0.0000000000000000000, -0.0000000000000000000, -1.000000000000000000 ) ) ;
#31 = AXIS2_PLACEMENT_3D ( 'NONE', #6, #195, #308 ) ;
#32 = CIRCLE ( 'NONE', #161, 0.06244999999999999857 ) ;
#33 = ORIENTED_EDGE ( 'NONE', *, *, #211, .F. ) ;
#34 = VECTOR ( 'NONE', #312, 39.37007874015748143 ) ;
#35 = EDGE_LOOP ( 'NONE', ( #264, #182, #167, #227 ) ) ;
#36 = EDGE_CURVE ( 'NONE', #141, #96, #214, .T. ) ;
#37 = CARTESIAN_POINT ( 'NONE',  ( 0.06244999999999999857, 0.0000000000000000000, 2.235000000000000320 ) ) ;
#38 = CARTESIAN_POINT ( 'NONE',  ( 0.0000000000000000000, 0.0000000000000000000, 1.250086602540378733 ) ) ;
#39 = FACE_OUTER_BOUND ( 'NONE', #51, .T. ) ;
#40 = ADVANCED_FACE ( 'NONE', ( #109 ), #157, .T. ) ;
#41 = FACE_OUTER_BOUND ( 'NONE', #35, .T. ) ;
#42 = DIRECTION ( 'NONE',  ( 1.000000000000000000, 0.0000000000000000000, 0.0000000000000000000 ) ) ;
#43 = DIRECTION ( 'NONE',  ( 0.0000000000000000000, 0.0000000000000000000, -1.000000000000000000 ) ) ;
#44 = CARTESIAN_POINT ( 'NONE',  ( 0.0000000000000000000, 0.0000000000000000000, 1.250000000000000222 ) ) ;
#45 = DIRECTION ( 'NONE',  ( -0.0000000000000000000, -0.0000000000000000000, -1.000000000000000000 ) ) ;
#46 = FILL_AREA_STYLE_COLOUR ( '', #154 ) ;
#47 = ORIENTED_EDGE ( 'NONE', *, *, #294, .F. ) ;
#48 =( LENGTH_UNIT ( ) NAMED_UNIT ( * ) SI_UNIT ( $, .METRE. ) );
#49 = DIRECTION ( 'NONE',  ( -0.0000000000000000000, -0.0000000000000000000, 1.000000000000000000 ) ) ;
#50 = CARTESIAN_POINT ( 'NONE',  ( 0.06244999999999999857, 0.0000000000000000000, 1.250000000000000222 ) ) ;
#51 = EDGE_LOOP ( 'NONE', ( #266, #238, #77, #252 ) ) ;
#52 = DIRECTION ( 'NONE',  ( -0.0000000000000000000, -0.0000000000000000000, 1.000000000000000000 ) ) ;
#53 = SURFACE_STYLE_FILL_AREA ( #130 ) ;
#54 = ADVANCED_FACE ( 'NONE', ( #311 ), #291, .T. ) ;
#55 =( NAMED_UNIT ( * ) SI_UNIT ( $, .STERADIAN. ) SOLID_ANGLE_UNIT ( ) );
#56 = UNCERTAINTY_MEASURE_WITH_UNIT (LENGTH_MEASURE( 1.000000000000000082E-05 ), #79, 'distance_accuracy_value', 'NONE');
#57 = DIMENSIONAL_EXPONENTS ( 1.000000000000000000, 0.0000000000000000000, 0.0000000000000000000, 0.0000000000000000000, 0.0000000000000000000, 0.0000000000000000000, 0.0000000000000000000 ) ;
#58 = DIRECTION ( 'NONE',  ( 0.0000000000000000000, 0.0000000000000000000, -1.000000000000000000 ) ) ;
#59 = STYLED_ITEM ( 'NONE', ( #204 ), #258 ) ;
#60 = CIRCLE ( 'NONE', #306, 0.06244999999999999857 ) ;
#61 = AXIS2_PLACEMENT_3D ( 'NONE', #197, #30, #116 ) ;
#62 = VERTEX_POINT ( 'NONE', #118 ) ;
#63 = CIRCLE ( 'NONE', #220, 0.06250000000000000000 ) ;
#64 = EDGE_LOOP ( 'NONE', ( #169, #177, #160, #321 ) ) ;
#65 =( NAMED_UNIT ( * ) SI_UNIT ( $, .STERADIAN. ) SOLID_ANGLE_UNIT ( ) );
#66 = LINE ( 'NONE', #271, #302 ) ;
#67 = CONICAL_SURFACE ( 'NONE', #253, 0.06244999999999999857, 0.5235987755982959291 ) ;
#68 = CARTESIAN_POINT ( 'NONE',  ( -0.04750000000000052097, 0.0000000000000000000, 2.250000000000000000 ) ) ;
#69 = DIRECTION ( 'NONE',  ( 1.000000000000000000, 0.0000000000000000000, 0.0000000000000000000 ) ) ;
#70 = CARTESIAN_POINT ( 'NONE',  ( 0.04750000000000052097, 5.817072295949991120E-18, 2.250000000000000000 ) ) ;
#71 = CARTESIAN_POINT ( 'NONE',  ( 0.0000000000000000000, 0.0000000000000000000, 2.235000000000000320 ) ) ;
#72 = PLANE ( 'NONE',  #243 ) ;
#73 = ORIENTED_EDGE ( 'NONE', *, *, #132, .T. ) ;
#74 = ORIENTED_EDGE ( 'NONE', *, *, #237, .F. ) ;
#75 = VECTOR ( 'NONE', #143, 39.37007874015748143 ) ;
#76 = SURFACE_STYLE_USAGE ( .BOTH. , #92 ) ;
#77 = ORIENTED_EDGE ( 'NONE', *, *, #150, .T. ) ;
#78 =( NAMED_UNIT ( * ) PLANE_ANGLE_UNIT ( ) SI_UNIT ( $, .RADIAN. ) );
#79 =( CONVERSION_BASED_UNIT ( 'INCH', #229 ) LENGTH_UNIT ( ) NAMED_UNIT ( #57 ) );
#80 = VECTOR ( 'NONE', #285, 39.37007874015748143 ) ;
#81 = LINE ( 'NONE', #50, #262 ) ;
#82 = LINE ( 'NONE', #290, #80 ) ;
#83 = ADVANCED_FACE ( 'NONE', ( #194 ), #149, .T. ) ;
#84 = ORIENTED_EDGE ( 'NONE', *, *, #259, .F. ) ;
#85 = ORIENTED_EDGE ( 'NONE', *, *, #90, .F. ) ;
#86 = DIRECTION ( 'NONE',  ( 1.000000000000000000, 0.0000000000000000000, 0.0000000000000000000 ) ) ;
#87 = ADVANCED_FACE ( 'NONE', ( #248 ), #72, .T. ) ;
#88 = DIRECTION ( 'NONE',  ( -0.7071067811865422437, 0.0000000000000000000, -0.7071067811865526798 ) ) ;
#89 = LINE ( 'NONE', #70, #181 ) ;
#90 = EDGE_CURVE ( 'NONE', #23, #137, #66, .T. ) ;
#91 = CARTESIAN_POINT ( 'NONE',  ( 0.0000000000000000000, 0.0000000000000000000, 2.235000000000000320 ) ) ;
#92 = SURFACE_SIDE_STYLE ('',( #151 ) ) ;
#93 = DIRECTION ( 'NONE',  ( 1.000000000000000000, 0.0000000000000000000, -0.0000000000000000000 ) ) ;
#94 = COLOUR_RGB ( '',0.7921568627450980005, 0.8196078431372548767, 0.9333333333333333481 ) ;
#95 = VERTEX_POINT ( 'NONE', #270 ) ;
#96 = VERTEX_POINT ( 'NONE', #113 ) ;
#97 = EDGE_CURVE ( 'NONE', #137, #278, #222, .T. ) ;
#98 = CIRCLE ( 'NONE', #139, 0.06250000000000000000 ) ;
#99 = ORIENTED_EDGE ( 'NONE', *, *, #317, .F. ) ;
#100 = DIRECTION ( 'NONE',  ( -0.0000000000000000000, -0.0000000000000000000, -1.000000000000000000 ) ) ;
#101 = DIRECTION ( 'NONE',  ( 1.000000000000000000, 0.0000000000000000000, 0.0000000000000000000 ) ) ;
#102 = CARTESIAN_POINT ( 'NONE',  ( 0.06250000000000000000, 7.654042494670957545E-18, 2.235000000000000320 ) ) ;
#103 = DIRECTION ( 'NONE',  ( 1.000000000000000000, 0.0000000000000000000, 0.0000000000000000000 ) ) ;
#104 = UNCERTAINTY_MEASURE_WITH_UNIT (LENGTH_MEASURE( 1.000000000000000082E-05 ), #254, 'distance_accuracy_value', 'NONE');
#105 = APPLICATION_CONTEXT ( 'automotive_design' ) ;
#106 = VECTOR ( 'NONE', #45, 39.37007874015748143 ) ;
#107 = LINE ( 'NONE', #68, #310 ) ;
#108 = EDGE_LOOP ( 'NONE', ( #190, #25, #287, #228 ) ) ;
#109 = FACE_OUTER_BOUND ( 'NONE', #108, .T. ) ;
#110 = CARTESIAN_POINT ( 'NONE',  ( 0.06244999999999999857, 0.0000000000000000000, 1.250000000000000222 ) ) ;
#111 = CYLINDRICAL_SURFACE ( 'NONE', #277, 0.06244999999999999857 ) ;
#112 = CARTESIAN_POINT ( 'NONE',  ( 0.0000000000000000000, 0.0000000000000000000, 2.250000000000000000 ) ) ;
#113 = CARTESIAN_POINT ( 'NONE',  ( 0.06250000000000000000, 7.654042494670957545E-18, 1.250086602540378733 ) ) ;
#114 = VECTOR ( 'NONE', #49, 39.37007874015748143 ) ;
#115 = AXIS2_PLACEMENT_3D ( 'NONE', #200, #296, #272 ) ;
#116 = DIRECTION ( 'NONE',  ( -1.000000000000000000, 0.0000000000000000000, 0.0000000000000000000 ) ) ;
#117 = AXIS2_PLACEMENT_3D ( 'NONE', #12, #58, #165 ) ;
#118 = CARTESIAN_POINT ( 'NONE',  ( -0.06245000000000000551, 7.647919260675221101E-18, 0.03752374565827057418 ) ) ;
#119 = APPLICATION_CONTEXT ( 'automotive_design' ) ;
#120 = ADVANCED_FACE ( 'NONE', ( #146 ), #111, .T. ) ;
#121 = DIRECTION ( 'NONE',  ( -0.0000000000000000000, -0.0000000000000000000, 1.000000000000000000 ) ) ;
#122 = CARTESIAN_POINT ( 'NONE',  ( 0.0000000000000000000, 0.0000000000000000000, 0.03752374565827057418 ) ) ;
#123 = EDGE_LOOP ( 'NONE', ( #84, #73, #153, #250 ) ) ;
#124 = EDGE_LOOP ( 'NONE', ( #255, #240, #74, #301 ) ) ;
#125 = VERTEX_POINT ( 'NONE', #152 ) ;
#126 = DIRECTION ( 'NONE',  ( -0.0000000000000000000, -0.0000000000000000000, 1.000000000000000000 ) ) ;
#127 = ORIENTED_EDGE ( 'NONE', *, *, #286, .F. ) ;
#128 = CARTESIAN_POINT ( 'NONE',  ( 0.0000000000000000000, 0.0000000000000000000, 39.37007874015748143 ) ) ;
#129 = AXIS2_PLACEMENT_3D ( 'NONE', #209, #52, #215 ) ;
#130 = FILL_AREA_STYLE ('',( #164 ) ) ;
#131 = DIRECTION ( 'NONE',  ( 1.000000000000000000, 0.0000000000000000000, 0.0000000000000000000 ) ) ;
#132 = EDGE_CURVE ( 'NONE', #299, #141, #89, .T. ) ;
#133 = AXIS2_PLACEMENT_3D ( 'NONE', #3, #100, #303 ) ;
#134 = AXIS2_PLACEMENT_3D ( 'NONE', #91, #199, #293 ) ;
#135 = CARTESIAN_POINT ( 'NONE',  ( -0.06250000000000000000, 0.0000000000000000000, 2.250000000000000000 ) ) ;
#136 = AXIS2_PLACEMENT_3D ( 'NONE', #128, #279, #103 ) ;
#137 = VERTEX_POINT ( 'NONE', #318 ) ;
#138 = EDGE_CURVE ( 'NONE', #141, #201, #15, .T. ) ;
#139 = AXIS2_PLACEMENT_3D ( 'NONE', #223, #121, #275 ) ;
#140 = ORIENTED_EDGE ( 'NONE', *, *, #294, .T. ) ;
#141 = VERTEX_POINT ( 'NONE', #102 ) ;
#142 = CARTESIAN_POINT ( 'NONE',  ( -0.06250000000000000000, 0.0000000000000000000, 1.250086602540378733 ) ) ;
#143 = DIRECTION ( 'NONE',  ( -0.0000000000000000000, -0.0000000000000000000, 1.000000000000000000 ) ) ;
#144 = DIRECTION ( 'NONE',  ( 0.0000000000000000000, 0.0000000000000000000, -1.000000000000000000 ) ) ;
#145 = DIRECTION ( 'NONE',  ( 0.0000000000000000000, 0.0000000000000000000, 1.000000000000000000 ) ) ;
#146 = FACE_OUTER_BOUND ( 'NONE', #192, .T. ) ;
#147 = PRODUCT_CONTEXT ( 'NONE', #119, 'mechanical' ) ;
#148 = CONICAL_SURFACE ( 'NONE', #2, 0.04750000000000052097, 0.7853981633974410625 ) ;
#149 = CONICAL_SURFACE ( 'NONE', #115, 65.52281426576944057, 1.029744258676661195 ) ;
#150 = EDGE_CURVE ( 'NONE', #278, #96, #81, .T. ) ;
#151 = SURFACE_STYLE_FILL_AREA ( #320 ) ;
#152 = CARTESIAN_POINT ( 'NONE',  ( -0.06244999999999999857, 7.650980877673088552E-18, 1.250000000000000222 ) ) ;
#153 = ORIENTED_EDGE ( 'NONE', *, *, #247, .F. ) ;
#154 = COLOUR_RGB ( '',0.7921568627450980005, 0.8196078431372548767, 0.9333333333333333481 ) ;
#155 = ADVANCED_FACE ( 'NONE', ( #24 ), #233, .T. ) ;
#156 = EDGE_LOOP ( 'NONE', ( #265, #297, #191, #166 ) ) ;
#157 = CONICAL_SURFACE ( 'NONE', #217, 0.04750000000000052097, 0.7853981633974410625 ) ;
#158 = LENGTH_MEASURE_WITH_UNIT ( LENGTH_MEASURE( 0.02539999999999999897 ), #48 );
#159 = FACE_OUTER_BOUND ( 'NONE', #156, .T. ) ;
#160 = ORIENTED_EDGE ( 'NONE', *, *, #189, .F. ) ;
#161 = AXIS2_PLACEMENT_3D ( 'NONE', #184, #5, #131 ) ;
#162 = CLOSED_SHELL ( 'NONE', ( #155, #83, #54, #281, #268, #20, #87, #40, #29, #208, #120 ) ) ;
#163 = SURFACE_SIDE_STYLE ('',( #53 ) ) ;
#164 = FILL_AREA_STYLE_COLOUR ( '', #94 ) ;
#165 = DIRECTION ( 'NONE',  ( 1.000000000000000000, 0.0000000000000000000, 0.0000000000000000000 ) ) ;
#166 = ORIENTED_EDGE ( 'NONE', *, *, #314, .T. ) ;
#167 = ORIENTED_EDGE ( 'NONE', *, *, #237, .T. ) ;
#168 = CARTESIAN_POINT ( 'NONE',  ( 0.0000000000000000000, 0.0000000000000000000, 0.0000000000000000000 ) ) ;
#169 = ORIENTED_EDGE ( 'NONE', *, *, #211, .T. ) ;
#170 = DIRECTION ( 'NONE',  ( 0.8571673007021157753, 0.0000000000000000000, 0.5150380749100483824 ) ) ;
#171 = STYLED_ITEM ( 'NONE', ( #186 ), #203 ) ;
#172 = CARTESIAN_POINT ( 'NONE',  ( 0.04750000000000052097, 6.735557395310474718E-18, 2.250000000000000000 ) ) ;
#173 = DIRECTION ( 'NONE',  ( -0.0000000000000000000, -0.0000000000000000000, 1.000000000000000000 ) ) ;
#174 = LINE ( 'NONE', #135, #34 ) ;
#175 = DIRECTION ( 'NONE',  ( -1.000000000000000000, 0.0000000000000000000, 0.0000000000000000000 ) ) ;
#176 = DIRECTION ( 'NONE',  ( 1.000000000000000000, 0.0000000000000000000, 0.0000000000000000000 ) ) ;
#177 = ORIENTED_EDGE ( 'NONE', *, *, #4, .T. ) ;
#178 = DIRECTION ( 'NONE',  ( 0.0000000000000000000, 0.0000000000000000000, 1.000000000000000000 ) ) ;
#179 = ORIENTED_EDGE ( 'NONE', *, *, #307, .T. ) ;
#180 = AXIS2_PLACEMENT_3D ( 'NONE', #14, #10, #69 ) ;
#181 = VECTOR ( 'NONE', #17, 39.37007874015748854 ) ;
#182 = ORIENTED_EDGE ( 'NONE', *, *, #36, .T. ) ;
#183 = PRODUCT_DEFINITION_SHAPE ( 'NONE', 'NONE',  #288 ) ;
#184 = CARTESIAN_POINT ( 'NONE',  ( 0.0000000000000000000, 0.0000000000000000000, 1.250000000000000222 ) ) ;
#185 = PRESENTATION_LAYER_ASSIGNMENT (  '', '', ( #59 ) ) ;
#186 = PRESENTATION_STYLE_ASSIGNMENT (( #304 ) ) ;
#187 = PRODUCT_DEFINITION_CONTEXT ( 'detailed design', #105, 'design' ) ;
#188 = LINE ( 'NONE', #295, #210 ) ;
#189 = EDGE_CURVE ( 'NONE', #278, #125, #32, .T. ) ;
#190 = ORIENTED_EDGE ( 'NONE', *, *, #132, .F. ) ;
#191 = ORIENTED_EDGE ( 'NONE', *, *, #284, .T. ) ;
#192 = EDGE_LOOP ( 'NONE', ( #225, #309, #274, #127 ) ) ;
#193 =( GEOMETRIC_REPRESENTATION_CONTEXT ( 3 ) GLOBAL_UNCERTAINTY_ASSIGNED_CONTEXT ( ( #283 ) ) GLOBAL_UNIT_ASSIGNED_CONTEXT ( ( #313, #213, #65 ) ) REPRESENTATION_CONTEXT ( 'NONE', 'WORKASPACE' ) );
#194 = FACE_OUTER_BOUND ( 'NONE', #202, .T. ) ;
#195 = DIRECTION ( 'NONE',  ( -0.0000000000000000000, -0.0000000000000000000, 1.000000000000000000 ) ) ;
#196 = DIRECTION ( 'NONE',  ( -0.0000000000000000000, -0.0000000000000000000, 1.000000000000000000 ) ) ;
#197 = CARTESIAN_POINT ( 'NONE',  ( 0.0000000000000000000, 0.0000000000000000000, 2.250000000000000000 ) ) ;
#198 = LENGTH_MEASURE_WITH_UNIT ( LENGTH_MEASURE( 0.02539999999999999897 ), #273 );
#199 = DIRECTION ( 'NONE',  ( 0.0000000000000000000, 0.0000000000000000000, -1.000000000000000000 ) ) ;
#200 = CARTESIAN_POINT ( 'NONE',  ( 0.0000000000000000000, 0.0000000000000000000, 39.37007874015748143 ) ) ;
#201 = VERTEX_POINT ( 'NONE', #232 ) ;
#202 = EDGE_LOOP ( 'NONE', ( #85, #140, #33 ) ) ;
#203 = MANIFOLD_SOLID_BREP ( 'Cut-Revolve1', #162 ) ;
#204 = PRESENTATION_STYLE_ASSIGNMENT (( #76 ) ) ;
#205 = AXIS2_PLACEMENT_3D ( 'NONE', #44, #173, #86 ) ;
#206 = CIRCLE ( 'NONE', #251, 0.04750000000000052097 ) ;
#207 = CONICAL_SURFACE ( 'NONE', #136, 65.52281426576944057, 1.029744258676661195 ) ;
#208 = ADVANCED_FACE ( 'NONE', ( #26 ), #207, .T. ) ;
#209 = CARTESIAN_POINT ( 'NONE',  ( 0.0000000000000000000, 0.0000000000000000000, 0.03752374565827057418 ) ) ;
#210 = VECTOR ( 'NONE', #249, 39.37007874015748854 ) ;
#211 = EDGE_CURVE ( 'NONE', #137, #62, #315, .T. ) ;
#212 = DIMENSIONAL_EXPONENTS ( 1.000000000000000000, 0.0000000000000000000, 0.0000000000000000000, 0.0000000000000000000, 0.0000000000000000000, 0.0000000000000000000, 0.0000000000000000000 ) ;
#213 =( NAMED_UNIT ( * ) PLANE_ANGLE_UNIT ( ) SI_UNIT ( $, .RADIAN. ) );
#214 = LINE ( 'NONE', #13, #106 ) ;
#215 = DIRECTION ( 'NONE',  ( 1.000000000000000000, 0.0000000000000000000, 0.0000000000000000000 ) ) ;
#216 = CYLINDRICAL_SURFACE ( 'NONE', #61, 0.06250000000000000000 ) ;
#217 = AXIS2_PLACEMENT_3D ( 'NONE', #11, #43, #175 ) ;
#218 = AXIS2_PLACEMENT_3D ( 'NONE', #260, #126, #101 ) ;
#219 = DIRECTION ( 'NONE',  ( 0.0000000000000000000, 0.0000000000000000000, 1.000000000000000000 ) ) ;
#220 = AXIS2_PLACEMENT_3D ( 'NONE', #38, #261, #241 ) ;
#221 = DIRECTION ( 'NONE',  ( -1.000000000000000000, 0.0000000000000000000, 0.0000000000000000000 ) ) ;
#222 = LINE ( 'NONE', #37, #75 ) ;
#223 = CARTESIAN_POINT ( 'NONE',  ( 0.0000000000000000000, 0.0000000000000000000, 1.250086602540378733 ) ) ;
#224 = DIRECTION ( 'NONE',  ( -0.0000000000000000000, -0.0000000000000000000, 1.000000000000000000 ) ) ;
#225 = ORIENTED_EDGE ( 'NONE', *, *, #4, .F. ) ;
#226 =( NAMED_UNIT ( * ) PLANE_ANGLE_UNIT ( ) SI_UNIT ( $, .RADIAN. ) );
#227 = ORIENTED_EDGE ( 'NONE', *, *, #284, .F. ) ;
#228 = ORIENTED_EDGE ( 'NONE', *, *, #138, .F. ) ;
#229 = LENGTH_MEASURE_WITH_UNIT ( LENGTH_MEASURE( 0.02539999999999999897 ), #257 );
#230 = EDGE_CURVE ( 'NONE', #95, #201, #107, .T. ) ;
#231 = CARTESIAN_POINT ( 'NONE',  ( -0.06244999999999999857, 7.647919260675221101E-18, 2.235000000000000320 ) ) ;
#232 = CARTESIAN_POINT ( 'NONE',  ( -0.06250000000000000000, 0.0000000000000000000, 2.235000000000000320 ) ) ;
#233 = CYLINDRICAL_SURFACE ( 'NONE', #218, 0.06244999999999999857 ) ;
#234 = AXIS2_PLACEMENT_3D ( 'NONE', #168, #145, #42 ) ;
#235 =( GEOMETRIC_REPRESENTATION_CONTEXT ( 3 ) GLOBAL_UNCERTAINTY_ASSIGNED_CONTEXT ( ( #56 ) ) GLOBAL_UNIT_ASSIGNED_CONTEXT ( ( #79, #78, #55 ) ) REPRESENTATION_CONTEXT ( 'NONE', 'WORKASPACE' ) );
#236 = VERTEX_POINT ( 'NONE', #142 ) ;
#237 = EDGE_CURVE ( 'NONE', #96, #236, #63, .T. ) ;
#238 = ORIENTED_EDGE ( 'NONE', *, *, #286, .T. ) ;
#239 = CARTESIAN_POINT ( 'NONE',  ( 0.0000000000000000000, 0.0000000000000000000, 1.250000000000000222 ) ) ;
#240 = ORIENTED_EDGE ( 'NONE', *, *, #305, .T. ) ;
#241 = DIRECTION ( 'NONE',  ( 1.000000000000000000, 0.0000000000000000000, 0.0000000000000000000 ) ) ;
#242 = DIRECTION ( 'NONE',  ( -0.0000000000000000000, -0.0000000000000000000, 1.000000000000000000 ) ) ;
#243 = AXIS2_PLACEMENT_3D ( 'NONE', #289, #219, #93 ) ;
#244 = APPLICATION_PROTOCOL_DEFINITION ( 'draft international standard', 'automotive_design', 1998, #105 ) ;
#245 = DIRECTION ( 'NONE',  ( 1.000000000000000000, 0.0000000000000000000, 0.0000000000000000000 ) ) ;
#246 = CIRCLE ( 'NONE', #180, 0.04750000000000052097 ) ;
#247 = EDGE_CURVE ( 'NONE', #201, #141, #263, .T. ) ;
#248 = FACE_OUTER_BOUND ( 'NONE', #9, .T. ) ;
#249 = DIRECTION ( 'NONE',  ( -0.4999999999999973910, 6.123233995736733988E-17, 0.8660254037844400399 ) ) ;
#250 = ORIENTED_EDGE ( 'NONE', *, *, #230, .F. ) ;
#251 = AXIS2_PLACEMENT_3D ( 'NONE', #298, #178, #19 ) ;
#252 = ORIENTED_EDGE ( 'NONE', *, *, #314, .F. ) ;
#253 = AXIS2_PLACEMENT_3D ( 'NONE', #239, #196, #245 ) ;
#254 =( CONVERSION_BASED_UNIT ( 'INCH', #158 ) LENGTH_UNIT ( ) NAMED_UNIT ( #212 ) );
#255 = ORIENTED_EDGE ( 'NONE', *, *, #189, .T. ) ;
#256 = ORIENTED_EDGE ( 'NONE', *, *, #90, .T. ) ;
#257 =( LENGTH_UNIT ( ) NAMED_UNIT ( * ) SI_UNIT ( $, .METRE. ) );
#258 = ADVANCED_BREP_SHAPE_REPRESENTATION ( 'Micro_DR-125-2', ( #203, #234 ), #319 ) ;
#259 = EDGE_CURVE ( 'NONE', #299, #95, #246, .T. ) ;
#260 = CARTESIAN_POINT ( 'NONE',  ( 0.0000000000000000000, 0.0000000000000000000, 2.235000000000000320 ) ) ;
#261 = DIRECTION ( 'NONE',  ( -0.0000000000000000000, -0.0000000000000000000, 1.000000000000000000 ) ) ;
#262 = VECTOR ( 'NONE', #28, 39.37007874015748854 ) ;
#263 = CIRCLE ( 'NONE', #117, 0.06250000000000000000 ) ;
#264 = ORIENTED_EDGE ( 'NONE', *, *, #247, .T. ) ;
#265 = ORIENTED_EDGE ( 'NONE', *, *, #36, .F. ) ;
#266 = ORIENTED_EDGE ( 'NONE', *, *, #305, .F. ) ;
#267 = CIRCLE ( 'NONE', #31, 0.06244999999999999857 ) ;
#268 = ADVANCED_FACE ( 'NONE', ( #41 ), #216, .T. ) ;
#269 = PRESENTATION_LAYER_ASSIGNMENT (  '', '', ( #171 ) ) ;
#270 = CARTESIAN_POINT ( 'NONE',  ( -0.04750000000000052097, 0.0000000000000000000, 2.250000000000000000 ) ) ;
#271 = CARTESIAN_POINT ( 'NONE',  ( 0.0000000000000000000, 0.0000000000000000000, 0.0000000000000000000 ) ) ;
#272 = DIRECTION ( 'NONE',  ( 1.000000000000000000, 0.0000000000000000000, 0.0000000000000000000 ) ) ;
#273 =( LENGTH_UNIT ( ) NAMED_UNIT ( * ) SI_UNIT ( $, .METRE. ) );
#274 = ORIENTED_EDGE ( 'NONE', *, *, #97, .T. ) ;
#275 = DIRECTION ( 'NONE',  ( 1.000000000000000000, 0.0000000000000000000, 0.0000000000000000000 ) ) ;
#276 = LINE ( 'NONE', #231, #114 ) ;
#277 = AXIS2_PLACEMENT_3D ( 'NONE', #71, #242, #316 ) ;
#278 = VERTEX_POINT ( 'NONE', #110 ) ;
#279 = DIRECTION ( 'NONE',  ( -0.0000000000000000000, -0.0000000000000000000, 1.000000000000000000 ) ) ;
#280 = PRODUCT ( 'Micro_DR-125-2', 'Micro_DR-125-2', '', ( #147 ) ) ;
#281 = ADVANCED_FACE ( 'NONE', ( #292 ), #148, .T. ) ;
#282 = PRODUCT_DEFINITION_FORMATION_WITH_SPECIFIED_SOURCE ( 'ANY', '', #280, .NOT_KNOWN. ) ;
#283 = UNCERTAINTY_MEASURE_WITH_UNIT (LENGTH_MEASURE( 1.000000000000000082E-05 ), #313, 'distance_accuracy_value', 'NONE');
#284 = EDGE_CURVE ( 'NONE', #201, #236, #174, .T. ) ;
#285 = DIRECTION ( 'NONE',  ( -0.8571673007021157753, 1.049727191138622886E-16, 0.5150380749100483824 ) ) ;
#286 = EDGE_CURVE ( 'NONE', #125, #278, #267, .T. ) ;
#287 = ORIENTED_EDGE ( 'NONE', *, *, #230, .T. ) ;
#288 = PRODUCT_DEFINITION ( 'UNKNOWN', '', #282, #187 ) ;
#289 = CARTESIAN_POINT ( 'NONE',  ( 0.0000000000000000000, 0.0000000000000000000, 2.250000000000000000 ) ) ;
#290 = CARTESIAN_POINT ( 'NONE',  ( 0.0000000000000000000, 0.0000000000000000000, 0.0000000000000000000 ) ) ;
#291 = CONICAL_SURFACE ( 'NONE', #205, 0.06244999999999999857, 0.5235987755982959291 ) ;
#292 = FACE_OUTER_BOUND ( 'NONE', #123, .T. ) ;
#293 = DIRECTION ( 'NONE',  ( 1.000000000000000000, 0.0000000000000000000, 0.0000000000000000000 ) ) ;
#294 = EDGE_CURVE ( 'NONE', #23, #62, #82, .T. ) ;
#295 = CARTESIAN_POINT ( 'NONE',  ( -0.06244999999999999857, 7.647919260675221101E-18, 1.250000000000000222 ) ) ;
#296 = DIRECTION ( 'NONE',  ( -0.0000000000000000000, -0.0000000000000000000, 1.000000000000000000 ) ) ;
#297 = ORIENTED_EDGE ( 'NONE', *, *, #138, .T. ) ;
#298 = CARTESIAN_POINT ( 'NONE',  ( 0.0000000000000000000, 0.0000000000000000000, 2.250000000000000000 ) ) ;
#299 = VERTEX_POINT ( 'NONE', #172 ) ;
#300 = APPLICATION_PROTOCOL_DEFINITION ( 'draft international standard', 'automotive_design', 1998, #119 ) ;
#301 = ORIENTED_EDGE ( 'NONE', *, *, #150, .F. ) ;
#302 = VECTOR ( 'NONE', #170, 39.37007874015748143 ) ;
#303 = DIRECTION ( 'NONE',  ( -1.000000000000000000, 0.0000000000000000000, 0.0000000000000000000 ) ) ;
#304 = SURFACE_STYLE_USAGE ( .BOTH. , #163 ) ;
#305 = EDGE_CURVE ( 'NONE', #125, #236, #188, .T. ) ;
#306 = AXIS2_PLACEMENT_3D ( 'NONE', #122, #224, #176 ) ;
#307 = EDGE_CURVE ( 'NONE', #95, #299, #206, .T. ) ;
#308 = DIRECTION ( 'NONE',  ( 1.000000000000000000, 0.0000000000000000000, 0.0000000000000000000 ) ) ;
#309 = ORIENTED_EDGE ( 'NONE', *, *, #317, .T. ) ;
#310 = VECTOR ( 'NONE', #88, 39.37007874015748854 ) ;
#311 = FACE_OUTER_BOUND ( 'NONE', #124, .T. ) ;
#312 = DIRECTION ( 'NONE',  ( -0.0000000000000000000, -0.0000000000000000000, -1.000000000000000000 ) ) ;
#313 =( CONVERSION_BASED_UNIT ( 'INCH', #198 ) LENGTH_UNIT ( ) NAMED_UNIT ( #27 ) );
#314 = EDGE_CURVE ( 'NONE', #236, #96, #98, .T. ) ;
#315 = CIRCLE ( 'NONE', #129, 0.06244999999999999857 ) ;
#316 = DIRECTION ( 'NONE',  ( 1.000000000000000000, 0.0000000000000000000, 0.0000000000000000000 ) ) ;
#317 = EDGE_CURVE ( 'NONE', #62, #137, #60, .T. ) ;
#318 = CARTESIAN_POINT ( 'NONE',  ( 0.06245000000000000551, 0.0000000000000000000, 0.03752374565827057418 ) ) ;
#319 =( GEOMETRIC_REPRESENTATION_CONTEXT ( 3 ) GLOBAL_UNCERTAINTY_ASSIGNED_CONTEXT ( ( #104 ) ) GLOBAL_UNIT_ASSIGNED_CONTEXT ( ( #254, #226, #322 ) ) REPRESENTATION_CONTEXT ( 'NONE', 'WORKASPACE' ) );
#320 = FILL_AREA_STYLE ('',( #46 ) ) ;
#321 = ORIENTED_EDGE ( 'NONE', *, *, #97, .F. ) ;
#322 =( NAMED_UNIT ( * ) SI_UNIT ( $, .STERADIAN. ) SOLID_ANGLE_UNIT ( ) );
#323 = ORIENTED_EDGE ( 'NONE', *, *, #259, .T. ) ;
ENDSEC;
END-ISO-10303-21;
