ISO-10303-21;
HEADER;
FILE_DESCRIPTION (( 'STEP AP214' ),
    '1' );
FILE_NAME ('06165.STEP',
    '2023-07-05T16:00:54',
    ( '' ),
    ( '' ),
    'SwSTEP 2.0',
    'SolidWorks 2023',
    '' );
FILE_SCHEMA (( 'AUTOMOTIVE_DESIGN' ));
ENDSEC;

DATA;
#1 = CYLINDRICAL_SURFACE ( 'NONE', #4, 0.2499999999999998612 ) ;
#2 = CIRCLE ( 'NONE', #104, 0.2500000000000000555 ) ;
#3 = DIRECTION ( 'NONE',  ( -1.000000000000000000, 0.000000000000000000, 0.000000000000000000 ) ) ;
#4 = AXIS2_PLACEMENT_3D ( 'NONE', #7, #22, #247 ) ;
#5 = CARTESIAN_POINT ( 'NONE',  ( 0.000000000000000000, 0.2499999999999991118, 0.000000000000000000 ) ) ;
#6 = MANIFOLD_SOLID_BREP ( 'Revolve - Tool Body (Pointed)', #134 ) ;
#7 = CARTESIAN_POINT ( 'NONE',  ( -6.123233995736772199E-17, 3.000000000000000444, 0.000000000000000000 ) ) ;
#8 = CARTESIAN_POINT ( 'NONE',  ( 0.000000000000000000, 0.000000000000000000, 0.000000000000000000 ) ) ;
#9 = SURFACE_STYLE_USAGE ( .BOTH. , #131 ) ;
#10 = PRODUCT_CONTEXT ( 'NONE', #71, 'mechanical' ) ;
#11 = DIRECTION ( 'NONE',  ( -1.000000000000000000, -1.365923996832133335E-16, 0.000000000000000000 ) ) ;
#12 = CARTESIAN_POINT ( 'NONE',  ( 0.000000000000000000, 0.000000000000000000, 0.000000000000000000 ) ) ;
#13 = AXIS2_PLACEMENT_3D ( 'NONE', #144, #164, #255 ) ;
#14 = ADVANCED_FACE ( 'NONE', ( #38 ), #1, .T. ) ;
#15 = PRESENTATION_LAYER_ASSIGNMENT (  '', '', ( #32 ) ) ;
#16 = ORIENTED_EDGE ( 'NONE', *, *, #203, .T. ) ;
#17 = ORIENTED_EDGE ( 'NONE', *, *, #34, .F. ) ;
#18 = CIRCLE ( 'NONE', #177, 0.2499999999999996947 ) ;
#19 =( CONVERSION_BASED_UNIT ( 'INCH', #230 ) LENGTH_UNIT ( ) NAMED_UNIT ( #257 ) );
#20 = EDGE_CURVE ( 'NONE', #63, #142, #67, .T. ) ;
#21 = ORIENTED_EDGE ( 'NONE', *, *, #20, .F. ) ;
#22 = DIRECTION ( 'NONE',  ( -1.216062324813796344E-16, 1.000000000000000000, -0.000000000000000000 ) ) ;
#23 = LENGTH_MEASURE_WITH_UNIT ( LENGTH_MEASURE( 0.02539999999999999897 ), #108 );
#24 = AXIS2_PLACEMENT_3D ( 'NONE', #179, #261, #256 ) ;
#25 =( NAMED_UNIT ( * ) PLANE_ANGLE_UNIT ( ) SI_UNIT ( $, .RADIAN. ) );
#26 =( CONVERSION_BASED_UNIT ( 'INCH', #217 ) LENGTH_UNIT ( ) NAMED_UNIT ( #156 ) );
#27 = PRESENTATION_STYLE_ASSIGNMENT (( #92 ) ) ;
#28 = CLOSED_SHELL ( 'NONE', ( #150, #116, #238 ) ) ;
#29 = ADVANCED_FACE ( 'NONE', ( #106 ), #56, .F. ) ;
#30 =( LENGTH_UNIT ( ) NAMED_UNIT ( * ) SI_UNIT ( $, .METRE. ) );
#31 =( GEOMETRIC_REPRESENTATION_CONTEXT ( 3 ) GLOBAL_UNCERTAINTY_ASSIGNED_CONTEXT ( ( #184 ) ) GLOBAL_UNIT_ASSIGNED_CONTEXT ( ( #101, #58, #107 ) ) REPRESENTATION_CONTEXT ( 'NONE', 'WORKASPACE' ) );
#32 = STYLED_ITEM ( 'NONE', ( #89 ), #116 ) ;
#33 = VERTEX_POINT ( 'NONE', #145 ) ;
#34 = EDGE_CURVE ( 'NONE', #142, #63, #120, .T. ) ;
#35 = VERTEX_POINT ( 'NONE', #8 ) ;
#36 = FILL_AREA_STYLE ('',( #254 ) ) ;
#37 = CYLINDRICAL_SURFACE ( 'NONE', #253, 0.2499999999999998612 ) ;
#38 = FACE_OUTER_BOUND ( 'NONE', #245, .T. ) ;
#39 = CONICAL_SURFACE ( 'NONE', #79, 39.37007874015762354, 0.7853981633974500554 ) ;
#40 = FACE_OUTER_BOUND ( 'NONE', #152, .T. ) ;
#41 = ORIENTED_EDGE ( 'NONE', *, *, #34, .T. ) ;
#42 = CARTESIAN_POINT ( 'NONE',  ( 0.2499999999999999722, 3.000000000000000444, 0.000000000000000000 ) ) ;
#43 = DIRECTION ( 'NONE',  ( -1.216062324813796344E-16, 1.000000000000000000, -0.000000000000000000 ) ) ;
#44 = SURFACE_STYLE_USAGE ( .BOTH. , #111 ) ;
#45 = PRODUCT_DEFINITION ( 'UNKNOWN', '', #201, #222 ) ;
#46 = VECTOR ( 'NONE', #236, 39.37007874015748143 ) ;
#47 = DIRECTION ( 'NONE',  ( -1.216062324813796344E-16, 1.000000000000000000, 0.000000000000000000 ) ) ;
#48 = CARTESIAN_POINT ( 'NONE',  ( 2.731847993664263218E-16, 0.2499999999999991118, 0.000000000000000000 ) ) ;
#49 =( CONVERSION_BASED_UNIT ( 'INCH', #159 ) LENGTH_UNIT ( ) NAMED_UNIT ( #198 ) );
#50 = ORIENTED_EDGE ( 'NONE', *, *, #139, .F. ) ;
#51 = COLOUR_RGB ( '',1.000000000000000000, 0.000000000000000000, 0.000000000000000000 ) ;
#52 = ORIENTED_EDGE ( 'NONE', *, *, #143, .T. ) ;
#53 = UNCERTAINTY_MEASURE_WITH_UNIT (LENGTH_MEASURE( 1.000000000000000082E-05 ), #49, 'distance_accuracy_value', 'NONE');
#54 = ORIENTED_EDGE ( 'NONE', *, *, #74, .T. ) ;
#55 = DIRECTION ( 'NONE',  ( -1.000000000000000000, 0.000000000000000000, 0.000000000000000000 ) ) ;
#56 = PLANE ( 'NONE',  #165 ) ;
#57 = FILL_AREA_STYLE ('',( #224 ) ) ;
#58 =( NAMED_UNIT ( * ) PLANE_ANGLE_UNIT ( ) SI_UNIT ( $, .RADIAN. ) );
#59 = EDGE_CURVE ( 'NONE', #35, #142, #170, .T. ) ;
#60 = CARTESIAN_POINT ( 'NONE',  ( -6.123233995736772199E-17, 3.000000000000000444, 0.000000000000000000 ) ) ;
#61 = ORIENTED_EDGE ( 'NONE', *, *, #59, .F. ) ;
#62 = CIRCLE ( 'NONE', #219, 0.2500000000000000555 ) ;
#63 = VERTEX_POINT ( 'NONE', #132 ) ;
#64 = PRESENTATION_STYLE_ASSIGNMENT (( #9 ) ) ;
#65 = CARTESIAN_POINT ( 'NONE',  ( 0.000000000000000000, 0.2499999999999991118, 0.000000000000000000 ) ) ;
#66 = PLANE ( 'NONE',  #200 ) ;
#67 = CIRCLE ( 'NONE', #221, 0.2499999999999999722 ) ;
#68 = DIRECTION ( 'NONE',  ( 1.000000000000000000, 0.000000000000000000, 0.000000000000000000 ) ) ;
#69 = CARTESIAN_POINT ( 'NONE',  ( -6.123233995736772199E-17, 3.000000000000000444, 0.000000000000000000 ) ) ;
#70 = VECTOR ( 'NONE', #137, 39.37007874015748854 ) ;
#71 = APPLICATION_CONTEXT ( 'automotive_design' ) ;
#72 = ORIENTED_EDGE ( 'NONE', *, *, #251, .T. ) ;
#73 = MECHANICAL_DESIGN_GEOMETRIC_PRESENTATION_REPRESENTATION (  '', ( #133 ), #31 ) ;
#74 = EDGE_CURVE ( 'NONE', #182, #76, #155, .T. ) ;
#75 = EDGE_LOOP ( 'NONE', ( #97, #225 ) ) ;
#76 = VERTEX_POINT ( 'NONE', #153 ) ;
#77 = UNCERTAINTY_MEASURE_WITH_UNIT (LENGTH_MEASURE( 1.000000000000000082E-05 ), #249, 'distance_accuracy_value', 'NONE');
#78 = ORIENTED_EDGE ( 'NONE', *, *, #74, .F. ) ;
#79 = AXIS2_PLACEMENT_3D ( 'NONE', #119, #237, #215 ) ;
#80 = COLOUR_RGB ( '',0.7921568627450980005, 0.8196078431372548767, 0.9333333333333333481 ) ;
#81 = CARTESIAN_POINT ( 'NONE',  ( -0.2499999999999994171, 0.2499999999999992228, 0.000000000000000000 ) ) ;
#82 = ORIENTED_EDGE ( 'NONE', *, *, #20, .T. ) ;
#83 = DIRECTION ( 'NONE',  ( -1.216062324813796344E-16, 1.000000000000000000, -0.000000000000000000 ) ) ;
#84 = CARTESIAN_POINT ( 'NONE',  ( 0.000000000000000000, 0.2499999999999991118, 0.000000000000000000 ) ) ;
#85 =( LENGTH_UNIT ( ) NAMED_UNIT ( * ) SI_UNIT ( $, .METRE. ) );
#86 =( NAMED_UNIT ( * ) PLANE_ANGLE_UNIT ( ) SI_UNIT ( $, .RADIAN. ) );
#87 =( NAMED_UNIT ( * ) SI_UNIT ( $, .STERADIAN. ) SOLID_ANGLE_UNIT ( ) );
#88 = APPLICATION_CONTEXT ( 'automotive_design' ) ;
#89 = PRESENTATION_STYLE_ASSIGNMENT (( #44 ) ) ;
#90 = DIRECTION ( 'NONE',  ( 0.000000000000000000, 0.000000000000000000, 1.000000000000000000 ) ) ;
#91 = CARTESIAN_POINT ( 'NONE',  ( -0.2499999999999999167, 3.000000000000000444, 0.000000000000000000 ) ) ;
#92 = SURFACE_STYLE_USAGE ( .BOTH. , #218 ) ;
#93 = CARTESIAN_POINT ( 'NONE',  ( 0.2499999999999999722, 0.2499999999999992784, 3.061616997868383018E-17 ) ) ;
#94 = FILL_AREA_STYLE_COLOUR ( '', #51 ) ;
#95 = STYLED_ITEM ( 'NONE', ( #64 ), #180 ) ;
#96 = ORIENTED_EDGE ( 'NONE', *, *, #231, .F. ) ;
#97 = ORIENTED_EDGE ( 'NONE', *, *, #139, .T. ) ;
#98 = ADVANCED_FACE ( 'NONE', ( #234 ), #193, .F. ) ;
#99 = PRESENTATION_LAYER_ASSIGNMENT (  '', '', ( #133 ) ) ;
#100 = UNCERTAINTY_MEASURE_WITH_UNIT (LENGTH_MEASURE( 1.000000000000000082E-05 ), #19, 'distance_accuracy_value', 'NONE');
#101 =( CONVERSION_BASED_UNIT ( 'INCH', #226 ) LENGTH_UNIT ( ) NAMED_UNIT ( #112 ) );
#102 =( NAMED_UNIT ( * ) SI_UNIT ( $, .STERADIAN. ) SOLID_ANGLE_UNIT ( ) );
#103 = EDGE_LOOP ( 'NONE', ( #206, #52, #50, #78 ) ) ;
#104 = AXIS2_PLACEMENT_3D ( 'NONE', #60, #43, #55 ) ;
#105 =( NAMED_UNIT ( * ) SI_UNIT ( $, .STERADIAN. ) SOLID_ANGLE_UNIT ( ) );
#106 = FACE_OUTER_BOUND ( 'NONE', #75, .T. ) ;
#107 =( NAMED_UNIT ( * ) SI_UNIT ( $, .STERADIAN. ) SOLID_ANGLE_UNIT ( ) );
#108 =( LENGTH_UNIT ( ) NAMED_UNIT ( * ) SI_UNIT ( $, .METRE. ) );
#109 =( LENGTH_UNIT ( ) NAMED_UNIT ( * ) SI_UNIT ( $, .METRE. ) );
#110 = STYLED_ITEM ( 'NONE', ( #27 ), #238 ) ;
#111 = SURFACE_SIDE_STYLE ('',( #173 ) ) ;
#112 = DIMENSIONAL_EXPONENTS ( 1.000000000000000000, 0.000000000000000000, 0.000000000000000000, 0.000000000000000000, 0.000000000000000000, 0.000000000000000000, 0.000000000000000000 ) ;
#113 =( NAMED_UNIT ( * ) PLANE_ANGLE_UNIT ( ) SI_UNIT ( $, .RADIAN. ) );
#114 = FILL_AREA_STYLE ('',( #259 ) ) ;
#115 =( LENGTH_UNIT ( ) NAMED_UNIT ( * ) SI_UNIT ( $, .METRE. ) );
#116 = ADVANCED_FACE ( 'NONE', ( #175 ), #66, .T. ) ;
#117 = FILL_AREA_STYLE ('',( #94 ) ) ;
#118 = LENGTH_MEASURE_WITH_UNIT ( LENGTH_MEASURE( 0.02539999999999999897 ), #30 );
#119 = CARTESIAN_POINT ( 'NONE',  ( 0.000000000000000000, 39.37007874015748143, 0.000000000000000000 ) ) ;
#120 = CIRCLE ( 'NONE', #157, 0.2499999999999999722 ) ;
#121 = MECHANICAL_DESIGN_GEOMETRIC_PRESENTATION_REPRESENTATION (  '', ( #95 ), #183 ) ;
#122 =( GEOMETRIC_REPRESENTATION_CONTEXT ( 3 ) GLOBAL_UNCERTAINTY_ASSIGNED_CONTEXT ( ( #53 ) ) GLOBAL_UNIT_ASSIGNED_CONTEXT ( ( #49, #113, #242 ) ) REPRESENTATION_CONTEXT ( 'NONE', 'WORKASPACE' ) );
#123 = EDGE_LOOP ( 'NONE', ( #248, #187 ) ) ;
#124 = DIRECTION ( 'NONE',  ( 0.000000000000000000, -0.000000000000000000, 1.000000000000000000 ) ) ;
#125 = DIRECTION ( 'NONE',  ( -0.000000000000000000, -1.000000000000000000, -0.000000000000000000 ) ) ;
#126 = MECHANICAL_DESIGN_GEOMETRIC_PRESENTATION_REPRESENTATION (  '', ( #110 ), #162 ) ;
#127 = SURFACE_STYLE_USAGE ( .BOTH. , #172 ) ;
#128 = PRODUCT ( '06165', '06165', '', ( #10 ) ) ;
#129 =( NAMED_UNIT ( * ) PLANE_ANGLE_UNIT ( ) SI_UNIT ( $, .RADIAN. ) );
#130 = PRESENTATION_STYLE_ASSIGNMENT (( #163 ) ) ;
#131 = SURFACE_SIDE_STYLE ('',( #207 ) ) ;
#132 = CARTESIAN_POINT ( 'NONE',  ( 0.000000000000000000, 0.2499999999999991118, 0.2499999999999999722 ) ) ;
#133 = STYLED_ITEM ( 'NONE', ( #130 ), #6 ) ;
#134 = CLOSED_SHELL ( 'NONE', ( #181, #98, #14, #29 ) ) ;
#135 = DIRECTION ( 'NONE',  ( 8.659560562354947649E-17, 0.7071067811865462405, -0.7071067811865486830 ) ) ;
#136 =( CONVERSION_BASED_UNIT ( 'INCH', #118 ) LENGTH_UNIT ( ) NAMED_UNIT ( #252 ) );
#137 = DIRECTION ( 'NONE',  ( 0.000000000000000000, 0.7071067811865462405, 0.7071067811865486830 ) ) ;
#138 = COLOUR_RGB ( '',1.000000000000000000, 0.000000000000000000, 0.000000000000000000 ) ;
#139 = EDGE_CURVE ( 'NONE', #76, #33, #2, .T. ) ;
#140 = APPLICATION_PROTOCOL_DEFINITION ( 'draft international standard', 'automotive_design', 1998, #71 ) ;
#141 = PRESENTATION_LAYER_ASSIGNMENT (  '', '', ( #110 ) ) ;
#142 = VERTEX_POINT ( 'NONE', #166 ) ;
#143 = EDGE_CURVE ( 'NONE', #244, #33, #169, .T. ) ;
#144 = CARTESIAN_POINT ( 'NONE',  ( 0.000000000000000000, 39.37007874015748143, 0.000000000000000000 ) ) ;
#145 = CARTESIAN_POINT ( 'NONE',  ( 0.2499999999999999722, 3.000000000000000444, 3.061616997868383018E-17 ) ) ;
#146 = PRODUCT_DEFINITION_SHAPE ( 'NONE', 'NONE',  #45 ) ;
#147 = CARTESIAN_POINT ( 'NONE',  ( 2.731847993664263711E-16, 0.2499999999999992506, 0.000000000000000000 ) ) ;
#148 = SURFACE_SIDE_STYLE ('',( #209 ) ) ;
#149 = CARTESIAN_POINT ( 'NONE',  ( 0.2499999999999998057, 3.000000000000000444, 3.061616997868381785E-17 ) ) ;
#150 = ADVANCED_FACE ( 'NONE', ( #40 ), #205, .T. ) ;
#151 = MECHANICAL_DESIGN_GEOMETRIC_PRESENTATION_REPRESENTATION (  '', ( #258 ), #243 ) ;
#152 = EDGE_LOOP ( 'NONE', ( #229, #264, #41 ) ) ;
#153 = CARTESIAN_POINT ( 'NONE',  ( -0.2500000000000001110, 3.000000000000000444, 0.000000000000000000 ) ) ;
#154 = SURFACE_STYLE_FILL_AREA ( #117 ) ;
#155 = LINE ( 'NONE', #91, #46 ) ;
#156 = DIMENSIONAL_EXPONENTS ( 1.000000000000000000, 0.000000000000000000, 0.000000000000000000, 0.000000000000000000, 0.000000000000000000, 0.000000000000000000, 0.000000000000000000 ) ;
#157 = AXIS2_PLACEMENT_3D ( 'NONE', #84, #211, #250 ) ;
#158 = VECTOR ( 'NONE', #135, 39.37007874015748854 ) ;
#159 = LENGTH_MEASURE_WITH_UNIT ( LENGTH_MEASURE( 0.02539999999999999897 ), #115 );
#160 =( LENGTH_UNIT ( ) NAMED_UNIT ( * ) SI_UNIT ( $, .METRE. ) );
#161 = DIRECTION ( 'NONE',  ( -1.216062324813796344E-16, 1.000000000000000000, -0.000000000000000000 ) ) ;
#162 =( GEOMETRIC_REPRESENTATION_CONTEXT ( 3 ) GLOBAL_UNCERTAINTY_ASSIGNED_CONTEXT ( ( #246 ) ) GLOBAL_UNIT_ASSIGNED_CONTEXT ( ( #136, #197, #174 ) ) REPRESENTATION_CONTEXT ( 'NONE', 'WORKASPACE' ) );
#163 = SURFACE_STYLE_USAGE ( .BOTH. , #148 ) ;
#164 = DIRECTION ( 'NONE',  ( 0.000000000000000000, 1.000000000000000000, 0.000000000000000000 ) ) ;
#165 = AXIS2_PLACEMENT_3D ( 'NONE', #42, #167, #189 ) ;
#166 = CARTESIAN_POINT ( 'NONE',  ( 3.061616997868383018E-17, 0.2499999999999991118, -0.2499999999999999722 ) ) ;
#167 = DIRECTION ( 'NONE',  ( 1.216062324813796344E-16, -1.000000000000000000, 0.000000000000000000 ) ) ;
#168 = EDGE_LOOP ( 'NONE', ( #61, #16, #82 ) ) ;
#169 = LINE ( 'NONE', #149, #240 ) ;
#170 = LINE ( 'NONE', #212, #158 ) ;
#171 = COLOUR_RGB ( '',1.000000000000000000, 0.000000000000000000, 0.000000000000000000 ) ;
#172 = SURFACE_SIDE_STYLE ('',( #233 ) ) ;
#173 = SURFACE_STYLE_FILL_AREA ( #114 ) ;
#174 =( NAMED_UNIT ( * ) SI_UNIT ( $, .STERADIAN. ) SOLID_ANGLE_UNIT ( ) );
#175 = FACE_OUTER_BOUND ( 'NONE', #263, .T. ) ;
#176 = DIRECTION ( 'NONE',  ( 0.000000000000000000, 1.000000000000000000, 0.000000000000000000 ) ) ;
#177 = AXIS2_PLACEMENT_3D ( 'NONE', #147, #83, #11 ) ;
#178 = APPLICATION_PROTOCOL_DEFINITION ( 'draft international standard', 'automotive_design', 1998, #88 ) ;
#179 = CARTESIAN_POINT ( 'NONE',  ( 2.731847993664263711E-16, 0.2499999999999992506, 0.000000000000000000 ) ) ;
#180 = MANIFOLD_SOLID_BREP ( 'Revolve - Cutting Edge', #28 ) ;
#181 = ADVANCED_FACE ( 'NONE', ( #185 ), #37, .T. ) ;
#182 = VERTEX_POINT ( 'NONE', #81 ) ;
#183 =( GEOMETRIC_REPRESENTATION_CONTEXT ( 3 ) GLOBAL_UNCERTAINTY_ASSIGNED_CONTEXT ( ( #100 ) ) GLOBAL_UNIT_ASSIGNED_CONTEXT ( ( #19, #129, #105 ) ) REPRESENTATION_CONTEXT ( 'NONE', 'WORKASPACE' ) );
#184 = UNCERTAINTY_MEASURE_WITH_UNIT (LENGTH_MEASURE( 1.000000000000000082E-05 ), #101, 'distance_accuracy_value', 'NONE');
#185 = FACE_OUTER_BOUND ( 'NONE', #103, .T. ) ;
#186 = MECHANICAL_DESIGN_GEOMETRIC_PRESENTATION_REPRESENTATION (  '', ( #32 ), #208 ) ;
#187 = ORIENTED_EDGE ( 'NONE', *, *, #251, .F. ) ;
#188 = FILL_AREA_STYLE_COLOUR ( '', #171 ) ;
#189 = DIRECTION ( 'NONE',  ( 1.000000000000000000, 1.216062324813796344E-16, 0.000000000000000000 ) ) ;
#190 = CARTESIAN_POINT ( 'NONE',  ( -6.123233995736772199E-17, 3.000000000000000444, 0.000000000000000000 ) ) ;
#191 = DIRECTION ( 'NONE',  ( -1.216062324813796344E-16, 1.000000000000000000, -0.000000000000000000 ) ) ;
#192 = DIRECTION ( 'NONE',  ( -1.216062324813796344E-16, 1.000000000000000000, -0.000000000000000000 ) ) ;
#193 = PLANE ( 'NONE',  #228 ) ;
#194 = FACE_OUTER_BOUND ( 'NONE', #168, .T. ) ;
#195 = DIMENSIONAL_EXPONENTS ( 1.000000000000000000, 0.000000000000000000, 0.000000000000000000, 0.000000000000000000, 0.000000000000000000, 0.000000000000000000, 0.000000000000000000 ) ;
#196 = EDGE_CURVE ( 'NONE', #182, #244, #18, .T. ) ;
#197 =( NAMED_UNIT ( * ) PLANE_ANGLE_UNIT ( ) SI_UNIT ( $, .RADIAN. ) );
#198 = DIMENSIONAL_EXPONENTS ( 1.000000000000000000, 0.000000000000000000, 0.000000000000000000, 0.000000000000000000, 0.000000000000000000, 0.000000000000000000, 0.000000000000000000 ) ;
#199 = LINE ( 'NONE', #12, #70 ) ;
#200 = AXIS2_PLACEMENT_3D ( 'NONE', #65, #176, #124 ) ;
#201 = PRODUCT_DEFINITION_FORMATION_WITH_SPECIFIED_SOURCE ( 'ANY', '', #128, .NOT_KNOWN. ) ;
#202 = ADVANCED_BREP_SHAPE_REPRESENTATION ( '06165', ( #180, #6, #262 ), #122 ) ;
#203 = EDGE_CURVE ( 'NONE', #35, #63, #199, .T. ) ;
#204 = UNCERTAINTY_MEASURE_WITH_UNIT (LENGTH_MEASURE( 1.000000000000000082E-05 ), #26, 'distance_accuracy_value', 'NONE');
#205 = CONICAL_SURFACE ( 'NONE', #13, 39.37007874015762354, 0.7853981633974500554 ) ;
#206 = ORIENTED_EDGE ( 'NONE', *, *, #196, .T. ) ;
#207 = SURFACE_STYLE_FILL_AREA ( #57 ) ;
#208 =( GEOMETRIC_REPRESENTATION_CONTEXT ( 3 ) GLOBAL_UNCERTAINTY_ASSIGNED_CONTEXT ( ( #204 ) ) GLOBAL_UNIT_ASSIGNED_CONTEXT ( ( #26, #25, #87 ) ) REPRESENTATION_CONTEXT ( 'NONE', 'WORKASPACE' ) );
#209 = SURFACE_STYLE_FILL_AREA ( #36 ) ;
#210 = PRESENTATION_STYLE_ASSIGNMENT (( #127 ) ) ;
#211 = DIRECTION ( 'NONE',  ( -0.000000000000000000, -1.000000000000000000, -0.000000000000000000 ) ) ;
#212 = CARTESIAN_POINT ( 'NONE',  ( 0.000000000000000000, 0.000000000000000000, 0.000000000000000000 ) ) ;
#213 = PRODUCT_RELATED_PRODUCT_CATEGORY ( 'part', '', ( #128 ) ) ;
#214 = COLOUR_RGB ( '',0.7921568627450980005, 0.8196078431372548767, 0.9333333333333333481 ) ;
#215 = DIRECTION ( 'NONE',  ( 0.000000000000000000, 0.000000000000000000, 1.000000000000000000 ) ) ;
#216 = DIRECTION ( 'NONE',  ( -1.000000000000000000, -1.216062324813796344E-16, 0.000000000000000000 ) ) ;
#217 = LENGTH_MEASURE_WITH_UNIT ( LENGTH_MEASURE( 0.02539999999999999897 ), #160 );
#218 = SURFACE_SIDE_STYLE ('',( #154 ) ) ;
#219 = AXIS2_PLACEMENT_3D ( 'NONE', #69, #161, #239 ) ;
#220 = CARTESIAN_POINT ( 'NONE',  ( 0.000000000000000000, 0.000000000000000000, 0.000000000000000000 ) ) ;
#221 = AXIS2_PLACEMENT_3D ( 'NONE', #5, #125, #232 ) ;
#222 = PRODUCT_DEFINITION_CONTEXT ( 'detailed design', #88, 'design' ) ;
#223 = ORIENTED_EDGE ( 'NONE', *, *, #143, .F. ) ;
#224 = FILL_AREA_STYLE_COLOUR ( '', #214 ) ;
#225 = ORIENTED_EDGE ( 'NONE', *, *, #231, .T. ) ;
#226 = LENGTH_MEASURE_WITH_UNIT ( LENGTH_MEASURE( 0.02539999999999999897 ), #109 );
#227 = FILL_AREA_STYLE ('',( #188 ) ) ;
#228 = AXIS2_PLACEMENT_3D ( 'NONE', #48, #47, #216 ) ;
#229 = ORIENTED_EDGE ( 'NONE', *, *, #203, .F. ) ;
#230 = LENGTH_MEASURE_WITH_UNIT ( LENGTH_MEASURE( 0.02539999999999999897 ), #85 );
#231 = EDGE_CURVE ( 'NONE', #33, #76, #62, .T. ) ;
#232 = DIRECTION ( 'NONE',  ( 0.000000000000000000, 0.000000000000000000, -1.000000000000000000 ) ) ;
#233 = SURFACE_STYLE_FILL_AREA ( #227 ) ;
#234 = FACE_OUTER_BOUND ( 'NONE', #123, .T. ) ;
#235 = PRESENTATION_LAYER_ASSIGNMENT (  '', '', ( #95 ) ) ;
#236 = DIRECTION ( 'NONE',  ( -1.216062324813796344E-16, 1.000000000000000000, -0.000000000000000000 ) ) ;
#237 = DIRECTION ( 'NONE',  ( 0.000000000000000000, 1.000000000000000000, 0.000000000000000000 ) ) ;
#238 = ADVANCED_FACE ( 'NONE', ( #194 ), #39, .T. ) ;
#239 = DIRECTION ( 'NONE',  ( -1.000000000000000000, 0.000000000000000000, 0.000000000000000000 ) ) ;
#240 = VECTOR ( 'NONE', #192, 39.37007874015748143 ) ;
#241 = CIRCLE ( 'NONE', #24, 0.2499999999999996947 ) ;
#242 =( NAMED_UNIT ( * ) SI_UNIT ( $, .STERADIAN. ) SOLID_ANGLE_UNIT ( ) );
#243 =( GEOMETRIC_REPRESENTATION_CONTEXT ( 3 ) GLOBAL_UNCERTAINTY_ASSIGNED_CONTEXT ( ( #77 ) ) GLOBAL_UNIT_ASSIGNED_CONTEXT ( ( #249, #86, #102 ) ) REPRESENTATION_CONTEXT ( 'NONE', 'WORKASPACE' ) );
#244 = VERTEX_POINT ( 'NONE', #93 ) ;
#245 = EDGE_LOOP ( 'NONE', ( #223, #72, #54, #96 ) ) ;
#246 = UNCERTAINTY_MEASURE_WITH_UNIT (LENGTH_MEASURE( 1.000000000000000082E-05 ), #136, 'distance_accuracy_value', 'NONE');
#247 = DIRECTION ( 'NONE',  ( -1.000000000000000000, 0.000000000000000000, 0.000000000000000000 ) ) ;
#248 = ORIENTED_EDGE ( 'NONE', *, *, #196, .F. ) ;
#249 =( CONVERSION_BASED_UNIT ( 'INCH', #23 ) LENGTH_UNIT ( ) NAMED_UNIT ( #195 ) );
#250 = DIRECTION ( 'NONE',  ( 0.000000000000000000, 0.000000000000000000, -1.000000000000000000 ) ) ;
#251 = EDGE_CURVE ( 'NONE', #244, #182, #241, .T. ) ;
#252 = DIMENSIONAL_EXPONENTS ( 1.000000000000000000, 0.000000000000000000, 0.000000000000000000, 0.000000000000000000, 0.000000000000000000, 0.000000000000000000, 0.000000000000000000 ) ;
#253 = AXIS2_PLACEMENT_3D ( 'NONE', #190, #191, #3 ) ;
#254 = FILL_AREA_STYLE_COLOUR ( '', #80 ) ;
#255 = DIRECTION ( 'NONE',  ( 0.000000000000000000, 0.000000000000000000, 1.000000000000000000 ) ) ;
#256 = DIRECTION ( 'NONE',  ( -1.000000000000000000, -1.365923996832133335E-16, 0.000000000000000000 ) ) ;
#257 = DIMENSIONAL_EXPONENTS ( 1.000000000000000000, 0.000000000000000000, 0.000000000000000000, 0.000000000000000000, 0.000000000000000000, 0.000000000000000000, 0.000000000000000000 ) ;
#258 = STYLED_ITEM ( 'NONE', ( #210 ), #150 ) ;
#259 = FILL_AREA_STYLE_COLOUR ( '', #138 ) ;
#260 = SHAPE_DEFINITION_REPRESENTATION ( #146, #202 ) ;
#261 = DIRECTION ( 'NONE',  ( -1.216062324813796344E-16, 1.000000000000000000, -0.000000000000000000 ) ) ;
#262 = AXIS2_PLACEMENT_3D ( 'NONE', #220, #90, #68 ) ;
#263 = EDGE_LOOP ( 'NONE', ( #21, #17 ) ) ;
#264 = ORIENTED_EDGE ( 'NONE', *, *, #59, .T. ) ;
#265 = PRESENTATION_LAYER_ASSIGNMENT (  '', '', ( #258 ) ) ;
ENDSEC;
END-ISO-10303-21;
