ISO-10303-21;
HEADER;
FILE_DESCRIPTION (( 'STEP AP214' ),
    '1' );
FILE_NAME ('84773.STEP',
    '2023-07-05T16:23:47',
    ( '' ),
    ( '' ),
    'SwSTEP 2.0',
    'SolidWorks 2023',
    '' );
FILE_SCHEMA (( 'AUTOMOTIVE_DESIGN' ));
ENDSEC;

DATA;
#1 =( NAMED_UNIT ( * ) PLANE_ANGLE_UNIT ( ) SI_UNIT ( $, .RADIAN. ) );
#2 = MECHANICAL_DESIGN_GEOMETRIC_PRESENTATION_REPRESENTATION (  '', ( #188 ), #161 ) ;
#3 = CARTESIAN_POINT ( 'NONE',  ( 0.000000000000000000, 0.000000000000000000, 0.000000000000000000 ) ) ;
#4 =( NAMED_UNIT ( * ) SI_UNIT ( $, .STERADIAN. ) SOLID_ANGLE_UNIT ( ) );
#5 = DIRECTION ( 'NONE',  ( -1.237930494036654098E-16, 1.000000000000000000, 0.000000000000000000 ) ) ;
#6 = PRESENTATION_LAYER_ASSIGNMENT (  '', '', ( #152 ) ) ;
#7 = CARTESIAN_POINT ( 'NONE',  ( 1.574041360807988724E-18, 0.2706329386826362704, 0.000000000000000000 ) ) ;
#8 =( LENGTH_UNIT ( ) NAMED_UNIT ( * ) SI_UNIT ( $, .METRE. ) );
#9 = SHAPE_DEFINITION_REPRESENTATION ( #223, #225 ) ;
#10 = VECTOR ( 'NONE', #203, 39.37007874015748143 ) ;
#11 = VERTEX_POINT ( 'NONE', #3 ) ;
#12 = CARTESIAN_POINT ( 'NONE',  ( 0.000000000000000000, 0.000000000000000000, 0.000000000000000000 ) ) ;
#13 = UNCERTAINTY_MEASURE_WITH_UNIT (LENGTH_MEASURE( 1.000000000000000082E-05 ), #154, 'distance_accuracy_value', 'NONE');
#14 = DIRECTION ( 'NONE',  ( -1.237930494036654098E-16, 1.000000000000000000, -0.000000000000000000 ) ) ;
#15 = CARTESIAN_POINT ( 'NONE',  ( 3.372124867179325742E-16, 0.2706329386826362149, 0.000000000000000000 ) ) ;
#16 = DIRECTION ( 'NONE',  ( -1.237930494036654098E-16, 1.000000000000000000, -0.000000000000000000 ) ) ;
#17 = PRESENTATION_LAYER_ASSIGNMENT (  '', '', ( #91 ) ) ;
#18 = EDGE_CURVE ( 'NONE', #191, #72, #38, .T. ) ;
#19 = DIRECTION ( 'NONE',  ( -1.000000000000000000, 0.000000000000000000, 0.000000000000000000 ) ) ;
#20 =( LENGTH_UNIT ( ) NAMED_UNIT ( * ) SI_UNIT ( $, .METRE. ) );
#21 = PRODUCT_RELATED_PRODUCT_CATEGORY ( 'part', '', ( #99 ) ) ;
#22 = VECTOR ( 'NONE', #251, 39.37007874015748854 ) ;
#23 = UNCERTAINTY_MEASURE_WITH_UNIT (LENGTH_MEASURE( 1.000000000000000082E-05 ), #65, 'distance_accuracy_value', 'NONE');
#24 = DIMENSIONAL_EXPONENTS ( 1.000000000000000000, 0.000000000000000000, 0.000000000000000000, 0.000000000000000000, 0.000000000000000000, 0.000000000000000000, 0.000000000000000000 ) ;
#25 = FILL_AREA_STYLE ('',( #171 ) ) ;
#26 = CARTESIAN_POINT ( 'NONE',  ( 0.1562500000000000000, 2.500000000000000000, 0.000000000000000000 ) ) ;
#27 = CLOSED_SHELL ( 'NONE', ( #43, #125, #160 ) ) ;
#28 =( NAMED_UNIT ( * ) PLANE_ANGLE_UNIT ( ) SI_UNIT ( $, .RADIAN. ) );
#29 = LENGTH_MEASURE_WITH_UNIT ( LENGTH_MEASURE( 0.02539999999999999897 ), #259 );
#30 = VERTEX_POINT ( 'NONE', #204 ) ;
#31 = CIRCLE ( 'NONE', #207, 0.1562500000000000000 ) ;
#32 = AXIS2_PLACEMENT_3D ( 'NONE', #42, #82, #208 ) ;
#33 = FILL_AREA_STYLE ('',( #46 ) ) ;
#34 = EDGE_LOOP ( 'NONE', ( #108, #218 ) ) ;
#35 = SURFACE_STYLE_FILL_AREA ( #217 ) ;
#36 = PRESENTATION_LAYER_ASSIGNMENT (  '', '', ( #221 ) ) ;
#37 = COLOUR_RGB ( '',1.000000000000000000, 0.000000000000000000, 0.000000000000000000 ) ;
#38 = LINE ( 'NONE', #124, #10 ) ;
#39 = CARTESIAN_POINT ( 'NONE',  ( 6.123233995736772199E-17, 2.500000000000000000, 0.000000000000000000 ) ) ;
#40 =( CONVERSION_BASED_UNIT ( 'INCH', #249 ) LENGTH_UNIT ( ) NAMED_UNIT ( #144 ) );
#41 = AXIS2_PLACEMENT_3D ( 'NONE', #39, #64, #19 ) ;
#42 = CARTESIAN_POINT ( 'NONE',  ( 6.123233995736772199E-17, 2.500000000000000000, 0.000000000000000000 ) ) ;
#43 = ADVANCED_FACE ( 'NONE', ( #126 ), #83, .T. ) ;
#44 =( GEOMETRIC_REPRESENTATION_CONTEXT ( 3 ) GLOBAL_UNCERTAINTY_ASSIGNED_CONTEXT ( ( #87 ) ) GLOBAL_UNIT_ASSIGNED_CONTEXT ( ( #234, #28, #111 ) ) REPRESENTATION_CONTEXT ( 'NONE', 'WORKASPACE' ) );
#45 = DIRECTION ( 'NONE',  ( 1.237930494036654098E-16, -1.000000000000000000, 0.000000000000000000 ) ) ;
#46 = FILL_AREA_STYLE_COLOUR ( '', #206 ) ;
#47 = ORIENTED_EDGE ( 'NONE', *, *, #193, .T. ) ;
#48 = DIRECTION ( 'NONE',  ( -1.000000000000000000, 5.816148501619839219E-18, 0.000000000000000000 ) ) ;
#49 =( NAMED_UNIT ( * ) SI_UNIT ( $, .STERADIAN. ) SOLID_ANGLE_UNIT ( ) );
#50 = COLOUR_RGB ( '',1.000000000000000000, 0.000000000000000000, 0.000000000000000000 ) ;
#51 = EDGE_LOOP ( 'NONE', ( #92, #157, #195 ) ) ;
#52 = APPLICATION_PROTOCOL_DEFINITION ( 'draft international standard', 'automotive_design', 1998, #185 ) ;
#53 = DIRECTION ( 'NONE',  ( -1.000000000000000000, -2.185478394931415259E-16, 0.000000000000000000 ) ) ;
#54 = CYLINDRICAL_SURFACE ( 'NONE', #73, 0.1562499999999998057 ) ;
#55 = ORIENTED_EDGE ( 'NONE', *, *, #196, .T. ) ;
#56 = ORIENTED_EDGE ( 'NONE', *, *, #239, .F. ) ;
#57 = MECHANICAL_DESIGN_GEOMETRIC_PRESENTATION_REPRESENTATION (  '', ( #158 ), #233 ) ;
#58 = SURFACE_STYLE_FILL_AREA ( #84 ) ;
#59 = PLANE ( 'NONE',  #114 ) ;
#60 = UNCERTAINTY_MEASURE_WITH_UNIT (LENGTH_MEASURE( 1.000000000000000082E-05 ), #40, 'distance_accuracy_value', 'NONE');
#61 = LENGTH_MEASURE_WITH_UNIT ( LENGTH_MEASURE( 0.02539999999999999897 ), #246 );
#62 = DIMENSIONAL_EXPONENTS ( 1.000000000000000000, 0.000000000000000000, 0.000000000000000000, 0.000000000000000000, 0.000000000000000000, 0.000000000000000000, 0.000000000000000000 ) ;
#63 = EDGE_CURVE ( 'NONE', #150, #72, #222, .T. ) ;
#64 = DIRECTION ( 'NONE',  ( -1.237930494036654098E-16, 1.000000000000000000, -0.000000000000000000 ) ) ;
#65 =( CONVERSION_BASED_UNIT ( 'INCH', #61 ) LENGTH_UNIT ( ) NAMED_UNIT ( #79 ) );
#66 = SURFACE_SIDE_STYLE ('',( #115 ) ) ;
#67 = ORIENTED_EDGE ( 'NONE', *, *, #265, .T. ) ;
#68 = MECHANICAL_DESIGN_GEOMETRIC_PRESENTATION_REPRESENTATION (  '', ( #221 ), #44 ) ;
#69 = ADVANCED_FACE ( 'NONE', ( #186 ), #59, .F. ) ;
#70 = CYLINDRICAL_SURFACE ( 'NONE', #123, 0.1562499999999998057 ) ;
#71 = CARTESIAN_POINT ( 'NONE',  ( 3.372124867179325742E-16, 0.2706329386826362149, 0.000000000000000000 ) ) ;
#72 = VERTEX_POINT ( 'NONE', #102 ) ;
#73 = AXIS2_PLACEMENT_3D ( 'NONE', #201, #16, #241 ) ;
#74 = LINE ( 'NONE', #147, #22 ) ;
#75 = PRODUCT_CONTEXT ( 'NONE', #185, 'mechanical' ) ;
#76 = EDGE_LOOP ( 'NONE', ( #168, #56 ) ) ;
#77 = VECTOR ( 'NONE', #88, 39.37007874015748854 ) ;
#78 = DIRECTION ( 'NONE',  ( 5.816148501619839219E-18, 1.000000000000000000, 0.000000000000000000 ) ) ;
#79 = DIMENSIONAL_EXPONENTS ( 1.000000000000000000, 0.000000000000000000, 0.000000000000000000, 0.000000000000000000, 0.000000000000000000, 0.000000000000000000, 0.000000000000000000 ) ;
#80 = CARTESIAN_POINT ( 'NONE',  ( 3.372124867179324756E-16, 0.2706329386826362704, 0.000000000000000000 ) ) ;
#81 = PRODUCT_DEFINITION_FORMATION_WITH_SPECIFIED_SOURCE ( 'ANY', '', #99, .NOT_KNOWN. ) ;
#82 = DIRECTION ( 'NONE',  ( -1.237930494036654098E-16, 1.000000000000000000, -0.000000000000000000 ) ) ;
#83 = CONICAL_SURFACE ( 'NONE', #162, 22.73032555864674720, 0.5235987755983001479 ) ;
#84 = FILL_AREA_STYLE ('',( #247 ) ) ;
#85 = DIRECTION ( 'NONE',  ( -1.000000000000000000, 0.000000000000000000, 0.000000000000000000 ) ) ;
#86 = DIRECTION ( 'NONE',  ( 1.000000000000000000, 0.000000000000000000, 0.000000000000000000 ) ) ;
#87 = UNCERTAINTY_MEASURE_WITH_UNIT (LENGTH_MEASURE( 1.000000000000000082E-05 ), #234, 'distance_accuracy_value', 'NONE');
#88 = DIRECTION ( 'NONE',  ( 0.5000000000000009992, 0.8660254037844379305, 6.123233995736778362E-17 ) ) ;
#89 = FACE_OUTER_BOUND ( 'NONE', #51, .T. ) ;
#90 = LINE ( 'NONE', #151, #77 ) ;
#91 = STYLED_ITEM ( 'NONE', ( #93 ), #160 ) ;
#92 = ORIENTED_EDGE ( 'NONE', *, *, #214, .F. ) ;
#93 = PRESENTATION_STYLE_ASSIGNMENT (( #148 ) ) ;
#94 = ORIENTED_EDGE ( 'NONE', *, *, #96, .T. ) ;
#95 = DIRECTION ( 'NONE',  ( 0.000000000000000000, 0.000000000000000000, 1.000000000000000000 ) ) ;
#96 = EDGE_CURVE ( 'NONE', #72, #150, #263, .T. ) ;
#97 = DIRECTION ( 'NONE',  ( 1.000000000000000000, 0.000000000000000000, 0.000000000000000000 ) ) ;
#98 =( NAMED_UNIT ( * ) PLANE_ANGLE_UNIT ( ) SI_UNIT ( $, .RADIAN. ) );
#99 = PRODUCT ( '84773', '84773', '', ( #75 ) ) ;
#100 =( CONVERSION_BASED_UNIT ( 'INCH', #200 ) LENGTH_UNIT ( ) NAMED_UNIT ( #24 ) );
#101 = AXIS2_PLACEMENT_3D ( 'NONE', #7, #256, #48 ) ;
#102 = CARTESIAN_POINT ( 'NONE',  ( 0.1562500000000000000, 2.500000000000000000, 1.913510623667737923E-17 ) ) ;
#103 = DIMENSIONAL_EXPONENTS ( 1.000000000000000000, 0.000000000000000000, 0.000000000000000000, 0.000000000000000000, 0.000000000000000000, 0.000000000000000000, 0.000000000000000000 ) ;
#104 = MECHANICAL_DESIGN_GEOMETRIC_PRESENTATION_REPRESENTATION (  '', ( #91 ), #156 ) ;
#105 = CIRCLE ( 'NONE', #254, 0.1562499999999996669 ) ;
#106 = PRESENTATION_STYLE_ASSIGNMENT (( #141 ) ) ;
#107 =( GEOMETRIC_REPRESENTATION_CONTEXT ( 3 ) GLOBAL_UNCERTAINTY_ASSIGNED_CONTEXT ( ( #13 ) ) GLOBAL_UNIT_ASSIGNED_CONTEXT ( ( #154, #137, #257 ) ) REPRESENTATION_CONTEXT ( 'NONE', 'WORKASPACE' ) );
#108 = ORIENTED_EDGE ( 'NONE', *, *, #117, .F. ) ;
#109 = PRODUCT_DEFINITION ( 'UNKNOWN', '', #81, #227 ) ;
#110 = ORIENTED_EDGE ( 'NONE', *, *, #63, .T. ) ;
#111 =( NAMED_UNIT ( * ) SI_UNIT ( $, .STERADIAN. ) SOLID_ANGLE_UNIT ( ) );
#112 = UNCERTAINTY_MEASURE_WITH_UNIT (LENGTH_MEASURE( 1.000000000000000082E-05 ), #100, 'distance_accuracy_value', 'NONE');
#113 = EDGE_LOOP ( 'NONE', ( #110, #94 ) ) ;
#114 = AXIS2_PLACEMENT_3D ( 'NONE', #80, #5, #146 ) ;
#115 = SURFACE_STYLE_FILL_AREA ( #33 ) ;
#116 = ORIENTED_EDGE ( 'NONE', *, *, #18, .F. ) ;
#117 = EDGE_CURVE ( 'NONE', #133, #199, #31, .T. ) ;
#118 = SURFACE_SIDE_STYLE ('',( #35 ) ) ;
#119 = ORIENTED_EDGE ( 'NONE', *, *, #239, .T. ) ;
#120 = APPLICATION_CONTEXT ( 'automotive_design' ) ;
#121 =( LENGTH_UNIT ( ) NAMED_UNIT ( * ) SI_UNIT ( $, .METRE. ) );
#122 = DIMENSIONAL_EXPONENTS ( 1.000000000000000000, 0.000000000000000000, 0.000000000000000000, 0.000000000000000000, 0.000000000000000000, 0.000000000000000000, 0.000000000000000000 ) ;
#123 = AXIS2_PLACEMENT_3D ( 'NONE', #210, #236, #130 ) ;
#124 = CARTESIAN_POINT ( 'NONE',  ( 0.1562499999999998612, 2.500000000000000000, 1.913510623667736998E-17 ) ) ;
#125 = ADVANCED_FACE ( 'NONE', ( #166 ), #248, .T. ) ;
#126 = FACE_OUTER_BOUND ( 'NONE', #261, .T. ) ;
#127 = FILL_AREA_STYLE_COLOUR ( '', #37 ) ;
#128 = CARTESIAN_POINT ( 'NONE',  ( -0.1562499999999999722, 0.2706329386826362149, 0.000000000000000000 ) ) ;
#129 = PRESENTATION_STYLE_ASSIGNMENT (( #192 ) ) ;
#130 = DIRECTION ( 'NONE',  ( -1.000000000000000000, 0.000000000000000000, 0.000000000000000000 ) ) ;
#131 = CARTESIAN_POINT ( 'NONE',  ( -0.1562499999999997224, 2.500000000000000000, 0.000000000000000000 ) ) ;
#132 = AXIS2_PLACEMENT_3D ( 'NONE', #15, #243, #53 ) ;
#133 = VERTEX_POINT ( 'NONE', #128 ) ;
#134 = FILL_AREA_STYLE_COLOUR ( '', #202 ) ;
#135 = CARTESIAN_POINT ( 'NONE',  ( 1.574041360807988724E-18, 0.2706329386826362704, 0.000000000000000000 ) ) ;
#136 = ORIENTED_EDGE ( 'NONE', *, *, #214, .T. ) ;
#137 =( NAMED_UNIT ( * ) PLANE_ANGLE_UNIT ( ) SI_UNIT ( $, .RADIAN. ) );
#138 = FACE_OUTER_BOUND ( 'NONE', #240, .T. ) ;
#139 = SURFACE_SIDE_STYLE ('',( #143 ) ) ;
#140 = CLOSED_SHELL ( 'NONE', ( #149, #69, #174, #219 ) ) ;
#141 = SURFACE_STYLE_USAGE ( .BOTH. , #142 ) ;
#142 = SURFACE_SIDE_STYLE ('',( #58 ) ) ;
#143 = SURFACE_STYLE_FILL_AREA ( #25 ) ;
#144 = DIMENSIONAL_EXPONENTS ( 1.000000000000000000, 0.000000000000000000, 0.000000000000000000, 0.000000000000000000, 0.000000000000000000, 0.000000000000000000, 0.000000000000000000 ) ;
#145 = AXIS2_PLACEMENT_3D ( 'NONE', #135, #260, #97 ) ;
#146 = DIRECTION ( 'NONE',  ( -1.000000000000000000, -1.237930494036654098E-16, 0.000000000000000000 ) ) ;
#147 = CARTESIAN_POINT ( 'NONE',  ( 0.000000000000000000, 0.000000000000000000, 0.000000000000000000 ) ) ;
#148 = SURFACE_STYLE_USAGE ( .BOTH. , #66 ) ;
#149 = ADVANCED_FACE ( 'NONE', ( #216 ), #70, .T. ) ;
#150 = VERTEX_POINT ( 'NONE', #190 ) ;
#151 = CARTESIAN_POINT ( 'NONE',  ( 0.000000000000000000, 0.000000000000000000, 0.000000000000000000 ) ) ;
#152 = STYLED_ITEM ( 'NONE', ( #177 ), #232 ) ;
#153 = DIRECTION ( 'NONE',  ( -1.000000000000000000, -2.185478394931415259E-16, 0.000000000000000000 ) ) ;
#154 =( CONVERSION_BASED_UNIT ( 'INCH', #181 ) LENGTH_UNIT ( ) NAMED_UNIT ( #62 ) );
#155 = LINE ( 'NONE', #131, #255 ) ;
#156 =( GEOMETRIC_REPRESENTATION_CONTEXT ( 3 ) GLOBAL_UNCERTAINTY_ASSIGNED_CONTEXT ( ( #112 ) ) GLOBAL_UNIT_ASSIGNED_CONTEXT ( ( #100, #238, #197 ) ) REPRESENTATION_CONTEXT ( 'NONE', 'WORKASPACE' ) );
#157 = ORIENTED_EDGE ( 'NONE', *, *, #209, .T. ) ;
#158 = STYLED_ITEM ( 'NONE', ( #106 ), #43 ) ;
#159 = CARTESIAN_POINT ( 'NONE',  ( 0.1562500000000000000, 0.2706329386826362149, 1.913510623667737923E-17 ) ) ;
#160 = ADVANCED_FACE ( 'NONE', ( #89 ), #262, .T. ) ;
#161 =( GEOMETRIC_REPRESENTATION_CONTEXT ( 3 ) GLOBAL_UNCERTAINTY_ASSIGNED_CONTEXT ( ( #23 ) ) GLOBAL_UNIT_ASSIGNED_CONTEXT ( ( #65, #211, #228 ) ) REPRESENTATION_CONTEXT ( 'NONE', 'WORKASPACE' ) );
#162 = AXIS2_PLACEMENT_3D ( 'NONE', #226, #170, #85 ) ;
#163 = DIRECTION ( 'NONE',  ( -1.000000000000000000, 0.000000000000000000, 0.000000000000000000 ) ) ;
#164 = ORIENTED_EDGE ( 'NONE', *, *, #265, .F. ) ;
#165 = SURFACE_STYLE_USAGE ( .BOTH. , #139 ) ;
#166 = FACE_OUTER_BOUND ( 'NONE', #34, .T. ) ;
#167 = CIRCLE ( 'NONE', #132, 0.1562499999999996669 ) ;
#168 = ORIENTED_EDGE ( 'NONE', *, *, #196, .F. ) ;
#169 = SURFACE_STYLE_FILL_AREA ( #173 ) ;
#170 = DIRECTION ( 'NONE',  ( 5.816148501619839219E-18, 1.000000000000000000, 0.000000000000000000 ) ) ;
#171 = FILL_AREA_STYLE_COLOUR ( '', #244 ) ;
#172 = AXIS2_PLACEMENT_3D ( 'NONE', #26, #45, #213 ) ;
#173 = FILL_AREA_STYLE ('',( #127 ) ) ;
#174 = ADVANCED_FACE ( 'NONE', ( #138 ), #54, .T. ) ;
#175 = CARTESIAN_POINT ( 'NONE',  ( 2.289822244732220270E-16, 39.37007874015748143, 0.000000000000000000 ) ) ;
#176 = LENGTH_MEASURE_WITH_UNIT ( LENGTH_MEASURE( 0.02539999999999999897 ), #8 );
#177 = PRESENTATION_STYLE_ASSIGNMENT (( #215 ) ) ;
#178 = PRESENTATION_LAYER_ASSIGNMENT (  '', '', ( #188 ) ) ;
#179 = UNCERTAINTY_MEASURE_WITH_UNIT (LENGTH_MEASURE( 1.000000000000000082E-05 ), #194, 'distance_accuracy_value', 'NONE');
#180 = ORIENTED_EDGE ( 'NONE', *, *, #209, .F. ) ;
#181 = LENGTH_MEASURE_WITH_UNIT ( LENGTH_MEASURE( 0.02539999999999999897 ), #220 );
#182 = ORIENTED_EDGE ( 'NONE', *, *, #96, .F. ) ;
#183 = CARTESIAN_POINT ( 'NONE',  ( 0.1562499999999999722, 0.2706329386826362149, 1.913510623667738847E-17 ) ) ;
#184 = APPLICATION_PROTOCOL_DEFINITION ( 'draft international standard', 'automotive_design', 1998, #120 ) ;
#185 = APPLICATION_CONTEXT ( 'automotive_design' ) ;
#186 = FACE_OUTER_BOUND ( 'NONE', #76, .T. ) ;
#187 = DIRECTION ( 'NONE',  ( -5.816148501619839219E-18, -1.000000000000000000, -0.000000000000000000 ) ) ;
#188 = STYLED_ITEM ( 'NONE', ( #229 ), #230 ) ;
#189 = PRESENTATION_LAYER_ASSIGNMENT (  '', '', ( #158 ) ) ;
#190 = CARTESIAN_POINT ( 'NONE',  ( -0.1562499999999998612, 2.500000000000000000, 0.000000000000000000 ) ) ;
#191 = VERTEX_POINT ( 'NONE', #159 ) ;
#192 = SURFACE_STYLE_USAGE ( .BOTH. , #224 ) ;
#193 = EDGE_CURVE ( 'NONE', #199, #133, #237, .T. ) ;
#194 =( CONVERSION_BASED_UNIT ( 'INCH', #29 ) LENGTH_UNIT ( ) NAMED_UNIT ( #122 ) );
#195 = ORIENTED_EDGE ( 'NONE', *, *, #117, .T. ) ;
#196 = EDGE_CURVE ( 'NONE', #30, #191, #167, .T. ) ;
#197 =( NAMED_UNIT ( * ) SI_UNIT ( $, .STERADIAN. ) SOLID_ANGLE_UNIT ( ) );
#198 = AXIS2_PLACEMENT_3D ( 'NONE', #12, #95, #242 ) ;
#199 = VERTEX_POINT ( 'NONE', #183 ) ;
#200 = LENGTH_MEASURE_WITH_UNIT ( LENGTH_MEASURE( 0.02539999999999999897 ), #121 );
#201 = CARTESIAN_POINT ( 'NONE',  ( 6.123233995736772199E-17, 2.500000000000000000, 0.000000000000000000 ) ) ;
#202 = COLOUR_RGB ( '',0.7921568627450980005, 0.8196078431372548767, 0.9333333333333333481 ) ;
#203 = DIRECTION ( 'NONE',  ( -1.237930494036654098E-16, 1.000000000000000000, -0.000000000000000000 ) ) ;
#204 = CARTESIAN_POINT ( 'NONE',  ( -0.1562499999999993339, 0.2706329386826361594, 0.000000000000000000 ) ) ;
#205 = CARTESIAN_POINT ( 'NONE',  ( 1.574041360807988724E-18, 0.2706329386826362704, 0.000000000000000000 ) ) ;
#206 = COLOUR_RGB ( '',1.000000000000000000, 0.000000000000000000, 0.000000000000000000 ) ;
#207 = AXIS2_PLACEMENT_3D ( 'NONE', #205, #187, #86 ) ;
#208 = DIRECTION ( 'NONE',  ( -1.000000000000000000, 0.000000000000000000, 0.000000000000000000 ) ) ;
#209 = EDGE_CURVE ( 'NONE', #11, #133, #74, .T. ) ;
#210 = CARTESIAN_POINT ( 'NONE',  ( 6.123233995736772199E-17, 2.500000000000000000, 0.000000000000000000 ) ) ;
#211 =( NAMED_UNIT ( * ) PLANE_ANGLE_UNIT ( ) SI_UNIT ( $, .RADIAN. ) );
#212 = EDGE_LOOP ( 'NONE', ( #55, #252, #258, #164 ) ) ;
#213 = DIRECTION ( 'NONE',  ( 1.000000000000000000, 1.237930494036654098E-16, 0.000000000000000000 ) ) ;
#214 = EDGE_CURVE ( 'NONE', #11, #199, #90, .T. ) ;
#215 = SURFACE_STYLE_USAGE ( .BOTH. , #118 ) ;
#216 = FACE_OUTER_BOUND ( 'NONE', #212, .T. ) ;
#217 = FILL_AREA_STYLE ('',( #134 ) ) ;
#218 = ORIENTED_EDGE ( 'NONE', *, *, #193, .F. ) ;
#219 = ADVANCED_FACE ( 'NONE', ( #253 ), #264, .F. ) ;
#220 =( LENGTH_UNIT ( ) NAMED_UNIT ( * ) SI_UNIT ( $, .METRE. ) );
#221 = STYLED_ITEM ( 'NONE', ( #129 ), #125 ) ;
#222 = CIRCLE ( 'NONE', #41, 0.1562499999999999445 ) ;
#223 = PRODUCT_DEFINITION_SHAPE ( 'NONE', 'NONE',  #109 ) ;
#224 = SURFACE_SIDE_STYLE ('',( #169 ) ) ;
#225 = ADVANCED_BREP_SHAPE_REPRESENTATION ( '84773', ( #230, #232, #198 ), #245 ) ;
#226 = CARTESIAN_POINT ( 'NONE',  ( 2.289822244732220270E-16, 39.37007874015748143, 0.000000000000000000 ) ) ;
#227 = PRODUCT_DEFINITION_CONTEXT ( 'detailed design', #120, 'design' ) ;
#228 =( NAMED_UNIT ( * ) SI_UNIT ( $, .STERADIAN. ) SOLID_ANGLE_UNIT ( ) );
#229 = PRESENTATION_STYLE_ASSIGNMENT (( #165 ) ) ;
#230 = MANIFOLD_SOLID_BREP ( 'Revolve - Cutting Edge', #27 ) ;
#231 = MECHANICAL_DESIGN_GEOMETRIC_PRESENTATION_REPRESENTATION (  '', ( #152 ), #107 ) ;
#232 = MANIFOLD_SOLID_BREP ( 'Revolve - Tool Body (Pointed)', #140 ) ;
#233 =( GEOMETRIC_REPRESENTATION_CONTEXT ( 3 ) GLOBAL_UNCERTAINTY_ASSIGNED_CONTEXT ( ( #60 ) ) GLOBAL_UNIT_ASSIGNED_CONTEXT ( ( #40, #1, #4 ) ) REPRESENTATION_CONTEXT ( 'NONE', 'WORKASPACE' ) );
#234 =( CONVERSION_BASED_UNIT ( 'INCH', #176 ) LENGTH_UNIT ( ) NAMED_UNIT ( #103 ) );
#235 = DIRECTION ( 'NONE',  ( -1.237930494036654098E-16, 1.000000000000000000, -0.000000000000000000 ) ) ;
#236 = DIRECTION ( 'NONE',  ( -1.237930494036654098E-16, 1.000000000000000000, -0.000000000000000000 ) ) ;
#237 = CIRCLE ( 'NONE', #145, 0.1562500000000000000 ) ;
#238 =( NAMED_UNIT ( * ) PLANE_ANGLE_UNIT ( ) SI_UNIT ( $, .RADIAN. ) );
#239 = EDGE_CURVE ( 'NONE', #191, #30, #105, .T. ) ;
#240 = EDGE_LOOP ( 'NONE', ( #116, #119, #67, #182 ) ) ;
#241 = DIRECTION ( 'NONE',  ( -1.000000000000000000, 0.000000000000000000, 0.000000000000000000 ) ) ;
#242 = DIRECTION ( 'NONE',  ( 1.000000000000000000, 0.000000000000000000, 0.000000000000000000 ) ) ;
#243 = DIRECTION ( 'NONE',  ( -1.237930494036654098E-16, 1.000000000000000000, -0.000000000000000000 ) ) ;
#244 = COLOUR_RGB ( '',0.7921568627450980005, 0.8196078431372548767, 0.9333333333333333481 ) ;
#245 =( GEOMETRIC_REPRESENTATION_CONTEXT ( 3 ) GLOBAL_UNCERTAINTY_ASSIGNED_CONTEXT ( ( #179 ) ) GLOBAL_UNIT_ASSIGNED_CONTEXT ( ( #194, #98, #49 ) ) REPRESENTATION_CONTEXT ( 'NONE', 'WORKASPACE' ) );
#246 =( LENGTH_UNIT ( ) NAMED_UNIT ( * ) SI_UNIT ( $, .METRE. ) );
#247 = FILL_AREA_STYLE_COLOUR ( '', #50 ) ;
#248 = PLANE ( 'NONE',  #101 ) ;
#249 = LENGTH_MEASURE_WITH_UNIT ( LENGTH_MEASURE( 0.02539999999999999897 ), #20 );
#250 = AXIS2_PLACEMENT_3D ( 'NONE', #175, #78, #163 ) ;
#251 = DIRECTION ( 'NONE',  ( -0.5000000000000009992, 0.8660254037844379305, 0.000000000000000000 ) ) ;
#252 = ORIENTED_EDGE ( 'NONE', *, *, #18, .T. ) ;
#253 = FACE_OUTER_BOUND ( 'NONE', #113, .T. ) ;
#254 = AXIS2_PLACEMENT_3D ( 'NONE', #71, #14, #153 ) ;
#255 = VECTOR ( 'NONE', #235, 39.37007874015748143 ) ;
#256 = DIRECTION ( 'NONE',  ( 5.816148501619839219E-18, 1.000000000000000000, 0.000000000000000000 ) ) ;
#257 =( NAMED_UNIT ( * ) SI_UNIT ( $, .STERADIAN. ) SOLID_ANGLE_UNIT ( ) );
#258 = ORIENTED_EDGE ( 'NONE', *, *, #63, .F. ) ;
#259 =( LENGTH_UNIT ( ) NAMED_UNIT ( * ) SI_UNIT ( $, .METRE. ) );
#260 = DIRECTION ( 'NONE',  ( -5.816148501619839219E-18, -1.000000000000000000, -0.000000000000000000 ) ) ;
#261 = EDGE_LOOP ( 'NONE', ( #180, #136, #47 ) ) ;
#262 = CONICAL_SURFACE ( 'NONE', #250, 22.73032555864674720, 0.5235987755983001479 ) ;
#263 = CIRCLE ( 'NONE', #32, 0.1562499999999999445 ) ;
#264 = PLANE ( 'NONE',  #172 ) ;
#265 = EDGE_CURVE ( 'NONE', #30, #150, #155, .T. ) ;
ENDSEC;
END-ISO-10303-21;
