ISO-10303-21;
HEADER;
FILE_DESCRIPTION (( 'STEP AP214' ),
    '1' );
FILE_NAME ('Micro_GEC-312-2-010.STEP',
    '2021-09-03T17:17:42',
    ( '' ),
    ( '' ),
    'SwSTEP 2.0',
    'SolidWorks 2020',
    '' );
FILE_SCHEMA (( 'AUTOMOTIVE_DESIGN' ));
ENDSEC;

DATA;
#1 = LENGTH_MEASURE_WITH_UNIT ( LENGTH_MEASURE( 0.02539999999999999897 ), #24 );
#2 = DIMENSIONAL_EXPONENTS ( 1.000000000000000000, 0.0000000000000000000, 0.0000000000000000000, 0.0000000000000000000, 0.0000000000000000000, 0.0000000000000000000, 0.0000000000000000000 ) ;
#3 = UNCERTAINTY_MEASURE_WITH_UNIT (LENGTH_MEASURE( 1.000000000000000082E-05 ), #90, 'distance_accuracy_value', 'NONE');
#4 = CYLINDRICAL_SURFACE ( 'NONE', #214, 0.1562500000000000000 ) ;
#5 = CARTESIAN_POINT ( 'NONE',  ( 0.0000000000000000000, 0.0000000000000000000, 0.0000000000000000000 ) ) ;
#6 = LINE ( 'NONE', #119, #31 ) ;
#7 = EDGE_CURVE ( 'NONE', #270, #168, #199, .T. ) ;
#8 = CARTESIAN_POINT ( 'NONE',  ( 0.1560937500000000866, 0.0000000000000000000, 0.8129999999999999449 ) ) ;
#9 = EDGE_LOOP ( 'NONE', ( #96, #38, #37, #313 ) ) ;
#10 = CIRCLE ( 'NONE', #95, 0.1460937499999999667 ) ;
#11 = AXIS2_PLACEMENT_3D ( 'NONE', #23, #211, #322 ) ;
#12 = EDGE_LOOP ( 'NONE', ( #14, #98, #312, #307 ) ) ;
#13 = EDGE_CURVE ( 'NONE', #249, #168, #83, .T. ) ;
#14 = ORIENTED_EDGE ( 'NONE', *, *, #87, .F. ) ;
#15 =( NAMED_UNIT ( * ) SI_UNIT ( $, .STERADIAN. ) SOLID_ANGLE_UNIT ( ) );
#16 = EDGE_LOOP ( 'NONE', ( #115, #202, #228, #264 ) ) ;
#17 = PRESENTATION_STYLE_ASSIGNMENT (( #346 ) ) ;
#18 = DIRECTION ( 'NONE',  ( 1.000000000000000000, 0.0000000000000000000, 0.0000000000000000000 ) ) ;
#19 = CARTESIAN_POINT ( 'NONE',  ( 0.1560937500000000866, 0.0000000000000000000, 0.8129999999999999449 ) ) ;
#20 = CIRCLE ( 'NONE', #261, 0.1412499999999994871 ) ;
#21 = CARTESIAN_POINT ( 'NONE',  ( 0.0000000000000000000, 0.0000000000000000000, 2.500000000000000000 ) ) ;
#22 = VERTEX_POINT ( 'NONE', #224 ) ;
#23 = CARTESIAN_POINT ( 'NONE',  ( 0.0000000000000000000, 0.0000000000000000000, 2.500000000000000000 ) ) ;
#24 =( LENGTH_UNIT ( ) NAMED_UNIT ( * ) SI_UNIT ( $, .METRE. ) );
#25 = ORIENTED_EDGE ( 'NONE', *, *, #231, .F. ) ;
#26 = CYLINDRICAL_SURFACE ( 'NONE', #69, 0.1562500000000000000 ) ;
#27 = CYLINDRICAL_SURFACE ( 'NONE', #220, 0.1560937499999999478 ) ;
#28 = CLOSED_SHELL ( 'NONE', ( #162, #222, #295, #250, #257, #260, #120, #147, #56, #51, #193, #108 ) ) ;
#29 = ORIENTED_EDGE ( 'NONE', *, *, #135, .T. ) ;
#30 = DIMENSIONAL_EXPONENTS ( 1.000000000000000000, 0.0000000000000000000, 0.0000000000000000000, 0.0000000000000000000, 0.0000000000000000000, 0.0000000000000000000, 0.0000000000000000000 ) ;
#31 = VECTOR ( 'NONE', #155, 39.37007874015748143 ) ;
#32 = CARTESIAN_POINT ( 'NONE',  ( -0.1562499999999999167, 0.0000000000000000000, 0.8138861377843152889 ) ) ;
#33 =( GEOMETRIC_REPRESENTATION_CONTEXT ( 3 ) GLOBAL_UNCERTAINTY_ASSIGNED_CONTEXT ( ( #3 ) ) GLOBAL_UNIT_ASSIGNED_CONTEXT ( ( #90, #173, #221 ) ) REPRESENTATION_CONTEXT ( 'NONE', 'WORKASPACE' ) );
#34 = EDGE_CURVE ( 'NONE', #343, #170, #117, .T. ) ;
#35 = DIRECTION ( 'NONE',  ( -0.0000000000000000000, -0.0000000000000000000, -1.000000000000000000 ) ) ;
#36 = DIRECTION ( 'NONE',  ( 1.224646799147353207E-16, 0.0000000000000000000, 1.000000000000000000 ) ) ;
#37 = ORIENTED_EDGE ( 'NONE', *, *, #40, .T. ) ;
#38 = ORIENTED_EDGE ( 'NONE', *, *, #72, .T. ) ;
#39 = VECTOR ( 'NONE', #300, 39.37007874015748854 ) ;
#40 = EDGE_CURVE ( 'NONE', #48, #198, #197, .T. ) ;
#41 = LINE ( 'NONE', #330, #309 ) ;
#42 = CARTESIAN_POINT ( 'NONE',  ( 1.224646799147353577E-18, 0.0000000000000000000, 0.01000000000000000194 ) ) ;
#43 = FILL_AREA_STYLE ('',( #142 ) ) ;
#44 = ORIENTED_EDGE ( 'NONE', *, *, #7, .F. ) ;
#45 = DIRECTION ( 'NONE',  ( -1.224646799147353207E-16, -0.0000000000000000000, -1.000000000000000000 ) ) ;
#46 = EDGE_CURVE ( 'NONE', #343, #270, #6, .T. ) ;
#47 = FACE_OUTER_BOUND ( 'NONE', #157, .T. ) ;
#48 = VERTEX_POINT ( 'NONE', #131 ) ;
#49 = FACE_OUTER_BOUND ( 'NONE', #126, .T. ) ;
#50 = DIRECTION ( 'NONE',  ( 0.0000000000000000000, 0.0000000000000000000, 1.000000000000000000 ) ) ;
#51 = ADVANCED_FACE ( 'NONE', ( #104 ), #285, .T. ) ;
#52 = CIRCLE ( 'NONE', #292, 0.1560937499999999478 ) ;
#53 = PRESENTATION_LAYER_ASSIGNMENT (  '', '', ( #196 ) ) ;
#54 = ORIENTED_EDGE ( 'NONE', *, *, #188, .T. ) ;
#55 = DIRECTION ( 'NONE',  ( -1.000000000000000000, 0.0000000000000000000, 0.0000000000000000000 ) ) ;
#56 = ADVANCED_FACE ( 'NONE', ( #207 ), #251, .T. ) ;
#57 = CARTESIAN_POINT ( 'NONE',  ( 9.967230535079632947E-17, 0.0000000000000000000, 0.8138861377843152889 ) ) ;
#58 = AXIS2_PLACEMENT_3D ( 'NONE', #259, #178, #102 ) ;
#59 = CONICAL_SURFACE ( 'NONE', #186, 0.1412499999999994871, 0.7853981633974391752 ) ;
#60 = CARTESIAN_POINT ( 'NONE',  ( -0.1460937499999999667, 1.850364773086703240E-17, 0.0000000000000000000 ) ) ;
#61 = CARTESIAN_POINT ( 'NONE',  ( 0.0000000000000000000, 0.0000000000000000000, 2.500000000000000000 ) ) ;
#62 = EDGE_CURVE ( 'NONE', #249, #336, #10, .T. ) ;
#63 = EDGE_LOOP ( 'NONE', ( #154, #144, #326, #255 ) ) ;
#64 = EDGE_CURVE ( 'NONE', #343, #305, #339, .T. ) ;
#65 = DIRECTION ( 'NONE',  ( 1.224646799147353207E-16, 1.000000000000000000, -0.0000000000000000000 ) ) ;
#66 = SURFACE_STYLE_USAGE ( .BOTH. , #328 ) ;
#67 = DIRECTION ( 'NONE',  ( -1.000000000000000000, 0.0000000000000000000, 0.0000000000000000000 ) ) ;
#68 = AXIS2_PLACEMENT_3D ( 'NONE', #79, #45, #209 ) ;
#69 = AXIS2_PLACEMENT_3D ( 'NONE', #269, #239, #107 ) ;
#70 = EDGE_LOOP ( 'NONE', ( #284, #236, #192, #268 ) ) ;
#71 = CARTESIAN_POINT ( 'NONE',  ( -0.1562500000000000000, 0.0000000000000000000, 2.500000000000000000 ) ) ;
#72 = EDGE_CURVE ( 'NONE', #94, #48, #298, .T. ) ;
#73 = AXIS2_PLACEMENT_3D ( 'NONE', #110, #323, #184 ) ;
#74 = ORIENTED_EDGE ( 'NONE', *, *, #13, .F. ) ;
#75 = CARTESIAN_POINT ( 'NONE',  ( 1.224646799147353577E-18, 0.0000000000000000000, 0.01000000000000000194 ) ) ;
#76 = ORIENTED_EDGE ( 'NONE', *, *, #303, .F. ) ;
#77 = DIRECTION ( 'NONE',  ( 1.000000000000000000, 0.0000000000000000000, 0.0000000000000000000 ) ) ;
#78 = VERTEX_POINT ( 'NONE', #99 ) ;
#79 = CARTESIAN_POINT ( 'NONE',  ( 9.956378477067980482E-17, 0.0000000000000000000, 0.8129999999999999449 ) ) ;
#80 =( GEOMETRIC_REPRESENTATION_CONTEXT ( 3 ) GLOBAL_UNCERTAINTY_ASSIGNED_CONTEXT ( ( #88 ) ) GLOBAL_UNIT_ASSIGNED_CONTEXT ( ( #277, #145, #15 ) ) REPRESENTATION_CONTEXT ( 'NONE', 'WORKASPACE' ) );
#81 = DIRECTION ( 'NONE',  ( -0.0000000000000000000, -0.0000000000000000000, -1.000000000000000000 ) ) ;
#82 = DIRECTION ( 'NONE',  ( -1.224646799147353207E-16, -0.0000000000000000000, -1.000000000000000000 ) ) ;
#83 = CIRCLE ( 'NONE', #294, 0.009999999999999995004 ) ;
#84 = AXIS2_PLACEMENT_3D ( 'NONE', #57, #82, #160 ) ;
#85 = CARTESIAN_POINT ( 'NONE',  ( -0.1560937499999998923, 1.911597113044071690E-17, 0.8129999999999999449 ) ) ;
#86 = FACE_OUTER_BOUND ( 'NONE', #329, .T. ) ;
#87 = EDGE_CURVE ( 'NONE', #170, #343, #171, .T. ) ;
#88 = UNCERTAINTY_MEASURE_WITH_UNIT (LENGTH_MEASURE( 1.000000000000000082E-05 ), #277, 'distance_accuracy_value', 'NONE');
#89 = DIRECTION ( 'NONE',  ( 1.000000000000000000, 0.0000000000000000000, 0.0000000000000000000 ) ) ;
#90 =( CONVERSION_BASED_UNIT ( 'INCH', #334 ) LENGTH_UNIT ( ) NAMED_UNIT ( #2 ) );
#91 = ORIENTED_EDGE ( 'NONE', *, *, #13, .T. ) ;
#92 = DIRECTION ( 'NONE',  ( -1.224646799147353207E-16, -0.0000000000000000000, -1.000000000000000000 ) ) ;
#93 = DIRECTION ( 'NONE',  ( 1.000000000000000000, 0.0000000000000000000, 0.0000000000000000000 ) ) ;
#94 = VERTEX_POINT ( 'NONE', #149 ) ;
#95 = AXIS2_PLACEMENT_3D ( 'NONE', #316, #289, #232 ) ;
#96 = ORIENTED_EDGE ( 'NONE', *, *, #321, .F. ) ;
#97 = VECTOR ( 'NONE', #92, 39.37007874015748143 ) ;
#98 = ORIENTED_EDGE ( 'NONE', *, *, #235, .T. ) ;
#99 = CARTESIAN_POINT ( 'NONE',  ( -0.1412499999999994871, 0.0000000000000000000, 2.500000000000000000 ) ) ;
#100 = DIRECTION ( 'NONE',  ( 0.0000000000000000000, 0.0000000000000000000, 1.000000000000000000 ) ) ;
#101 = VECTOR ( 'NONE', #318, 39.37007874015748143 ) ;
#102 = DIRECTION ( 'NONE',  ( -1.000000000000000000, 0.0000000000000000000, 1.224646799147353207E-16 ) ) ;
#103 = PRODUCT_CONTEXT ( 'NONE', #283, 'mechanical' ) ;
#104 = FACE_OUTER_BOUND ( 'NONE', #63, .T. ) ;
#105 = DIRECTION ( 'NONE',  ( 0.0000000000000000000, 0.0000000000000000000, -1.000000000000000000 ) ) ;
#106 = VECTOR ( 'NONE', #35, 39.37007874015748143 ) ;
#107 = DIRECTION ( 'NONE',  ( -1.000000000000000000, 0.0000000000000000000, 0.0000000000000000000 ) ) ;
#108 = ADVANCED_FACE ( 'NONE', ( #206 ), #156, .T. ) ;
#109 = FACE_OUTER_BOUND ( 'NONE', #70, .T. ) ;
#110 = CARTESIAN_POINT ( 'NONE',  ( 0.1460937499999999667, 0.0000000000000000000, 0.01000000000000000021 ) ) ;
#111 = AXIS2_PLACEMENT_3D ( 'NONE', #223, #36, #89 ) ;
#112 = CONICAL_SURFACE ( 'NONE', #172, 0.1412499999999994871, 0.7853981633974391752 ) ;
#113 = EDGE_CURVE ( 'NONE', #22, #78, #20, .T. ) ;
#114 = CARTESIAN_POINT ( 'NONE',  ( 0.0000000000000000000, 0.0000000000000000000, 2.484999999999999432 ) ) ;
#115 = ORIENTED_EDGE ( 'NONE', *, *, #235, .F. ) ;
#116 =( NAMED_UNIT ( * ) PLANE_ANGLE_UNIT ( ) SI_UNIT ( $, .RADIAN. ) );
#117 = CIRCLE ( 'NONE', #281, 0.1560937499999999756 ) ;
#118 = FACE_OUTER_BOUND ( 'NONE', #12, .T. ) ;
#119 = CARTESIAN_POINT ( 'NONE',  ( 0.1560937499999999478, 1.911597113044071073E-17, -1.911597113044071073E-17 ) ) ;
#120 = ADVANCED_FACE ( 'NONE', ( #176 ), #233, .T. ) ;
#121 =( LENGTH_UNIT ( ) NAMED_UNIT ( * ) SI_UNIT ( $, .METRE. ) );
#122 = STYLED_ITEM ( 'NONE', ( #17 ), #165 ) ;
#123 = DIRECTION ( 'NONE',  ( 0.0000000000000000000, 0.0000000000000000000, 1.000000000000000000 ) ) ;
#124 = ORIENTED_EDGE ( 'NONE', *, *, #182, .T. ) ;
#125 = CARTESIAN_POINT ( 'NONE',  ( 0.1460937499999999667, 0.0000000000000000000, 0.0000000000000000000 ) ) ;
#126 = EDGE_LOOP ( 'NONE', ( #288, #91, #44, #25 ) ) ;
#127 = EDGE_CURVE ( 'NONE', #168, #270, #52, .T. ) ;
#128 = ORIENTED_EDGE ( 'NONE', *, *, #166, .F. ) ;
#129 = CARTESIAN_POINT ( 'NONE',  ( 0.0000000000000000000, 0.0000000000000000000, 2.484999999999999432 ) ) ;
#130 = DIRECTION ( 'NONE',  ( 1.000000000000000000, 0.0000000000000000000, 0.0000000000000000000 ) ) ;
#131 = CARTESIAN_POINT ( 'NONE',  ( -0.1562500000000000000, 0.0000000000000000000, 2.484999999999999432 ) ) ;
#132 = FILL_AREA_STYLE_COLOUR ( '', #204 ) ;
#133 = CARTESIAN_POINT ( 'NONE',  ( -0.1560937499999999478, 0.0000000000000000000, 0.01000000000000000194 ) ) ;
#134 = DIRECTION ( 'NONE',  ( 0.0000000000000000000, 0.0000000000000000000, -1.000000000000000000 ) ) ;
#135 = EDGE_CURVE ( 'NONE', #336, #249, #161, .T. ) ;
#136 = DIRECTION ( 'NONE',  ( 1.000000000000000000, 0.0000000000000000000, -0.0000000000000000000 ) ) ;
#137 = MECHANICAL_DESIGN_GEOMETRIC_PRESENTATION_REPRESENTATION (  '', ( #196 ), #80 ) ;
#138 = DIRECTION ( 'NONE',  ( -1.000000000000000000, 0.0000000000000000000, 0.0000000000000000000 ) ) ;
#139 = UNCERTAINTY_MEASURE_WITH_UNIT (LENGTH_MEASURE( 1.000000000000000082E-05 ), #164, 'distance_accuracy_value', 'NONE');
#140 = CARTESIAN_POINT ( 'NONE',  ( -0.1560937499999999478, 0.0000000000000000000, 1.911597113044071073E-17 ) ) ;
#141 = ORIENTED_EDGE ( 'NONE', *, *, #7, .T. ) ;
#142 = FILL_AREA_STYLE_COLOUR ( '', #210 ) ;
#143 = CIRCLE ( 'NONE', #150, 0.1562500000000000000 ) ;
#144 = ORIENTED_EDGE ( 'NONE', *, *, #34, .T. ) ;
#145 =( NAMED_UNIT ( * ) PLANE_ANGLE_UNIT ( ) SI_UNIT ( $, .RADIAN. ) );
#146 = DIRECTION ( 'NONE',  ( -1.000000000000000000, 1.224646799147354933E-16, 0.0000000000000000000 ) ) ;
#147 = ADVANCED_FACE ( 'NONE', ( #47 ), #59, .T. ) ;
#148 = ORIENTED_EDGE ( 'NONE', *, *, #321, .T. ) ;
#149 = CARTESIAN_POINT ( 'NONE',  ( 0.1562500000000000000, 1.913510623667739463E-17, 2.484999999999999432 ) ) ;
#150 = AXIS2_PLACEMENT_3D ( 'NONE', #114, #212, #273 ) ;
#151 = FILL_AREA_STYLE ('',( #132 ) ) ;
#152 = ORIENTED_EDGE ( 'NONE', *, *, #231, .T. ) ;
#153 = DIRECTION ( 'NONE',  ( 1.000000000000000000, 0.0000000000000000000, 0.0000000000000000000 ) ) ;
#154 = ORIENTED_EDGE ( 'NONE', *, *, #46, .F. ) ;
#155 = DIRECTION ( 'NONE',  ( -1.224646799147353207E-16, -0.0000000000000000000, -1.000000000000000000 ) ) ;
#156 = TOROIDAL_SURFACE ( 'NONE', #319, 0.1460937499999999667, 0.01000000000000000021 ) ;
#157 = EDGE_LOOP ( 'NONE', ( #331, #128, #54, #278 ) ) ;
#158 = CARTESIAN_POINT ( 'NONE',  ( 1.224646799147353384E-18, 0.0000000000000000000, 0.01000000000000000021 ) ) ;
#159 = FACE_OUTER_BOUND ( 'NONE', #9, .T. ) ;
#160 = DIRECTION ( 'NONE',  ( 1.000000000000000000, 0.0000000000000000000, 0.0000000000000000000 ) ) ;
#161 = CIRCLE ( 'NONE', #272, 0.1460937499999999667 ) ;
#162 = ADVANCED_FACE ( 'NONE', ( #49 ), #263, .T. ) ;
#163 = PLANE ( 'NONE',  #337 ) ;
#164 =( CONVERSION_BASED_UNIT ( 'INCH', #1 ) LENGTH_UNIT ( ) NAMED_UNIT ( #185 ) );
#165 = MANIFOLD_SOLID_BREP ( 'Fillet1', #28 ) ;
#166 = EDGE_CURVE ( 'NONE', #78, #22, #315, .T. ) ;
#167 = APPLICATION_PROTOCOL_DEFINITION ( 'draft international standard', 'automotive_design', 1998, #283 ) ;
#168 = VERTEX_POINT ( 'NONE', #133 ) ;
#169 = SURFACE_STYLE_FILL_AREA ( #43 ) ;
#170 = VERTEX_POINT ( 'NONE', #349 ) ;
#171 = CIRCLE ( 'NONE', #68, 0.1560937499999999756 ) ;
#172 = AXIS2_PLACEMENT_3D ( 'NONE', #61, #134, #138 ) ;
#173 =( NAMED_UNIT ( * ) PLANE_ANGLE_UNIT ( ) SI_UNIT ( $, .RADIAN. ) );
#174 = CARTESIAN_POINT ( 'NONE',  ( -0.1460937499999999667, 1.789132433129335716E-17, 0.01000000000000000021 ) ) ;
#175 = DIRECTION ( 'NONE',  ( 1.000000000000000000, 0.0000000000000000000, 0.0000000000000000000 ) ) ;
#176 = FACE_OUTER_BOUND ( 'NONE', #290, .T. ) ;
#177 = EDGE_LOOP ( 'NONE', ( #124, #148, #76, #333 ) ) ;
#178 = DIRECTION ( 'NONE',  ( -1.224646799147353207E-16, -0.0000000000000000000, -1.000000000000000000 ) ) ;
#179 = CARTESIAN_POINT ( 'NONE',  ( 0.0000000000000000000, 0.0000000000000000000, 2.500000000000000000 ) ) ;
#180 = DIRECTION ( 'NONE',  ( 0.0000000000000000000, 0.0000000000000000000, 1.000000000000000000 ) ) ;
#181 = CIRCLE ( 'NONE', #73, 0.01000000000000000021 ) ;
#182 = EDGE_CURVE ( 'NONE', #48, #94, #143, .T. ) ;
#183 = DIRECTION ( 'NONE',  ( -1.000000000000000000, 0.0000000000000000000, 0.0000000000000000000 ) ) ;
#184 = DIRECTION ( 'NONE',  ( 0.0000000000000000000, 0.0000000000000000000, -1.000000000000000000 ) ) ;
#185 = DIMENSIONAL_EXPONENTS ( 1.000000000000000000, 0.0000000000000000000, 0.0000000000000000000, 0.0000000000000000000, 0.0000000000000000000, 0.0000000000000000000, 0.0000000000000000000 ) ;
#186 = AXIS2_PLACEMENT_3D ( 'NONE', #344, #293, #55 ) ;
#187 = LINE ( 'NONE', #246, #234 ) ;
#188 = EDGE_CURVE ( 'NONE', #78, #48, #187, .T. ) ;
#189 = AXIS2_PLACEMENT_3D ( 'NONE', #304, #217, #306 ) ;
#190 = ORIENTED_EDGE ( 'NONE', *, *, #46, .T. ) ;
#191 = PRODUCT ( 'Micro_GEC-312-2-010', 'Micro_GEC-312-2-010', '', ( #103 ) ) ;
#192 = ORIENTED_EDGE ( 'NONE', *, *, #182, .F. ) ;
#193 = ADVANCED_FACE ( 'NONE', ( #86 ), #163, .F. ) ;
#194 = CARTESIAN_POINT ( 'NONE',  ( 9.956378477067980482E-17, 0.0000000000000000000, 0.8129999999999999449 ) ) ;
#195 = AXIS2_PLACEMENT_3D ( 'NONE', #21, #291, #262 ) ;
#196 = STYLED_ITEM ( 'NONE', ( #279 ), #345 ) ;
#197 = LINE ( 'NONE', #71, #106 ) ;
#198 = VERTEX_POINT ( 'NONE', #32 ) ;
#199 = CIRCLE ( 'NONE', #267, 0.1560937499999999478 ) ;
#200 = DIRECTION ( 'NONE',  ( 0.0000000000000000000, 0.0000000000000000000, 1.000000000000000000 ) ) ;
#201 = APPLICATION_PROTOCOL_DEFINITION ( 'draft international standard', 'automotive_design', 1998, #203 ) ;
#202 = ORIENTED_EDGE ( 'NONE', *, *, #34, .F. ) ;
#203 = APPLICATION_CONTEXT ( 'automotive_design' ) ;
#204 = COLOUR_RGB ( '',0.7921568627450980005, 0.8196078431372548767, 0.9333333333333333481 ) ;
#205 = ORIENTED_EDGE ( 'NONE', *, *, #127, .F. ) ;
#206 = FACE_OUTER_BOUND ( 'NONE', #219, .T. ) ;
#207 = FACE_OUTER_BOUND ( 'NONE', #16, .T. ) ;
#208 = ORIENTED_EDGE ( 'NONE', *, *, #166, .T. ) ;
#209 = DIRECTION ( 'NONE',  ( -1.000000000000000000, 0.0000000000000000000, 0.0000000000000000000 ) ) ;
#210 = COLOUR_RGB ( '',0.7921568627450980005, 0.8196078431372548767, 0.9333333333333333481 ) ;
#211 = DIRECTION ( 'NONE',  ( 0.0000000000000000000, 0.0000000000000000000, 1.000000000000000000 ) ) ;
#212 = DIRECTION ( 'NONE',  ( 0.0000000000000000000, 0.0000000000000000000, -1.000000000000000000 ) ) ;
#213 =( NAMED_UNIT ( * ) SI_UNIT ( $, .STERADIAN. ) SOLID_ANGLE_UNIT ( ) );
#214 = AXIS2_PLACEMENT_3D ( 'NONE', #216, #81, #183 ) ;
#215 = DIRECTION ( 'NONE',  ( -1.224646799147353207E-16, -0.0000000000000000000, -1.000000000000000000 ) ) ;
#216 = CARTESIAN_POINT ( 'NONE',  ( 0.0000000000000000000, 0.0000000000000000000, 2.500000000000000000 ) ) ;
#217 = DIRECTION ( 'NONE',  ( -1.224646799147353207E-16, -0.0000000000000000000, -1.000000000000000000 ) ) ;
#218 = PRODUCT_DEFINITION_SHAPE ( 'NONE', 'NONE',  #335 ) ;
#219 = EDGE_LOOP ( 'NONE', ( #74, #254, #152, #205 ) ) ;
#220 = AXIS2_PLACEMENT_3D ( 'NONE', #243, #215, #274 ) ;
#221 =( NAMED_UNIT ( * ) SI_UNIT ( $, .STERADIAN. ) SOLID_ANGLE_UNIT ( ) );
#222 = ADVANCED_FACE ( 'NONE', ( #350 ), #27, .T. ) ;
#223 = CARTESIAN_POINT ( 'NONE',  ( 9.956378477067980482E-17, 0.0000000000000000000, 0.8129999999999999449 ) ) ;
#224 = CARTESIAN_POINT ( 'NONE',  ( 0.1412499999999994871, 1.821662113731684786E-17, 2.500000000000000000 ) ) ;
#225 =( LENGTH_UNIT ( ) NAMED_UNIT ( * ) SI_UNIT ( $, .METRE. ) );
#226 = ORIENTED_EDGE ( 'NONE', *, *, #62, .T. ) ;
#227 = SHAPE_DEFINITION_REPRESENTATION ( #218, #345 ) ;
#228 = ORIENTED_EDGE ( 'NONE', *, *, #64, .T. ) ;
#229 = DIRECTION ( 'NONE',  ( 1.000000000000000000, 0.0000000000000000000, 0.0000000000000000000 ) ) ;
#230 = DIRECTION ( 'NONE',  ( 1.224646799147353207E-16, 0.0000000000000000000, 1.000000000000000000 ) ) ;
#231 = EDGE_CURVE ( 'NONE', #336, #270, #181, .T. ) ;
#232 = DIRECTION ( 'NONE',  ( 1.000000000000000000, 0.0000000000000000000, 0.0000000000000000000 ) ) ;
#233 = PLANE ( 'NONE',  #195 ) ;
#234 = VECTOR ( 'NONE', #351, 39.37007874015748854 ) ;
#235 = EDGE_CURVE ( 'NONE', #170, #198, #297, .T. ) ;
#236 = ORIENTED_EDGE ( 'NONE', *, *, #241, .T. ) ;
#237 = CARTESIAN_POINT ( 'NONE',  ( 1.224646799147353384E-18, 0.0000000000000000000, 0.0000000000000000000 ) ) ;
#238 = SURFACE_STYLE_FILL_AREA ( #151 ) ;
#239 = DIRECTION ( 'NONE',  ( -0.0000000000000000000, -0.0000000000000000000, -1.000000000000000000 ) ) ;
#240 = AXIS2_PLACEMENT_3D ( 'NONE', #5, #100, #229 ) ;
#241 = EDGE_CURVE ( 'NONE', #22, #94, #244, .T. ) ;
#242 = CARTESIAN_POINT ( 'NONE',  ( 0.1560937499999999478, 1.911597113044071073E-17, 0.01000000000000000194 ) ) ;
#243 = CARTESIAN_POINT ( 'NONE',  ( 0.0000000000000000000, 0.0000000000000000000, 0.0000000000000000000 ) ) ;
#244 = LINE ( 'NONE', #302, #39 ) ;
#245 = EDGE_CURVE ( 'NONE', #305, #198, #348, .T. ) ;
#246 = CARTESIAN_POINT ( 'NONE',  ( -0.1412499999999994871, 0.0000000000000000000, 2.500000000000000000 ) ) ;
#247 = CARTESIAN_POINT ( 'NONE',  ( 0.1562500000000001110, 1.913510623667740388E-17, 0.8138861377843152889 ) ) ;
#248 = EDGE_LOOP ( 'NONE', ( #338, #190, #141, #265 ) ) ;
#249 = VERTEX_POINT ( 'NONE', #60 ) ;
#250 = ADVANCED_FACE ( 'NONE', ( #109 ), #112, .T. ) ;
#251 = CONICAL_SURFACE ( 'NONE', #324, 0.1560937499999999756, 0.1745329251994339192 ) ;
#252 = MECHANICAL_DESIGN_GEOMETRIC_PRESENTATION_REPRESENTATION (  '', ( #122 ), #342 ) ;
#253 = PRODUCT_DEFINITION_CONTEXT ( 'detailed design', #203, 'design' ) ;
#254 = ORIENTED_EDGE ( 'NONE', *, *, #135, .F. ) ;
#255 = ORIENTED_EDGE ( 'NONE', *, *, #127, .T. ) ;
#256 = AXIS2_PLACEMENT_3D ( 'NONE', #158, #266, #153 ) ;
#257 = ADVANCED_FACE ( 'NONE', ( #271 ), #4, .T. ) ;
#258 = DIRECTION ( 'NONE',  ( -0.0000000000000000000, -0.0000000000000000000, -1.000000000000000000 ) ) ;
#259 = CARTESIAN_POINT ( 'NONE',  ( 0.0000000000000000000, 0.0000000000000000000, 0.0000000000000000000 ) ) ;
#260 = ADVANCED_FACE ( 'NONE', ( #159 ), #26, .T. ) ;
#261 = AXIS2_PLACEMENT_3D ( 'NONE', #179, #200, #314 ) ;
#262 = DIRECTION ( 'NONE',  ( 1.000000000000000000, 0.0000000000000000000, -0.0000000000000000000 ) ) ;
#263 = TOROIDAL_SURFACE ( 'NONE', #256, 0.1460937499999999667, 0.01000000000000000021 ) ;
#264 = ORIENTED_EDGE ( 'NONE', *, *, #245, .T. ) ;
#265 = ORIENTED_EDGE ( 'NONE', *, *, #301, .F. ) ;
#266 = DIRECTION ( 'NONE',  ( 0.0000000000000000000, 0.0000000000000000000, 1.000000000000000000 ) ) ;
#267 = AXIS2_PLACEMENT_3D ( 'NONE', #42, #123, #93 ) ;
#268 = ORIENTED_EDGE ( 'NONE', *, *, #188, .F. ) ;
#269 = CARTESIAN_POINT ( 'NONE',  ( 0.0000000000000000000, 0.0000000000000000000, 2.500000000000000000 ) ) ;
#270 = VERTEX_POINT ( 'NONE', #242 ) ;
#271 = FACE_OUTER_BOUND ( 'NONE', #177, .T. ) ;
#272 = AXIS2_PLACEMENT_3D ( 'NONE', #237, #258, #320 ) ;
#273 = DIRECTION ( 'NONE',  ( 1.000000000000000000, 0.0000000000000000000, 0.0000000000000000000 ) ) ;
#274 = DIRECTION ( 'NONE',  ( -1.000000000000000000, 0.0000000000000000000, 1.224646799147353207E-16 ) ) ;
#275 = CARTESIAN_POINT ( 'NONE',  ( 0.0000000000000000000, 0.0000000000000000000, 0.0000000000000000000 ) ) ;
#276 = PRODUCT_DEFINITION_FORMATION_WITH_SPECIFIED_SOURCE ( 'ANY', '', #191, .NOT_KNOWN. ) ;
#277 =( CONVERSION_BASED_UNIT ( 'INCH', #282 ) LENGTH_UNIT ( ) NAMED_UNIT ( #30 ) );
#278 = ORIENTED_EDGE ( 'NONE', *, *, #72, .F. ) ;
#279 = PRESENTATION_STYLE_ASSIGNMENT (( #66 ) ) ;
#280 = ORIENTED_EDGE ( 'NONE', *, *, #113, .T. ) ;
#281 = AXIS2_PLACEMENT_3D ( 'NONE', #194, #308, #67 ) ;
#282 = LENGTH_MEASURE_WITH_UNIT ( LENGTH_MEASURE( 0.02539999999999999897 ), #225 );
#283 = APPLICATION_CONTEXT ( 'automotive_design' ) ;
#284 = ORIENTED_EDGE ( 'NONE', *, *, #113, .F. ) ;
#285 = CYLINDRICAL_SURFACE ( 'NONE', #58, 0.1560937499999999478 ) ;
#286 = CIRCLE ( 'NONE', #189, 0.1562500000000000000 ) ;
#287 = CARTESIAN_POINT ( 'NONE',  ( 9.956378477067980482E-17, 0.0000000000000000000, 0.8129999999999999449 ) ) ;
#288 = ORIENTED_EDGE ( 'NONE', *, *, #62, .F. ) ;
#289 = DIRECTION ( 'NONE',  ( -0.0000000000000000000, -0.0000000000000000000, -1.000000000000000000 ) ) ;
#290 = EDGE_LOOP ( 'NONE', ( #208, #280 ) ) ;
#291 = DIRECTION ( 'NONE',  ( 0.0000000000000000000, 0.0000000000000000000, 1.000000000000000000 ) ) ;
#292 = AXIS2_PLACEMENT_3D ( 'NONE', #75, #50, #175 ) ;
#293 = DIRECTION ( 'NONE',  ( 0.0000000000000000000, 0.0000000000000000000, -1.000000000000000000 ) ) ;
#294 = AXIS2_PLACEMENT_3D ( 'NONE', #174, #65, #146 ) ;
#295 = ADVANCED_FACE ( 'NONE', ( #118 ), #310, .T. ) ;
#296 = DIRECTION ( 'NONE',  ( 0.0000000000000000000, 0.0000000000000000000, 1.000000000000000000 ) ) ;
#297 = LINE ( 'NONE', #85, #299 ) ;
#298 = CIRCLE ( 'NONE', #341, 0.1562500000000000000 ) ;
#299 = VECTOR ( 'NONE', #327, 39.37007874015747433 ) ;
#300 = DIRECTION ( 'NONE',  ( 0.7071067811865410224, 8.659560562354852739E-17, -0.7071067811865539010 ) ) ;
#301 = EDGE_CURVE ( 'NONE', #170, #168, #311, .T. ) ;
#302 = CARTESIAN_POINT ( 'NONE',  ( 0.1412499999999994871, 1.729813603795630110E-17, 2.500000000000000000 ) ) ;
#303 = EDGE_CURVE ( 'NONE', #198, #305, #286, .T. ) ;
#304 = CARTESIAN_POINT ( 'NONE',  ( 9.967230535079632947E-17, 0.0000000000000000000, 0.8138861377843152889 ) ) ;
#305 = VERTEX_POINT ( 'NONE', #247 ) ;
#306 = DIRECTION ( 'NONE',  ( 1.000000000000000000, 0.0000000000000000000, 0.0000000000000000000 ) ) ;
#307 = ORIENTED_EDGE ( 'NONE', *, *, #64, .F. ) ;
#308 = DIRECTION ( 'NONE',  ( -1.224646799147353207E-16, -0.0000000000000000000, -1.000000000000000000 ) ) ;
#309 = VECTOR ( 'NONE', #332, 39.37007874015748143 ) ;
#310 = CONICAL_SURFACE ( 'NONE', #111, 0.1560937499999999756, 0.1745329251994339192 ) ;
#311 = LINE ( 'NONE', #140, #97 ) ;
#312 = ORIENTED_EDGE ( 'NONE', *, *, #303, .T. ) ;
#313 = ORIENTED_EDGE ( 'NONE', *, *, #245, .F. ) ;
#314 = DIRECTION ( 'NONE',  ( 1.000000000000000000, 0.0000000000000000000, 0.0000000000000000000 ) ) ;
#315 = CIRCLE ( 'NONE', #11, 0.1412499999999994871 ) ;
#316 = CARTESIAN_POINT ( 'NONE',  ( 1.224646799147353384E-18, 0.0000000000000000000, 0.0000000000000000000 ) ) ;
#317 = CARTESIAN_POINT ( 'NONE',  ( 1.224646799147353384E-18, 0.0000000000000000000, 0.01000000000000000021 ) ) ;
#318 = DIRECTION ( 'NONE',  ( 0.1736481776669314137, 0.0000000000000000000, 0.9848077530122077983 ) ) ;
#319 = AXIS2_PLACEMENT_3D ( 'NONE', #317, #180, #77 ) ;
#320 = DIRECTION ( 'NONE',  ( 1.000000000000000000, 0.0000000000000000000, 0.0000000000000000000 ) ) ;
#321 = EDGE_CURVE ( 'NONE', #94, #305, #41, .T. ) ;
#322 = DIRECTION ( 'NONE',  ( 1.000000000000000000, 0.0000000000000000000, 0.0000000000000000000 ) ) ;
#323 = DIRECTION ( 'NONE',  ( 0.0000000000000000000, -1.000000000000000000, 0.0000000000000000000 ) ) ;
#324 = AXIS2_PLACEMENT_3D ( 'NONE', #287, #230, #18 ) ;
#325 = PRESENTATION_LAYER_ASSIGNMENT (  '', '', ( #122 ) ) ;
#326 = ORIENTED_EDGE ( 'NONE', *, *, #301, .T. ) ;
#327 = DIRECTION ( 'NONE',  ( -0.1736481776669312194, 2.126576849575783625E-17, 0.9848077530122080203 ) ) ;
#328 = SURFACE_SIDE_STYLE ('',( #169 ) ) ;
#329 = EDGE_LOOP ( 'NONE', ( #29, #226 ) ) ;
#330 = CARTESIAN_POINT ( 'NONE',  ( 0.1562500000000000000, 1.913510623667739463E-17, 2.500000000000000000 ) ) ;
#331 = ORIENTED_EDGE ( 'NONE', *, *, #241, .F. ) ;
#332 = DIRECTION ( 'NONE',  ( -0.0000000000000000000, -0.0000000000000000000, -1.000000000000000000 ) ) ;
#333 = ORIENTED_EDGE ( 'NONE', *, *, #40, .F. ) ;
#334 = LENGTH_MEASURE_WITH_UNIT ( LENGTH_MEASURE( 0.02539999999999999897 ), #121 );
#335 = PRODUCT_DEFINITION ( 'UNKNOWN', '', #276, #253 ) ;
#336 = VERTEX_POINT ( 'NONE', #125 ) ;
#337 = AXIS2_PLACEMENT_3D ( 'NONE', #275, #296, #136 ) ;
#338 = ORIENTED_EDGE ( 'NONE', *, *, #87, .T. ) ;
#339 = LINE ( 'NONE', #19, #101 ) ;
#340 = SURFACE_SIDE_STYLE ('',( #238 ) ) ;
#341 = AXIS2_PLACEMENT_3D ( 'NONE', #129, #105, #130 ) ;
#342 =( GEOMETRIC_REPRESENTATION_CONTEXT ( 3 ) GLOBAL_UNCERTAINTY_ASSIGNED_CONTEXT ( ( #139 ) ) GLOBAL_UNIT_ASSIGNED_CONTEXT ( ( #164, #116, #213 ) ) REPRESENTATION_CONTEXT ( 'NONE', 'WORKASPACE' ) );
#343 = VERTEX_POINT ( 'NONE', #8 ) ;
#344 = CARTESIAN_POINT ( 'NONE',  ( 0.0000000000000000000, 0.0000000000000000000, 2.500000000000000000 ) ) ;
#345 = ADVANCED_BREP_SHAPE_REPRESENTATION ( 'Micro_GEC-312-2-010', ( #165, #240 ), #33 ) ;
#346 = SURFACE_STYLE_USAGE ( .BOTH. , #340 ) ;
#347 = PRODUCT_RELATED_PRODUCT_CATEGORY ( 'part', '', ( #191 ) ) ;
#348 = CIRCLE ( 'NONE', #84, 0.1562500000000000000 ) ;
#349 = CARTESIAN_POINT ( 'NONE',  ( -0.1560937499999998923, 1.912553868355905422E-17, 0.8129999999999999449 ) ) ;
#350 = FACE_OUTER_BOUND ( 'NONE', #248, .T. ) ;
#351 = DIRECTION ( 'NONE',  ( -0.7071067811865410224, 0.0000000000000000000, -0.7071067811865539010 ) ) ;
ENDSEC;
END-ISO-10303-21;
