ISO-10303-21;
HEADER;
FILE_DESCRIPTION (( 'STEP AP214' ),
    '1' );
FILE_NAME ('86066.STEP',
    '2023-06-23T16:15:32',
    ( '' ),
    ( '' ),
    'SwSTEP 2.0',
    'SolidWorks 2023',
    '' );
FILE_SCHEMA (( 'AUTOMOTIVE_DESIGN' ));
ENDSEC;

DATA;
#1 = DIRECTION ( 'NONE',  ( -0.000000000000000000, -1.000000000000000000, -0.000000000000000000 ) ) ;
#2 =( CONVERSION_BASED_UNIT ( 'INCH', #142 ) LENGTH_UNIT ( ) NAMED_UNIT ( #83 ) );
#3 = ORIENTED_EDGE ( 'NONE', *, *, #82, .T. ) ;
#4 = STYLED_ITEM ( 'NONE', ( #166 ), #54 ) ;
#5 = AXIS2_PLACEMENT_3D ( 'NONE', #143, #53, #288 ) ;
#6 = PRODUCT_DEFINITION_SHAPE ( 'NONE', 'NONE',  #290 ) ;
#7 = PRODUCT_RELATED_PRODUCT_CATEGORY ( 'part', '', ( #229 ) ) ;
#8 = ORIENTED_EDGE ( 'NONE', *, *, #87, .F. ) ;
#9 = EDGE_CURVE ( 'NONE', #253, #305, #18, .T. ) ;
#10 = FACE_OUTER_BOUND ( 'NONE', #210, .T. ) ;
#11 = DIRECTION ( 'NONE',  ( 0.000000000000000000, -0.000000000000000000, 1.000000000000000000 ) ) ;
#12 = SHAPE_DEFINITION_REPRESENTATION ( #6, #22 ) ;
#13 = FILL_AREA_STYLE ('',( #233 ) ) ;
#14 = PRESENTATION_LAYER_ASSIGNMENT (  '', '', ( #188 ) ) ;
#15 = FILL_AREA_STYLE ('',( #137 ) ) ;
#16 = FACE_OUTER_BOUND ( 'NONE', #248, .T. ) ;
#17 = DIRECTION ( 'NONE',  ( 5.024191996501961812E-17, 1.000000000000000000, -0.000000000000000000 ) ) ;
#18 = LINE ( 'NONE', #108, #175 ) ;
#19 = DIMENSIONAL_EXPONENTS ( 1.000000000000000000, 0.000000000000000000, 0.000000000000000000, 0.000000000000000000, 0.000000000000000000, 0.000000000000000000, 0.000000000000000000 ) ;
#20 = ORIENTED_EDGE ( 'NONE', *, *, #120, .T. ) ;
#21 = EDGE_CURVE ( 'NONE', #89, #86, #217, .T. ) ;
#22 = ADVANCED_BREP_SHAPE_REPRESENTATION ( '86066', ( #100, #182, #183 ), #240 ) ;
#23 =( NAMED_UNIT ( * ) PLANE_ANGLE_UNIT ( ) SI_UNIT ( $, .RADIAN. ) );
#24 = CARTESIAN_POINT ( 'NONE',  ( 1.224646799147353207E-16, 4.000000000000000000, 0.000000000000000000 ) ) ;
#25 = CARTESIAN_POINT ( 'NONE',  ( 0.000000000000000000, 0.000000000000000000, 0.000000000000000000 ) ) ;
#26 = DIRECTION ( 'NONE',  ( 0.000000000000000000, 0.000000000000000000, -1.000000000000000000 ) ) ;
#27 = STYLED_ITEM ( 'NONE', ( #111 ), #244 ) ;
#28 = DIRECTION ( 'NONE',  ( -1.000000000000000000, 0.000000000000000000, 0.000000000000000000 ) ) ;
#29 = DIRECTION ( 'NONE',  ( -0.000000000000000000, -1.000000000000000000, -0.000000000000000000 ) ) ;
#30 = DIMENSIONAL_EXPONENTS ( 1.000000000000000000, 0.000000000000000000, 0.000000000000000000, 0.000000000000000000, 0.000000000000000000, 0.000000000000000000, 0.000000000000000000 ) ;
#31 = CIRCLE ( 'NONE', #5, 0.1562499999999998612 ) ;
#32 = EDGE_CURVE ( 'NONE', #86, #223, #74, .T. ) ;
#33 = MECHANICAL_DESIGN_GEOMETRIC_PRESENTATION_REPRESENTATION (  '', ( #188 ), #255 ) ;
#34 =( CONVERSION_BASED_UNIT ( 'INCH', #88 ) LENGTH_UNIT ( ) NAMED_UNIT ( #146 ) );
#35 = DIMENSIONAL_EXPONENTS ( 1.000000000000000000, 0.000000000000000000, 0.000000000000000000, 0.000000000000000000, 0.000000000000000000, 0.000000000000000000, 0.000000000000000000 ) ;
#36 = EDGE_LOOP ( 'NONE', ( #112, #139, #110, #39 ) ) ;
#37 = PRODUCT_DEFINITION_CONTEXT ( 'detailed design', #306, 'design' ) ;
#38 = SURFACE_STYLE_USAGE ( .BOTH. , #250 ) ;
#39 = ORIENTED_EDGE ( 'NONE', *, *, #32, .F. ) ;
#40 = ORIENTED_EDGE ( 'NONE', *, *, #72, .T. ) ;
#41 =( GEOMETRIC_REPRESENTATION_CONTEXT ( 3 ) GLOBAL_UNCERTAINTY_ASSIGNED_CONTEXT ( ( #124 ) ) GLOBAL_UNIT_ASSIGNED_CONTEXT ( ( #99, #218, #264 ) ) REPRESENTATION_CONTEXT ( 'NONE', 'WORKASPACE' ) );
#42 =( GEOMETRIC_REPRESENTATION_CONTEXT ( 3 ) GLOBAL_UNCERTAINTY_ASSIGNED_CONTEXT ( ( #66 ) ) GLOBAL_UNIT_ASSIGNED_CONTEXT ( ( #46, #282, #163 ) ) REPRESENTATION_CONTEXT ( 'NONE', 'WORKASPACE' ) );
#43 = ORIENTED_EDGE ( 'NONE', *, *, #179, .F. ) ;
#44 = DIRECTION ( 'NONE',  ( 0.000000000000000000, 0.000000000000000000, -1.000000000000000000 ) ) ;
#45 = CIRCLE ( 'NONE', #303, 0.1562500000000000000 ) ;
#46 =( CONVERSION_BASED_UNIT ( 'INCH', #90 ) LENGTH_UNIT ( ) NAMED_UNIT ( #172 ) );
#47 = DIRECTION ( 'NONE',  ( 0.000000000000000000, 1.000000000000000000, 0.000000000000000000 ) ) ;
#48 = CARTESIAN_POINT ( 'NONE',  ( 0.000000000000000000, 0.000000000000000000, -0.1562500000000000000 ) ) ;
#49 = CARTESIAN_POINT ( 'NONE',  ( 0.000000000000000000, 0.000000000000000000, -0.1562500000000000000 ) ) ;
#50 = SURFACE_STYLE_FILL_AREA ( #130 ) ;
#51 = CYLINDRICAL_SURFACE ( 'NONE', #235, 0.1562500000000000000 ) ;
#52 = PRESENTATION_LAYER_ASSIGNMENT (  '', '', ( #216 ) ) ;
#53 = DIRECTION ( 'NONE',  ( 5.024191996501961812E-17, 1.000000000000000000, -0.000000000000000000 ) ) ;
#54 = ADVANCED_FACE ( 'NONE', ( #214 ), #263, .T. ) ;
#55 = SURFACE_SIDE_STYLE ('',( #265 ) ) ;
#56 = LENGTH_MEASURE_WITH_UNIT ( LENGTH_MEASURE( 0.02539999999999999897 ), #81 );
#57 = PRESENTATION_LAYER_ASSIGNMENT (  '', '', ( #189 ) ) ;
#58 = DIRECTION ( 'NONE',  ( -1.000000000000000000, 5.024191996501961812E-17, 0.000000000000000000 ) ) ;
#59 = SURFACE_STYLE_FILL_AREA ( #272 ) ;
#60 = AXIS2_PLACEMENT_3D ( 'NONE', #180, #73, #44 ) ;
#61 = EDGE_LOOP ( 'NONE', ( #274, #279 ) ) ;
#62 = VERTEX_POINT ( 'NONE', #135 ) ;
#63 = ADVANCED_FACE ( 'NONE', ( #16 ), #51, .T. ) ;
#64 = FACE_OUTER_BOUND ( 'NONE', #61, .T. ) ;
#65 = APPLICATION_CONTEXT ( 'automotive_design' ) ;
#66 = UNCERTAINTY_MEASURE_WITH_UNIT (LENGTH_MEASURE( 1.000000000000000082E-05 ), #46, 'distance_accuracy_value', 'NONE');
#67 = FACE_OUTER_BOUND ( 'NONE', #174, .T. ) ;
#68 =( CONVERSION_BASED_UNIT ( 'INCH', #129 ) LENGTH_UNIT ( ) NAMED_UNIT ( #30 ) );
#69 = MECHANICAL_DESIGN_GEOMETRIC_PRESENTATION_REPRESENTATION (  '', ( #27 ), #41 ) ;
#70 = PRESENTATION_STYLE_ASSIGNMENT (( #259 ) ) ;
#71 = VERTEX_POINT ( 'NONE', #141 ) ;
#72 = EDGE_CURVE ( 'NONE', #62, #253, #243, .T. ) ;
#73 = DIRECTION ( 'NONE',  ( -0.000000000000000000, -1.000000000000000000, -0.000000000000000000 ) ) ;
#74 = LINE ( 'NONE', #49, #85 ) ;
#75 = DIRECTION ( 'NONE',  ( 0.000000000000000000, 0.000000000000000000, 1.000000000000000000 ) ) ;
#76 = DIRECTION ( 'NONE',  ( 0.000000000000000000, -1.000000000000000000, -0.000000000000000000 ) ) ;
#77 = PRESENTATION_LAYER_ASSIGNMENT (  '', '', ( #4 ) ) ;
#78 = CARTESIAN_POINT ( 'NONE',  ( 0.000000000000000000, 0.000000000000000000, 0.000000000000000000 ) ) ;
#79 = PLANE ( 'NONE',  #176 ) ;
#80 = MECHANICAL_DESIGN_GEOMETRIC_PRESENTATION_REPRESENTATION (  '', ( #216 ), #42 ) ;
#81 =( LENGTH_UNIT ( ) NAMED_UNIT ( * ) SI_UNIT ( $, .METRE. ) );
#82 = EDGE_CURVE ( 'NONE', #71, #223, #273, .T. ) ;
#83 = DIMENSIONAL_EXPONENTS ( 1.000000000000000000, 0.000000000000000000, 0.000000000000000000, 0.000000000000000000, 0.000000000000000000, 0.000000000000000000, 0.000000000000000000 ) ;
#84 = CARTESIAN_POINT ( 'NONE',  ( 1.972070720133934954E-34, 1.562500000000000000, 0.000000000000000000 ) ) ;
#85 = VECTOR ( 'NONE', #113, 39.37007874015748143 ) ;
#86 = VERTEX_POINT ( 'NONE', #287 ) ;
#87 = EDGE_CURVE ( 'NONE', #305, #225, #115, .T. ) ;
#88 = LENGTH_MEASURE_WITH_UNIT ( LENGTH_MEASURE( 0.02539999999999999897 ), #200 );
#89 = VERTEX_POINT ( 'NONE', #195 ) ;
#90 = LENGTH_MEASURE_WITH_UNIT ( LENGTH_MEASURE( 0.02539999999999999897 ), #93 );
#91 = SURFACE_SIDE_STYLE ('',( #50 ) ) ;
#92 = SURFACE_SIDE_STYLE ('',( #208 ) ) ;
#93 =( LENGTH_UNIT ( ) NAMED_UNIT ( * ) SI_UNIT ( $, .METRE. ) );
#94 = SURFACE_SIDE_STYLE ('',( #302 ) ) ;
#95 =( LENGTH_UNIT ( ) NAMED_UNIT ( * ) SI_UNIT ( $, .METRE. ) );
#96 = DIRECTION ( 'NONE',  ( 1.000000000000000000, 0.000000000000000000, 0.000000000000000000 ) ) ;
#97 = DIRECTION ( 'NONE',  ( -1.000000000000000000, 0.000000000000000000, 0.000000000000000000 ) ) ;
#98 = DIRECTION ( 'NONE',  ( -0.000000000000000000, -1.000000000000000000, -0.000000000000000000 ) ) ;
#99 =( CONVERSION_BASED_UNIT ( 'INCH', #308 ) LENGTH_UNIT ( ) NAMED_UNIT ( #35 ) );
#100 = MANIFOLD_SOLID_BREP ( 'Revolve - Cutting Edge', #258 ) ;
#101 =( CONVERSION_BASED_UNIT ( 'INCH', #194 ) LENGTH_UNIT ( ) NAMED_UNIT ( #19 ) );
#102 =( NAMED_UNIT ( * ) SI_UNIT ( $, .STERADIAN. ) SOLID_ANGLE_UNIT ( ) );
#103 = CARTESIAN_POINT ( 'NONE',  ( 0.000000000000000000, 0.000000000000000000, 0.000000000000000000 ) ) ;
#104 = ORIENTED_EDGE ( 'NONE', *, *, #120, .F. ) ;
#105 = LINE ( 'NONE', #206, #257 ) ;
#106 = FILL_AREA_STYLE_COLOUR ( '', #162 ) ;
#107 = UNCERTAINTY_MEASURE_WITH_UNIT (LENGTH_MEASURE( 1.000000000000000082E-05 ), #34, 'distance_accuracy_value', 'NONE');
#108 = CARTESIAN_POINT ( 'NONE',  ( 0.1562500000000000833, 4.000000000000000000, 1.913510623667738539E-17 ) ) ;
#109 = CARTESIAN_POINT ( 'NONE',  ( 1.224646799147353207E-16, 4.000000000000000000, 0.000000000000000000 ) ) ;
#110 = ORIENTED_EDGE ( 'NONE', *, *, #286, .F. ) ;
#111 = PRESENTATION_STYLE_ASSIGNMENT (( #236 ) ) ;
#112 = ORIENTED_EDGE ( 'NONE', *, *, #179, .T. ) ;
#113 = DIRECTION ( 'NONE',  ( -0.000000000000000000, -1.000000000000000000, -0.000000000000000000 ) ) ;
#114 = ADVANCED_FACE ( 'NONE', ( #295 ), #79, .F. ) ;
#115 = CIRCLE ( 'NONE', #247, 0.1562499999999998612 ) ;
#116 = AXIS2_PLACEMENT_3D ( 'NONE', #150, #177, #251 ) ;
#117 = DIRECTION ( 'NONE',  ( 0.000000000000000000, 0.000000000000000000, -1.000000000000000000 ) ) ;
#118 = CLOSED_SHELL ( 'NONE', ( #231, #114, #228, #153 ) ) ;
#119 =( CONVERSION_BASED_UNIT ( 'INCH', #56 ) LENGTH_UNIT ( ) NAMED_UNIT ( #123 ) );
#120 = EDGE_CURVE ( 'NONE', #253, #62, #122, .T. ) ;
#121 = DIRECTION ( 'NONE',  ( 5.024191996501961812E-17, 1.000000000000000000, -0.000000000000000000 ) ) ;
#122 = CIRCLE ( 'NONE', #154, 0.1562500000000000000 ) ;
#123 = DIMENSIONAL_EXPONENTS ( 1.000000000000000000, 0.000000000000000000, 0.000000000000000000, 0.000000000000000000, 0.000000000000000000, 0.000000000000000000, 0.000000000000000000 ) ;
#124 = UNCERTAINTY_MEASURE_WITH_UNIT (LENGTH_MEASURE( 1.000000000000000082E-05 ), #99, 'distance_accuracy_value', 'NONE');
#125 = EDGE_LOOP ( 'NONE', ( #181, #104 ) ) ;
#126 = COLOUR_RGB ( '',1.000000000000000000, 0.000000000000000000, 0.000000000000000000 ) ;
#127 = EDGE_LOOP ( 'NONE', ( #43, #201 ) ) ;
#128 = CARTESIAN_POINT ( 'NONE',  ( 1.224646799147353207E-16, 4.000000000000000000, 0.000000000000000000 ) ) ;
#129 = LENGTH_MEASURE_WITH_UNIT ( LENGTH_MEASURE( 0.02539999999999999897 ), #285 );
#130 = FILL_AREA_STYLE ('',( #256 ) ) ;
#131 = CARTESIAN_POINT ( 'NONE',  ( 0.000000000000000000, 1.562500000000000000, 0.000000000000000000 ) ) ;
#132 = STYLED_ITEM ( 'NONE', ( #309 ), #100 ) ;
#133 = PRESENTATION_LAYER_ASSIGNMENT (  '', '', ( #132 ) ) ;
#134 = CYLINDRICAL_SURFACE ( 'NONE', #147, 0.1562499999999999445 ) ;
#135 = CARTESIAN_POINT ( 'NONE',  ( -0.1562500000000000000, 1.562500000000000000, 0.000000000000000000 ) ) ;
#136 = SURFACE_SIDE_STYLE ('',( #209 ) ) ;
#137 = FILL_AREA_STYLE_COLOUR ( '', #170 ) ;
#138 = DIRECTION ( 'NONE',  ( 5.024191996501961812E-17, 1.000000000000000000, -0.000000000000000000 ) ) ;
#139 = ORIENTED_EDGE ( 'NONE', *, *, #171, .T. ) ;
#140 = CARTESIAN_POINT ( 'NONE',  ( 0.1562500000000000000, 1.562500000000000000, 1.913510623667738847E-17 ) ) ;
#141 = CARTESIAN_POINT ( 'NONE',  ( 1.913510623667739463E-17, 0.000000000000000000, 0.1562500000000000000 ) ) ;
#142 = LENGTH_MEASURE_WITH_UNIT ( LENGTH_MEASURE( 0.02539999999999999897 ), #95 );
#143 = CARTESIAN_POINT ( 'NONE',  ( 1.224646799147353207E-16, 4.000000000000000000, 0.000000000000000000 ) ) ;
#144 = DIRECTION ( 'NONE',  ( -1.000000000000000000, 0.000000000000000000, 0.000000000000000000 ) ) ;
#145 = AXIS2_PLACEMENT_3D ( 'NONE', #196, #121, #28 ) ;
#146 = DIMENSIONAL_EXPONENTS ( 1.000000000000000000, 0.000000000000000000, 0.000000000000000000, 0.000000000000000000, 0.000000000000000000, 0.000000000000000000, 0.000000000000000000 ) ;
#147 = AXIS2_PLACEMENT_3D ( 'NONE', #109, #211, #230 ) ;
#148 = PRESENTATION_STYLE_ASSIGNMENT (( #38 ) ) ;
#149 = AXIS2_PLACEMENT_3D ( 'NONE', #131, #98, #304 ) ;
#150 = CARTESIAN_POINT ( 'NONE',  ( 0.1562500000000000000, 4.000000000000000000, 0.000000000000000000 ) ) ;
#151 =( NAMED_UNIT ( * ) SI_UNIT ( $, .STERADIAN. ) SOLID_ANGLE_UNIT ( ) );
#152 = FILL_AREA_STYLE_COLOUR ( '', #269 ) ;
#153 = ADVANCED_FACE ( 'NONE', ( #64 ), #199, .F. ) ;
#154 = AXIS2_PLACEMENT_3D ( 'NONE', #245, #222, #252 ) ;
#155 = CARTESIAN_POINT ( 'NONE',  ( 1.913510623667739463E-17, 0.000000000000000000, 0.1562500000000000000 ) ) ;
#156 = EDGE_LOOP ( 'NONE', ( #178, #3 ) ) ;
#157 = ADVANCED_FACE ( 'NONE', ( #289 ), #173, .T. ) ;
#158 = APPLICATION_PROTOCOL_DEFINITION ( 'draft international standard', 'automotive_design', 1998, #65 ) ;
#159 = PLANE ( 'NONE',  #169 ) ;
#160 = CARTESIAN_POINT ( 'NONE',  ( 0.000000000000000000, 1.562500000000000000, 0.000000000000000000 ) ) ;
#161 = COLOUR_RGB ( '',0.7921568627450980005, 0.8196078431372548767, 0.9333333333333333481 ) ;
#162 = COLOUR_RGB ( '',1.000000000000000000, 0.000000000000000000, 0.000000000000000000 ) ;
#163 =( NAMED_UNIT ( * ) SI_UNIT ( $, .STERADIAN. ) SOLID_ANGLE_UNIT ( ) );
#164 = DIRECTION ( 'NONE',  ( 5.024191996501961812E-17, 1.000000000000000000, -0.000000000000000000 ) ) ;
#165 = CARTESIAN_POINT ( 'NONE',  ( 0.000000000000000000, 0.000000000000000000, 0.000000000000000000 ) ) ;
#166 = PRESENTATION_STYLE_ASSIGNMENT (( #191 ) ) ;
#167 =( NAMED_UNIT ( * ) PLANE_ANGLE_UNIT ( ) SI_UNIT ( $, .RADIAN. ) );
#168 = DIRECTION ( 'NONE',  ( 0.000000000000000000, 0.000000000000000000, -1.000000000000000000 ) ) ;
#169 = AXIS2_PLACEMENT_3D ( 'NONE', #25, #76, #117 ) ;
#170 = COLOUR_RGB ( '',1.000000000000000000, 0.000000000000000000, 0.000000000000000000 ) ;
#171 = EDGE_CURVE ( 'NONE', #89, #71, #298, .T. ) ;
#172 = DIMENSIONAL_EXPONENTS ( 1.000000000000000000, 0.000000000000000000, 0.000000000000000000, 0.000000000000000000, 0.000000000000000000, 0.000000000000000000, 0.000000000000000000 ) ;
#173 = CYLINDRICAL_SURFACE ( 'NONE', #60, 0.1562500000000000000 ) ;
#174 = EDGE_LOOP ( 'NONE', ( #227, #20, #204, #8 ) ) ;
#175 = VECTOR ( 'NONE', #164, 39.37007874015748143 ) ;
#176 = AXIS2_PLACEMENT_3D ( 'NONE', #84, #271, #58 ) ;
#177 = DIRECTION ( 'NONE',  ( -5.024191996501961812E-17, -1.000000000000000000, 0.000000000000000000 ) ) ;
#178 = ORIENTED_EDGE ( 'NONE', *, *, #286, .T. ) ;
#179 = EDGE_CURVE ( 'NONE', #86, #89, #45, .T. ) ;
#180 = CARTESIAN_POINT ( 'NONE',  ( 0.000000000000000000, 0.000000000000000000, 0.000000000000000000 ) ) ;
#181 = ORIENTED_EDGE ( 'NONE', *, *, #72, .F. ) ;
#182 = MANIFOLD_SOLID_BREP ( 'Revolve - Tool Body (Straight Shanked)', #118 ) ;
#183 = AXIS2_PLACEMENT_3D ( 'NONE', #165, #75, #96 ) ;
#184 = CYLINDRICAL_SURFACE ( 'NONE', #207, 0.1562499999999999445 ) ;
#185 = SURFACE_STYLE_USAGE ( .BOTH. , #92 ) ;
#186 =( NAMED_UNIT ( * ) PLANE_ANGLE_UNIT ( ) SI_UNIT ( $, .RADIAN. ) );
#187 = DIRECTION ( 'NONE',  ( 0.000000000000000000, 0.000000000000000000, -1.000000000000000000 ) ) ;
#188 = STYLED_ITEM ( 'NONE', ( #277 ), #63 ) ;
#189 = STYLED_ITEM ( 'NONE', ( #148 ), #157 ) ;
#190 =( LENGTH_UNIT ( ) NAMED_UNIT ( * ) SI_UNIT ( $, .METRE. ) );
#191 = SURFACE_STYLE_USAGE ( .BOTH. , #94 ) ;
#192 = DIRECTION ( 'NONE',  ( 0.000000000000000000, 0.000000000000000000, -1.000000000000000000 ) ) ;
#193 = MECHANICAL_DESIGN_GEOMETRIC_PRESENTATION_REPRESENTATION (  '', ( #4 ), #280 ) ;
#194 = LENGTH_MEASURE_WITH_UNIT ( LENGTH_MEASURE( 0.02539999999999999897 ), #242 );
#195 = CARTESIAN_POINT ( 'NONE',  ( 1.913510623667739463E-17, 1.562500000000000000, 0.1562500000000000000 ) ) ;
#196 = CARTESIAN_POINT ( 'NONE',  ( 0.000000000000000000, 1.562500000000000000, 0.000000000000000000 ) ) ;
#197 = MECHANICAL_DESIGN_GEOMETRIC_PRESENTATION_REPRESENTATION (  '', ( #189 ), #226 ) ;
#198 = FILL_AREA_STYLE_COLOUR ( '', #293 ) ;
#199 = PLANE ( 'NONE',  #116 ) ;
#200 =( LENGTH_UNIT ( ) NAMED_UNIT ( * ) SI_UNIT ( $, .METRE. ) );
#201 = ORIENTED_EDGE ( 'NONE', *, *, #21, .F. ) ;
#202 = MECHANICAL_DESIGN_GEOMETRIC_PRESENTATION_REPRESENTATION (  '', ( #132 ), #294 ) ;
#203 = PRESENTATION_LAYER_ASSIGNMENT (  '', '', ( #27 ) ) ;
#204 = ORIENTED_EDGE ( 'NONE', *, *, #241, .T. ) ;
#205 = UNCERTAINTY_MEASURE_WITH_UNIT (LENGTH_MEASURE( 1.000000000000000082E-05 ), #2, 'distance_accuracy_value', 'NONE');
#206 = CARTESIAN_POINT ( 'NONE',  ( -0.1562499999999998057, 4.000000000000000000, 0.000000000000000000 ) ) ;
#207 = AXIS2_PLACEMENT_3D ( 'NONE', #128, #138, #97 ) ;
#208 = SURFACE_STYLE_FILL_AREA ( #212 ) ;
#209 = SURFACE_STYLE_FILL_AREA ( #13 ) ;
#210 = EDGE_LOOP ( 'NONE', ( #40, #292, #296, #237 ) ) ;
#211 = DIRECTION ( 'NONE',  ( 5.024191996501961812E-17, 1.000000000000000000, -0.000000000000000000 ) ) ;
#212 = FILL_AREA_STYLE ('',( #106 ) ) ;
#213 = AXIS2_PLACEMENT_3D ( 'NONE', #78, #215, #192 ) ;
#214 = FACE_OUTER_BOUND ( 'NONE', #127, .T. ) ;
#215 = DIRECTION ( 'NONE',  ( -0.000000000000000000, -1.000000000000000000, -0.000000000000000000 ) ) ;
#216 = STYLED_ITEM ( 'NONE', ( #70 ), #182 ) ;
#217 = CIRCLE ( 'NONE', #149, 0.1562500000000000000 ) ;
#218 =( NAMED_UNIT ( * ) PLANE_ANGLE_UNIT ( ) SI_UNIT ( $, .RADIAN. ) );
#219 = SURFACE_STYLE_USAGE ( .BOTH. , #55 ) ;
#220 = DIRECTION ( 'NONE',  ( 5.024191996501961812E-17, 1.000000000000000000, -0.000000000000000000 ) ) ;
#221 = VECTOR ( 'NONE', #262, 39.37007874015748143 ) ;
#222 = DIRECTION ( 'NONE',  ( 5.024191996501961812E-17, 1.000000000000000000, -0.000000000000000000 ) ) ;
#223 = VERTEX_POINT ( 'NONE', #48 ) ;
#224 =( NAMED_UNIT ( * ) SI_UNIT ( $, .STERADIAN. ) SOLID_ANGLE_UNIT ( ) );
#225 = VERTEX_POINT ( 'NONE', #301 ) ;
#226 =( GEOMETRIC_REPRESENTATION_CONTEXT ( 3 ) GLOBAL_UNCERTAINTY_ASSIGNED_CONTEXT ( ( #107 ) ) GLOBAL_UNIT_ASSIGNED_CONTEXT ( ( #34, #291, #224 ) ) REPRESENTATION_CONTEXT ( 'NONE', 'WORKASPACE' ) );
#227 = ORIENTED_EDGE ( 'NONE', *, *, #9, .F. ) ;
#228 = ADVANCED_FACE ( 'NONE', ( #67 ), #184, .T. ) ;
#229 = PRODUCT ( '86066', '86066', '', ( #284 ) ) ;
#230 = DIRECTION ( 'NONE',  ( -1.000000000000000000, 0.000000000000000000, 0.000000000000000000 ) ) ;
#231 = ADVANCED_FACE ( 'NONE', ( #10 ), #134, .T. ) ;
#232 = AXIS2_PLACEMENT_3D ( 'NONE', #160, #47, #11 ) ;
#233 = FILL_AREA_STYLE_COLOUR ( '', #126 ) ;
#234 =( NAMED_UNIT ( * ) SI_UNIT ( $, .STERADIAN. ) SOLID_ANGLE_UNIT ( ) );
#235 = AXIS2_PLACEMENT_3D ( 'NONE', #267, #29, #168 ) ;
#236 = SURFACE_STYLE_USAGE ( .BOTH. , #136 ) ;
#237 = ORIENTED_EDGE ( 'NONE', *, *, #241, .F. ) ;
#238 = CARTESIAN_POINT ( 'NONE',  ( 0.000000000000000000, 1.562500000000000000, 0.000000000000000000 ) ) ;
#239 = ORIENTED_EDGE ( 'NONE', *, *, #21, .T. ) ;
#240 =( GEOMETRIC_REPRESENTATION_CONTEXT ( 3 ) GLOBAL_UNCERTAINTY_ASSIGNED_CONTEXT ( ( #254 ) ) GLOBAL_UNIT_ASSIGNED_CONTEXT ( ( #101, #167, #281 ) ) REPRESENTATION_CONTEXT ( 'NONE', 'WORKASPACE' ) );
#241 = EDGE_CURVE ( 'NONE', #62, #225, #105, .T. ) ;
#242 =( LENGTH_UNIT ( ) NAMED_UNIT ( * ) SI_UNIT ( $, .METRE. ) );
#243 = CIRCLE ( 'NONE', #145, 0.1562500000000000000 ) ;
#244 = ADVANCED_FACE ( 'NONE', ( #276 ), #159, .T. ) ;
#245 = CARTESIAN_POINT ( 'NONE',  ( 0.000000000000000000, 1.562500000000000000, 0.000000000000000000 ) ) ;
#246 = UNCERTAINTY_MEASURE_WITH_UNIT (LENGTH_MEASURE( 1.000000000000000082E-05 ), #119, 'distance_accuracy_value', 'NONE');
#247 = AXIS2_PLACEMENT_3D ( 'NONE', #24, #220, #144 ) ;
#248 = EDGE_LOOP ( 'NONE', ( #260, #239, #283, #299 ) ) ;
#249 = EDGE_CURVE ( 'NONE', #225, #305, #31, .T. ) ;
#250 = SURFACE_SIDE_STYLE ('',( #59 ) ) ;
#251 = DIRECTION ( 'NONE',  ( 1.000000000000000000, -5.024191996501961812E-17, 0.000000000000000000 ) ) ;
#252 = DIRECTION ( 'NONE',  ( -1.000000000000000000, 0.000000000000000000, 0.000000000000000000 ) ) ;
#253 = VERTEX_POINT ( 'NONE', #140 ) ;
#254 = UNCERTAINTY_MEASURE_WITH_UNIT (LENGTH_MEASURE( 1.000000000000000082E-05 ), #101, 'distance_accuracy_value', 'NONE');
#255 =( GEOMETRIC_REPRESENTATION_CONTEXT ( 3 ) GLOBAL_UNCERTAINTY_ASSIGNED_CONTEXT ( ( #205 ) ) GLOBAL_UNIT_ASSIGNED_CONTEXT ( ( #2, #270, #102 ) ) REPRESENTATION_CONTEXT ( 'NONE', 'WORKASPACE' ) );
#256 = FILL_AREA_STYLE_COLOUR ( '', #161 ) ;
#257 = VECTOR ( 'NONE', #17, 39.37007874015748143 ) ;
#258 = CLOSED_SHELL ( 'NONE', ( #157, #54, #63, #244 ) ) ;
#259 = SURFACE_STYLE_USAGE ( .BOTH. , #91 ) ;
#260 = ORIENTED_EDGE ( 'NONE', *, *, #171, .F. ) ;
#261 = APPLICATION_PROTOCOL_DEFINITION ( 'draft international standard', 'automotive_design', 1998, #306 ) ;
#262 = DIRECTION ( 'NONE',  ( -0.000000000000000000, -1.000000000000000000, -0.000000000000000000 ) ) ;
#263 = PLANE ( 'NONE',  #232 ) ;
#264 =( NAMED_UNIT ( * ) SI_UNIT ( $, .STERADIAN. ) SOLID_ANGLE_UNIT ( ) );
#265 = SURFACE_STYLE_FILL_AREA ( #268 ) ;
#266 = CARTESIAN_POINT ( 'NONE',  ( 0.1562500000000000000, 4.000000000000000000, 1.913510623667738847E-17 ) ) ;
#267 = CARTESIAN_POINT ( 'NONE',  ( 0.000000000000000000, 0.000000000000000000, 0.000000000000000000 ) ) ;
#268 = FILL_AREA_STYLE ('',( #198 ) ) ;
#269 = COLOUR_RGB ( '',1.000000000000000000, 0.000000000000000000, 0.000000000000000000 ) ;
#270 =( NAMED_UNIT ( * ) PLANE_ANGLE_UNIT ( ) SI_UNIT ( $, .RADIAN. ) );
#271 = DIRECTION ( 'NONE',  ( 5.024191996501961812E-17, 1.000000000000000000, -0.000000000000000000 ) ) ;
#272 = FILL_AREA_STYLE ('',( #152 ) ) ;
#273 = CIRCLE ( 'NONE', #307, 0.1562500000000000000 ) ;
#274 = ORIENTED_EDGE ( 'NONE', *, *, #249, .T. ) ;
#275 = CIRCLE ( 'NONE', #213, 0.1562500000000000000 ) ;
#276 = FACE_OUTER_BOUND ( 'NONE', #156, .T. ) ;
#277 = PRESENTATION_STYLE_ASSIGNMENT (( #185 ) ) ;
#278 = DIRECTION ( 'NONE',  ( -0.000000000000000000, -1.000000000000000000, -0.000000000000000000 ) ) ;
#279 = ORIENTED_EDGE ( 'NONE', *, *, #87, .T. ) ;
#280 =( GEOMETRIC_REPRESENTATION_CONTEXT ( 3 ) GLOBAL_UNCERTAINTY_ASSIGNED_CONTEXT ( ( #300 ) ) GLOBAL_UNIT_ASSIGNED_CONTEXT ( ( #68, #186, #234 ) ) REPRESENTATION_CONTEXT ( 'NONE', 'WORKASPACE' ) );
#281 =( NAMED_UNIT ( * ) SI_UNIT ( $, .STERADIAN. ) SOLID_ANGLE_UNIT ( ) );
#282 =( NAMED_UNIT ( * ) PLANE_ANGLE_UNIT ( ) SI_UNIT ( $, .RADIAN. ) );
#283 = ORIENTED_EDGE ( 'NONE', *, *, #32, .T. ) ;
#284 = PRODUCT_CONTEXT ( 'NONE', #65, 'mechanical' ) ;
#285 =( LENGTH_UNIT ( ) NAMED_UNIT ( * ) SI_UNIT ( $, .METRE. ) );
#286 = EDGE_CURVE ( 'NONE', #223, #71, #275, .T. ) ;
#287 = CARTESIAN_POINT ( 'NONE',  ( 0.000000000000000000, 1.562500000000000000, -0.1562500000000000000 ) ) ;
#288 = DIRECTION ( 'NONE',  ( -1.000000000000000000, 0.000000000000000000, 0.000000000000000000 ) ) ;
#289 = FACE_OUTER_BOUND ( 'NONE', #36, .T. ) ;
#290 = PRODUCT_DEFINITION ( 'UNKNOWN', '', #297, #37 ) ;
#291 =( NAMED_UNIT ( * ) PLANE_ANGLE_UNIT ( ) SI_UNIT ( $, .RADIAN. ) );
#292 = ORIENTED_EDGE ( 'NONE', *, *, #9, .T. ) ;
#293 = COLOUR_RGB ( '',0.7921568627450980005, 0.8196078431372548767, 0.9333333333333333481 ) ;
#294 =( GEOMETRIC_REPRESENTATION_CONTEXT ( 3 ) GLOBAL_UNCERTAINTY_ASSIGNED_CONTEXT ( ( #246 ) ) GLOBAL_UNIT_ASSIGNED_CONTEXT ( ( #119, #23, #151 ) ) REPRESENTATION_CONTEXT ( 'NONE', 'WORKASPACE' ) );
#295 = FACE_OUTER_BOUND ( 'NONE', #125, .T. ) ;
#296 = ORIENTED_EDGE ( 'NONE', *, *, #249, .F. ) ;
#297 = PRODUCT_DEFINITION_FORMATION_WITH_SPECIFIED_SOURCE ( 'ANY', '', #229, .NOT_KNOWN. ) ;
#298 = LINE ( 'NONE', #155, #221 ) ;
#299 = ORIENTED_EDGE ( 'NONE', *, *, #82, .F. ) ;
#300 = UNCERTAINTY_MEASURE_WITH_UNIT (LENGTH_MEASURE( 1.000000000000000082E-05 ), #68, 'distance_accuracy_value', 'NONE');
#301 = CARTESIAN_POINT ( 'NONE',  ( -0.1562499999999997224, 4.000000000000000000, 0.000000000000000000 ) ) ;
#302 = SURFACE_STYLE_FILL_AREA ( #15 ) ;
#303 = AXIS2_PLACEMENT_3D ( 'NONE', #238, #278, #187 ) ;
#304 = DIRECTION ( 'NONE',  ( 0.000000000000000000, 0.000000000000000000, -1.000000000000000000 ) ) ;
#305 = VERTEX_POINT ( 'NONE', #266 ) ;
#306 = APPLICATION_CONTEXT ( 'automotive_design' ) ;
#307 = AXIS2_PLACEMENT_3D ( 'NONE', #103, #1, #26 ) ;
#308 = LENGTH_MEASURE_WITH_UNIT ( LENGTH_MEASURE( 0.02539999999999999897 ), #190 );
#309 = PRESENTATION_STYLE_ASSIGNMENT (( #219 ) ) ;
ENDSEC;
END-ISO-10303-21;
