ISO-10303-21;
HEADER;
FILE_DESCRIPTION (( 'STEP AP214' ),
    '1' );
FILE_NAME ('59446.STEP',
    '2023-06-30T22:18:22',
    ( '' ),
    ( '' ),
    'SwSTEP 2.0',
    'SolidWorks 2023',
    '' );
FILE_SCHEMA (( 'AUTOMOTIVE_DESIGN' ));
ENDSEC;

DATA;
#1 = DIMENSIONAL_EXPONENTS ( 1.000000000000000000, 0.000000000000000000, 0.000000000000000000, 0.000000000000000000, 0.000000000000000000, 0.000000000000000000, 0.000000000000000000 ) ;
#2 =( NAMED_UNIT ( * ) SI_UNIT ( $, .STERADIAN. ) SOLID_ANGLE_UNIT ( ) );
#3 = AXIS2_PLACEMENT_3D ( 'NONE', #53, #166, #259 ) ;
#4 =( LENGTH_UNIT ( ) NAMED_UNIT ( * ) SI_UNIT ( $, .METRE. ) );
#5 = FACE_OUTER_BOUND ( 'NONE', #23, .T. ) ;
#6 = EDGE_CURVE ( 'NONE', #340, #229, #121, .T. ) ;
#7 = SURFACE_STYLE_FILL_AREA ( #269 ) ;
#8 = DIRECTION ( 'NONE',  ( -0.000000000000000000, -1.000000000000000000, -0.000000000000000000 ) ) ;
#9 = STYLED_ITEM ( 'NONE', ( #352 ), #96 ) ;
#10 = PRESENTATION_LAYER_ASSIGNMENT (  '', '', ( #170 ) ) ;
#11 = CARTESIAN_POINT ( 'NONE',  ( -0.2499999999999995559, 2.500000000000000000, 0.000000000000000000 ) ) ;
#12 = CARTESIAN_POINT ( 'NONE',  ( 0.000000000000000000, 0.000000000000000000, 0.000000000000000000 ) ) ;
#13 = DIRECTION ( 'NONE',  ( -1.191657677766311302E-16, 1.000000000000000000, -0.000000000000000000 ) ) ;
#14 = PRODUCT_CONTEXT ( 'NONE', #52, 'mechanical' ) ;
#15 = CIRCLE ( 'NONE', #168, 0.2499999999999998057 ) ;
#16 = APPLICATION_CONTEXT ( 'automotive_design' ) ;
#17 = ORIENTED_EDGE ( 'NONE', *, *, #171, .F. ) ;
#18 = FILL_AREA_STYLE ('',( #74 ) ) ;
#19 = ORIENTED_EDGE ( 'NONE', *, *, #160, .T. ) ;
#20 =( CONVERSION_BASED_UNIT ( 'INCH', #312 ) LENGTH_UNIT ( ) NAMED_UNIT ( #238 ) );
#21 = ADVANCED_FACE ( 'NONE', ( #194 ), #73, .T. ) ;
#22 = FILL_AREA_STYLE ('',( #226 ) ) ;
#23 = EDGE_LOOP ( 'NONE', ( #197, #363, #111, #118, #196 ) ) ;
#24 = DIRECTION ( 'NONE',  ( 1.000000000000000000, 1.191657677766311302E-16, 0.000000000000000000 ) ) ;
#25 = EDGE_LOOP ( 'NONE', ( #135, #279, #333, #231 ) ) ;
#26 = CLOSED_SHELL ( 'NONE', ( #21, #339, #177, #358 ) ) ;
#27 = AXIS2_PLACEMENT_3D ( 'NONE', #12, #275, #154 ) ;
#28 = FILL_AREA_STYLE ('',( #323 ) ) ;
#29 = CARTESIAN_POINT ( 'NONE',  ( 3.061616997868383018E-17, 0.2500000000000000000, 0.2500000000000000000 ) ) ;
#30 = FACE_OUTER_BOUND ( 'NONE', #169, .T. ) ;
#31 = UNCERTAINTY_MEASURE_WITH_UNIT (LENGTH_MEASURE( 1.000000000000000082E-05 ), #55, 'distance_accuracy_value', 'NONE');
#32 = STYLED_ITEM ( 'NONE', ( #232 ), #100 ) ;
#33 =( GEOMETRIC_REPRESENTATION_CONTEXT ( 3 ) GLOBAL_UNCERTAINTY_ASSIGNED_CONTEXT ( ( #116 ) ) GLOBAL_UNIT_ASSIGNED_CONTEXT ( ( #125, #247, #183 ) ) REPRESENTATION_CONTEXT ( 'NONE', 'WORKASPACE' ) );
#34 = EDGE_CURVE ( 'NONE', #229, #340, #15, .T. ) ;
#35 = ORIENTED_EDGE ( 'NONE', *, *, #205, .F. ) ;
#36 = DIRECTION ( 'NONE',  ( -1.191657677766311302E-16, 1.000000000000000000, -0.000000000000000000 ) ) ;
#37 = FILL_AREA_STYLE ('',( #68 ) ) ;
#38 = SHAPE_DEFINITION_REPRESENTATION ( #88, #347 ) ;
#39 = DIRECTION ( 'NONE',  ( -0.000000000000000000, -1.000000000000000000, -0.000000000000000000 ) ) ;
#40 =( GEOMETRIC_REPRESENTATION_CONTEXT ( 3 ) GLOBAL_UNCERTAINTY_ASSIGNED_CONTEXT ( ( #321 ) ) GLOBAL_UNIT_ASSIGNED_CONTEXT ( ( #176, #144, #235 ) ) REPRESENTATION_CONTEXT ( 'NONE', 'WORKASPACE' ) );
#41 = VERTEX_POINT ( 'NONE', #311 ) ;
#42 = CARTESIAN_POINT ( 'NONE',  ( -0.2500000000000000000, 0.2500000000000000000, 3.061616997868382402E-17 ) ) ;
#43 = CIRCLE ( 'NONE', #3, 0.2500000000000000000 ) ;
#44 = CARTESIAN_POINT ( 'NONE',  ( 0.000000000000000000, 0.000000000000000000, 0.000000000000000000 ) ) ;
#45 = VECTOR ( 'NONE', #39, 39.37007874015748143 ) ;
#46 = ORIENTED_EDGE ( 'NONE', *, *, #92, .T. ) ;
#47 =( GEOMETRIC_REPRESENTATION_CONTEXT ( 3 ) GLOBAL_UNCERTAINTY_ASSIGNED_CONTEXT ( ( #31 ) ) GLOBAL_UNIT_ASSIGNED_CONTEXT ( ( #55, #348, #318 ) ) REPRESENTATION_CONTEXT ( 'NONE', 'WORKASPACE' ) );
#48 = AXIS2_PLACEMENT_3D ( 'NONE', #71, #354, #148 ) ;
#49 =( NAMED_UNIT ( * ) SI_UNIT ( $, .STERADIAN. ) SOLID_ANGLE_UNIT ( ) );
#50 = ORIENTED_EDGE ( 'NONE', *, *, #34, .T. ) ;
#51 =( LENGTH_UNIT ( ) NAMED_UNIT ( * ) SI_UNIT ( $, .METRE. ) );
#52 = APPLICATION_CONTEXT ( 'automotive_design' ) ;
#53 = CARTESIAN_POINT ( 'NONE',  ( -3.061616997868383018E-17, 0.2500000000000000000, 0.000000000000000000 ) ) ;
#54 = EDGE_CURVE ( 'NONE', #216, #147, #43, .T. ) ;
#55 =( CONVERSION_BASED_UNIT ( 'INCH', #266 ) LENGTH_UNIT ( ) NAMED_UNIT ( #240 ) );
#56 = ORIENTED_EDGE ( 'NONE', *, *, #314, .T. ) ;
#57 = CIRCLE ( 'NONE', #48, 0.2499999999999999722 ) ;
#58 = LENGTH_MEASURE_WITH_UNIT ( LENGTH_MEASURE( 0.02539999999999999897 ), #85 );
#59 = UNCERTAINTY_MEASURE_WITH_UNIT (LENGTH_MEASURE( 1.000000000000000082E-05 ), #281, 'distance_accuracy_value', 'NONE');
#60 = FILL_AREA_STYLE_COLOUR ( '', #350 ) ;
#61 = CARTESIAN_POINT ( 'NONE',  ( 3.459004944959186898E-16, 0.6250000000000000000, 0.000000000000000000 ) ) ;
#62 =( LENGTH_UNIT ( ) NAMED_UNIT ( * ) SI_UNIT ( $, .METRE. ) );
#63 = STYLED_ITEM ( 'NONE', ( #345 ), #84 ) ;
#64 =( CONVERSION_BASED_UNIT ( 'INCH', #260 ) LENGTH_UNIT ( ) NAMED_UNIT ( #268 ) );
#65 = PRODUCT_DEFINITION_FORMATION_WITH_SPECIFIED_SOURCE ( 'ANY', '', #210, .NOT_KNOWN. ) ;
#66 = DIRECTION ( 'NONE',  ( -1.000000000000000000, 0.000000000000000000, 0.000000000000000000 ) ) ;
#67 = CARTESIAN_POINT ( 'NONE',  ( 0.000000000000000000, 0.000000000000000000, -0.2499999999999999167 ) ) ;
#68 = FILL_AREA_STYLE_COLOUR ( '', #186 ) ;
#69 = EDGE_CURVE ( 'NONE', #103, #216, #227, .T. ) ;
#70 = CARTESIAN_POINT ( 'NONE',  ( 3.061616997868382402E-17, 0.000000000000000000, 0.2499999999999999167 ) ) ;
#71 = CARTESIAN_POINT ( 'NONE',  ( 0.000000000000000000, 0.2500000000000000000, 0.000000000000000000 ) ) ;
#72 = DIRECTION ( 'NONE',  ( -1.000000000000000000, 0.000000000000000000, 0.000000000000000000 ) ) ;
#73 = CYLINDRICAL_SURFACE ( 'NONE', #163, 0.2499999999999996947 ) ;
#74 = FILL_AREA_STYLE_COLOUR ( '', #145 ) ;
#75 = ORIENTED_EDGE ( 'NONE', *, *, #171, .T. ) ;
#76 = PRESENTATION_LAYER_ASSIGNMENT (  '', '', ( #63 ) ) ;
#77 = AXIS2_PLACEMENT_3D ( 'NONE', #328, #246, #325 ) ;
#78 = CARTESIAN_POINT ( 'NONE',  ( -3.061616997868383018E-17, 0.2500000000000000000, 0.000000000000000000 ) ) ;
#79 = EDGE_LOOP ( 'NONE', ( #337, #46, #75, #184 ) ) ;
#80 =( NAMED_UNIT ( * ) SI_UNIT ( $, .STERADIAN. ) SOLID_ANGLE_UNIT ( ) );
#81 = ORIENTED_EDGE ( 'NONE', *, *, #230, .T. ) ;
#82 = VERTEX_POINT ( 'NONE', #317 ) ;
#83 = AXIS2_PLACEMENT_3D ( 'NONE', #179, #8, #122 ) ;
#84 = ADVANCED_FACE ( 'NONE', ( #5 ), #209, .T. ) ;
#85 =( LENGTH_UNIT ( ) NAMED_UNIT ( * ) SI_UNIT ( $, .METRE. ) );
#86 = CARTESIAN_POINT ( 'NONE',  ( 0.000000000000000000, 0.2500000000000000000, -0.2499999999999999722 ) ) ;
#87 =( NAMED_UNIT ( * ) SI_UNIT ( $, .STERADIAN. ) SOLID_ANGLE_UNIT ( ) );
#88 = PRODUCT_DEFINITION_SHAPE ( 'NONE', 'NONE',  #192 ) ;
#89 = DIRECTION ( 'NONE',  ( 0.000000000000000000, 0.000000000000000000, -1.000000000000000000 ) ) ;
#90 = VECTOR ( 'NONE', #334, 39.37007874015748143 ) ;
#91 =( CONVERSION_BASED_UNIT ( 'INCH', #173 ) LENGTH_UNIT ( ) NAMED_UNIT ( #204 ) );
#92 = EDGE_CURVE ( 'NONE', #41, #82, #276, .T. ) ;
#93 = DIRECTION ( 'NONE',  ( -0.000000000000000000, -1.000000000000000000, -0.000000000000000000 ) ) ;
#94 = DIRECTION ( 'NONE',  ( 0.000000000000000000, 0.000000000000000000, 1.000000000000000000 ) ) ;
#95 = DIRECTION ( 'NONE',  ( 0.000000000000000000, 0.000000000000000000, -1.000000000000000000 ) ) ;
#96 = MANIFOLD_SOLID_BREP ( 'Revolve - Tool Body (Straight Shanked)', #26 ) ;
#97 = SURFACE_SIDE_STYLE ('',( #250 ) ) ;
#98 = MECHANICAL_DESIGN_GEOMETRIC_PRESENTATION_REPRESENTATION (  '', ( #300 ), #191 ) ;
#99 = VECTOR ( 'NONE', #36, 39.37007874015748143 ) ;
#100 = MANIFOLD_SOLID_BREP ( 'Revolve - Cutting Edge', #255 ) ;
#101 = CARTESIAN_POINT ( 'NONE',  ( 0.000000000000000000, 0.2500000000000000000, 0.000000000000000000 ) ) ;
#102 = CARTESIAN_POINT ( 'NONE',  ( 3.061616997868382402E-17, 0.6250000000000000000, 0.2499999999999999167 ) ) ;
#103 = VERTEX_POINT ( 'NONE', #86 ) ;
#104 = PRESENTATION_STYLE_ASSIGNMENT (( #164 ) ) ;
#105 = PRESENTATION_STYLE_ASSIGNMENT (( #364 ) ) ;
#106 = MECHANICAL_DESIGN_GEOMETRIC_PRESENTATION_REPRESENTATION (  '', ( #32 ), #47 ) ;
#107 = AXIS2_PLACEMENT_3D ( 'NONE', #195, #190, #24 ) ;
#108 = SURFACE_SIDE_STYLE ('',( #368 ) ) ;
#109 = DIRECTION ( 'NONE',  ( -1.191657677766311302E-16, 1.000000000000000000, -0.000000000000000000 ) ) ;
#110 = MECHANICAL_DESIGN_GEOMETRIC_PRESENTATION_REPRESENTATION (  '', ( #9 ), #137 ) ;
#111 = ORIENTED_EDGE ( 'NONE', *, *, #245, .T. ) ;
#112 = AXIS2_PLACEMENT_3D ( 'NONE', #329, #13, #72 ) ;
#113 = CARTESIAN_POINT ( 'NONE',  ( 0.000000000000000000, 0.6250000000000000000, 0.000000000000000000 ) ) ;
#114 =( LENGTH_UNIT ( ) NAMED_UNIT ( * ) SI_UNIT ( $, .METRE. ) );
#115 = DIRECTION ( 'NONE',  ( -1.191657677766311302E-16, 1.000000000000000000, -0.000000000000000000 ) ) ;
#116 = UNCERTAINTY_MEASURE_WITH_UNIT (LENGTH_MEASURE( 1.000000000000000082E-05 ), #125, 'distance_accuracy_value', 'NONE');
#117 = SURFACE_STYLE_FILL_AREA ( #28 ) ;
#118 = ORIENTED_EDGE ( 'NONE', *, *, #224, .F. ) ;
#119 = SPHERICAL_SURFACE ( 'NONE', #248, 0.2500000000000000000 ) ;
#120 = SURFACE_STYLE_FILL_AREA ( #346 ) ;
#121 = CIRCLE ( 'NONE', #234, 0.2499999999999998057 ) ;
#122 = DIRECTION ( 'NONE',  ( 0.000000000000000000, 0.000000000000000000, -1.000000000000000000 ) ) ;
#123 = CIRCLE ( 'NONE', #112, 0.2499999999999995559 ) ;
#124 = CARTESIAN_POINT ( 'NONE',  ( 0.2499999999999999722, 0.2500000000000000000, 0.000000000000000000 ) ) ;
#125 =( CONVERSION_BASED_UNIT ( 'INCH', #212 ) LENGTH_UNIT ( ) NAMED_UNIT ( #287 ) );
#126 = ADVANCED_FACE ( 'NONE', ( #30 ), #119, .T. ) ;
#127 = ORIENTED_EDGE ( 'NONE', *, *, #6, .F. ) ;
#128 = CARTESIAN_POINT ( 'NONE',  ( 0.2499999999999998335, 2.500000000000000000, 3.061616997868379320E-17 ) ) ;
#129 =( GEOMETRIC_REPRESENTATION_CONTEXT ( 3 ) GLOBAL_UNCERTAINTY_ASSIGNED_CONTEXT ( ( #353 ) ) GLOBAL_UNIT_ASSIGNED_CONTEXT ( ( #20, #221, #49 ) ) REPRESENTATION_CONTEXT ( 'NONE', 'WORKASPACE' ) );
#130 = VERTEX_POINT ( 'NONE', #29 ) ;
#131 = DIRECTION ( 'NONE',  ( -1.191657677766311302E-16, 1.000000000000000000, -0.000000000000000000 ) ) ;
#132 = PRESENTATION_LAYER_ASSIGNMENT (  '', '', ( #300 ) ) ;
#133 = CIRCLE ( 'NONE', #344, 0.2499999999999999167 ) ;
#134 = PRESENTATION_STYLE_ASSIGNMENT (( #136 ) ) ;
#135 = ORIENTED_EDGE ( 'NONE', *, *, #314, .F. ) ;
#136 = SURFACE_STYLE_USAGE ( .BOTH. , #108 ) ;
#137 =( GEOMETRIC_REPRESENTATION_CONTEXT ( 3 ) GLOBAL_UNCERTAINTY_ASSIGNED_CONTEXT ( ( #203 ) ) GLOBAL_UNIT_ASSIGNED_CONTEXT ( ( #91, #295, #87 ) ) REPRESENTATION_CONTEXT ( 'NONE', 'WORKASPACE' ) );
#138 = EDGE_LOOP ( 'NONE', ( #158, #175 ) ) ;
#139 = COLOUR_RGB ( '',1.000000000000000000, 0.000000000000000000, 0.000000000000000000 ) ;
#140 =( CONVERSION_BASED_UNIT ( 'INCH', #167 ) LENGTH_UNIT ( ) NAMED_UNIT ( #322 ) );
#141 =( NAMED_UNIT ( * ) PLANE_ANGLE_UNIT ( ) SI_UNIT ( $, .RADIAN. ) );
#142 = ORIENTED_EDGE ( 'NONE', *, *, #293, .T. ) ;
#143 = SURFACE_SIDE_STYLE ('',( #117 ) ) ;
#144 =( NAMED_UNIT ( * ) PLANE_ANGLE_UNIT ( ) SI_UNIT ( $, .RADIAN. ) );
#145 = COLOUR_RGB ( '',1.000000000000000000, 0.000000000000000000, 0.000000000000000000 ) ;
#146 = DIMENSIONAL_EXPONENTS ( 1.000000000000000000, 0.000000000000000000, 0.000000000000000000, 0.000000000000000000, 0.000000000000000000, 0.000000000000000000, 0.000000000000000000 ) ;
#147 = VERTEX_POINT ( 'NONE', #211 ) ;
#148 = DIRECTION ( 'NONE',  ( 0.000000000000000000, 0.000000000000000000, -1.000000000000000000 ) ) ;
#149 = SURFACE_STYLE_FILL_AREA ( #37 ) ;
#150 = PRODUCT_DEFINITION_CONTEXT ( 'detailed design', #16, 'design' ) ;
#151 = CARTESIAN_POINT ( 'NONE',  ( 0.2499999999999999167, 2.500000000000000000, 3.061616997868379936E-17 ) ) ;
#152 = FILL_AREA_STYLE ('',( #244 ) ) ;
#153 = EDGE_CURVE ( 'NONE', #216, #130, #57, .T. ) ;
#154 = DIRECTION ( 'NONE',  ( 0.000000000000000000, 0.000000000000000000, -1.000000000000000000 ) ) ;
#155 = EDGE_LOOP ( 'NONE', ( #81, #370, #331, #165, #342 ) ) ;
#156 = LINE ( 'NONE', #128, #90 ) ;
#157 = PRESENTATION_LAYER_ASSIGNMENT (  '', '', ( #228 ) ) ;
#158 = ORIENTED_EDGE ( 'NONE', *, *, #271, .F. ) ;
#159 = LENGTH_MEASURE_WITH_UNIT ( LENGTH_MEASURE( 0.02539999999999999897 ), #51 );
#160 = EDGE_CURVE ( 'NONE', #130, #285, #193, .T. ) ;
#161 = DIRECTION ( 'NONE',  ( 1.000000000000000000, 0.000000000000000000, 0.000000000000000000 ) ) ;
#162 = PLANE ( 'NONE',  #107 ) ;
#163 = AXIS2_PLACEMENT_3D ( 'NONE', #371, #313, #366 ) ;
#164 = SURFACE_STYLE_USAGE ( .BOTH. , #97 ) ;
#165 = ORIENTED_EDGE ( 'NONE', *, *, #69, .F. ) ;
#166 = DIRECTION ( 'NONE',  ( 0.000000000000000000, 0.000000000000000000, -1.000000000000000000 ) ) ;
#167 = LENGTH_MEASURE_WITH_UNIT ( LENGTH_MEASURE( 0.02539999999999999897 ), #62 );
#168 = AXIS2_PLACEMENT_3D ( 'NONE', #290, #109, #225 ) ;
#169 = EDGE_LOOP ( 'NONE', ( #19, #56, #277, #254 ) ) ;
#170 = STYLED_ITEM ( 'NONE', ( #134 ), #365 ) ;
#171 = EDGE_CURVE ( 'NONE', #82, #340, #241, .T. ) ;
#172 = DIRECTION ( 'NONE',  ( -0.000000000000000000, -1.000000000000000000, -0.000000000000000000 ) ) ;
#173 = LENGTH_MEASURE_WITH_UNIT ( LENGTH_MEASURE( 0.02539999999999999897 ), #4 );
#174 = DIRECTION ( 'NONE',  ( 0.000000000000000000, 1.000000000000000000, 0.000000000000000000 ) ) ;
#175 = ORIENTED_EDGE ( 'NONE', *, *, #92, .F. ) ;
#176 =( CONVERSION_BASED_UNIT ( 'INCH', #58 ) LENGTH_UNIT ( ) NAMED_UNIT ( #146 ) );
#177 = ADVANCED_FACE ( 'NONE', ( #298 ), #214, .T. ) ;
#178 = DIRECTION ( 'NONE',  ( -0.000000000000000000, -1.000000000000000000, -0.000000000000000000 ) ) ;
#179 = CARTESIAN_POINT ( 'NONE',  ( 0.000000000000000000, 0.6250000000000000000, 0.000000000000000000 ) ) ;
#180 = DIRECTION ( 'NONE',  ( 1.000000000000000000, 0.000000000000000000, 0.000000000000000000 ) ) ;
#181 = AXIS2_PLACEMENT_3D ( 'NONE', #61, #115, #66 ) ;
#182 = CARTESIAN_POINT ( 'NONE',  ( 0.000000000000000000, 0.2500000000000000000, 0.000000000000000000 ) ) ;
#183 =( NAMED_UNIT ( * ) SI_UNIT ( $, .STERADIAN. ) SOLID_ANGLE_UNIT ( ) );
#184 = ORIENTED_EDGE ( 'NONE', *, *, #34, .F. ) ;
#185 = CARTESIAN_POINT ( 'NONE',  ( 3.459004944959186898E-16, 0.6250000000000000000, 0.000000000000000000 ) ) ;
#186 = COLOUR_RGB ( '',0.7921568627450980005, 0.8196078431372548767, 0.9333333333333333481 ) ;
#187 = PRESENTATION_LAYER_ASSIGNMENT (  '', '', ( #351 ) ) ;
#188 = DIRECTION ( 'NONE',  ( -1.191657677766311302E-16, 1.000000000000000000, 0.000000000000000000 ) ) ;
#189 = CARTESIAN_POINT ( 'NONE',  ( -0.2499999999999996669, 2.500000000000000000, 0.000000000000000000 ) ) ;
#190 = DIRECTION ( 'NONE',  ( 1.191657677766311302E-16, -1.000000000000000000, 0.000000000000000000 ) ) ;
#191 =( GEOMETRIC_REPRESENTATION_CONTEXT ( 3 ) GLOBAL_UNCERTAINTY_ASSIGNED_CONTEXT ( ( #264 ) ) GLOBAL_UNIT_ASSIGNED_CONTEXT ( ( #64, #141, #2 ) ) REPRESENTATION_CONTEXT ( 'NONE', 'WORKASPACE' ) );
#192 = PRODUCT_DEFINITION ( 'UNKNOWN', '', #65, #150 ) ;
#193 = CIRCLE ( 'NONE', #301, 0.2499999999999999722 ) ;
#194 = FACE_OUTER_BOUND ( 'NONE', #359, .T. ) ;
#195 = CARTESIAN_POINT ( 'NONE',  ( 0.2499999999999999167, 2.500000000000000000, 0.000000000000000000 ) ) ;
#196 = ORIENTED_EDGE ( 'NONE', *, *, #160, .F. ) ;
#197 = ORIENTED_EDGE ( 'NONE', *, *, #213, .F. ) ;
#198 =( NAMED_UNIT ( * ) SI_UNIT ( $, .STERADIAN. ) SOLID_ANGLE_UNIT ( ) );
#199 = AXIS2_PLACEMENT_3D ( 'NONE', #101, #202, #239 ) ;
#200 =( GEOMETRIC_REPRESENTATION_CONTEXT ( 3 ) GLOBAL_UNCERTAINTY_ASSIGNED_CONTEXT ( ( #59 ) ) GLOBAL_UNIT_ASSIGNED_CONTEXT ( ( #281, #336, #80 ) ) REPRESENTATION_CONTEXT ( 'NONE', 'WORKASPACE' ) );
#201 =( LENGTH_UNIT ( ) NAMED_UNIT ( * ) SI_UNIT ( $, .METRE. ) );
#202 = DIRECTION ( 'NONE',  ( -0.000000000000000000, -1.000000000000000000, -0.000000000000000000 ) ) ;
#203 = UNCERTAINTY_MEASURE_WITH_UNIT (LENGTH_MEASURE( 1.000000000000000082E-05 ), #91, 'distance_accuracy_value', 'NONE');
#204 = DIMENSIONAL_EXPONENTS ( 1.000000000000000000, 0.000000000000000000, 0.000000000000000000, 0.000000000000000000, 0.000000000000000000, 0.000000000000000000, 0.000000000000000000 ) ;
#205 = EDGE_CURVE ( 'NONE', #315, #286, #253, .T. ) ;
#206 = AXIS2_PLACEMENT_3D ( 'NONE', #261, #172, #320 ) ;
#207 = AXIS2_PLACEMENT_3D ( 'NONE', #182, #349, #356 ) ;
#208 = LINE ( 'NONE', #67, #309 ) ;
#209 = CYLINDRICAL_SURFACE ( 'NONE', #206, 0.2499999999999999167 ) ;
#210 = PRODUCT ( '59446', '59446', '', ( #14 ) ) ;
#211 = CARTESIAN_POINT ( 'NONE',  ( -1.530808498934191509E-17, 0.000000000000000000, 0.000000000000000000 ) ) ;
#212 = LENGTH_MEASURE_WITH_UNIT ( LENGTH_MEASURE( 0.02539999999999999897 ), #299 );
#213 = EDGE_CURVE ( 'NONE', #315, #130, #327, .T. ) ;
#214 = CYLINDRICAL_SURFACE ( 'NONE', #77, 0.2499999999999996947 ) ;
#215 = APPLICATION_PROTOCOL_DEFINITION ( 'draft international standard', 'automotive_design', 1998, #52 ) ;
#216 = VERTEX_POINT ( 'NONE', #124 ) ;
#217 = FACE_OUTER_BOUND ( 'NONE', #25, .T. ) ;
#218 = ORIENTED_EDGE ( 'NONE', *, *, #271, .T. ) ;
#219 = FACE_OUTER_BOUND ( 'NONE', #138, .T. ) ;
#220 = CARTESIAN_POINT ( 'NONE',  ( 0.000000000000000000, 0.6250000000000000000, -0.2499999999999999167 ) ) ;
#221 =( NAMED_UNIT ( * ) PLANE_ANGLE_UNIT ( ) SI_UNIT ( $, .RADIAN. ) );
#222 = PRESENTATION_LAYER_ASSIGNMENT (  '', '', ( #9 ) ) ;
#223 = DIRECTION ( 'NONE',  ( -1.000000000000000000, -1.191657677766311302E-16, 0.000000000000000000 ) ) ;
#224 = EDGE_CURVE ( 'NONE', #285, #103, #335, .T. ) ;
#225 = DIRECTION ( 'NONE',  ( -1.000000000000000000, 0.000000000000000000, 0.000000000000000000 ) ) ;
#226 = FILL_AREA_STYLE_COLOUR ( '', #139 ) ;
#227 = CIRCLE ( 'NONE', #199, 0.2499999999999999722 ) ;
#228 = STYLED_ITEM ( 'NONE', ( #104 ), #319 ) ;
#229 = VERTEX_POINT ( 'NONE', #151 ) ;
#230 = EDGE_CURVE ( 'NONE', #286, #315, #133, .T. ) ;
#231 = ORIENTED_EDGE ( 'NONE', *, *, #54, .T. ) ;
#232 = PRESENTATION_STYLE_ASSIGNMENT (( #373 ) ) ;
#233 = DIRECTION ( 'NONE',  ( 0.000000000000000000, -0.000000000000000000, 1.000000000000000000 ) ) ;
#234 = AXIS2_PLACEMENT_3D ( 'NONE', #305, #131, #251 ) ;
#235 =( NAMED_UNIT ( * ) SI_UNIT ( $, .STERADIAN. ) SOLID_ANGLE_UNIT ( ) );
#236 =( NAMED_UNIT ( * ) PLANE_ANGLE_UNIT ( ) SI_UNIT ( $, .RADIAN. ) );
#237 = PRESENTATION_STYLE_ASSIGNMENT (( #343 ) ) ;
#238 = DIMENSIONAL_EXPONENTS ( 1.000000000000000000, 0.000000000000000000, 0.000000000000000000, 0.000000000000000000, 0.000000000000000000, 0.000000000000000000, 0.000000000000000000 ) ;
#239 = DIRECTION ( 'NONE',  ( 0.000000000000000000, 0.000000000000000000, -1.000000000000000000 ) ) ;
#240 = DIMENSIONAL_EXPONENTS ( 1.000000000000000000, 0.000000000000000000, 0.000000000000000000, 0.000000000000000000, 0.000000000000000000, 0.000000000000000000, 0.000000000000000000 ) ;
#241 = LINE ( 'NONE', #11, #99 ) ;
#242 = SURFACE_SIDE_STYLE ('',( #7 ) ) ;
#243 = DIRECTION ( 'NONE',  ( 1.000000000000000000, 0.000000000000000000, 0.000000000000000000 ) ) ;
#244 = FILL_AREA_STYLE_COLOUR ( '', #278 ) ;
#245 = EDGE_CURVE ( 'NONE', #286, #103, #208, .T. ) ;
#246 = DIRECTION ( 'NONE',  ( -1.191657677766311302E-16, 1.000000000000000000, -0.000000000000000000 ) ) ;
#247 =( NAMED_UNIT ( * ) PLANE_ANGLE_UNIT ( ) SI_UNIT ( $, .RADIAN. ) );
#248 = AXIS2_PLACEMENT_3D ( 'NONE', #341, #258, #243 ) ;
#249 = EDGE_LOOP ( 'NONE', ( #257, #50 ) ) ;
#250 = SURFACE_STYLE_FILL_AREA ( #18 ) ;
#251 = DIRECTION ( 'NONE',  ( -1.000000000000000000, 0.000000000000000000, 0.000000000000000000 ) ) ;
#252 = FACE_OUTER_BOUND ( 'NONE', #249, .T. ) ;
#253 = CIRCLE ( 'NONE', #83, 0.2499999999999999167 ) ;
#254 = ORIENTED_EDGE ( 'NONE', *, *, #153, .T. ) ;
#255 = CLOSED_SHELL ( 'NONE', ( #126, #265, #365, #84, #319 ) ) ;
#256 = AXIS2_PLACEMENT_3D ( 'NONE', #78, #284, #161 ) ;
#257 = ORIENTED_EDGE ( 'NONE', *, *, #6, .T. ) ;
#258 = DIRECTION ( 'NONE',  ( 0.000000000000000000, 0.000000000000000000, 1.000000000000000000 ) ) ;
#259 = DIRECTION ( 'NONE',  ( -1.000000000000000000, 0.000000000000000000, 0.000000000000000000 ) ) ;
#260 = LENGTH_MEASURE_WITH_UNIT ( LENGTH_MEASURE( 0.02539999999999999897 ), #114 );
#261 = CARTESIAN_POINT ( 'NONE',  ( 0.000000000000000000, 0.000000000000000000, 0.000000000000000000 ) ) ;
#262 = COLOUR_RGB ( '',1.000000000000000000, 0.000000000000000000, 0.000000000000000000 ) ;
#263 = SURFACE_STYLE_USAGE ( .BOTH. , #242 ) ;
#264 = UNCERTAINTY_MEASURE_WITH_UNIT (LENGTH_MEASURE( 1.000000000000000082E-05 ), #64, 'distance_accuracy_value', 'NONE');
#265 = ADVANCED_FACE ( 'NONE', ( #297 ), #357, .T. ) ;
#266 = LENGTH_MEASURE_WITH_UNIT ( LENGTH_MEASURE( 0.02539999999999999897 ), #201 );
#267 = SURFACE_SIDE_STYLE ('',( #120 ) ) ;
#268 = DIMENSIONAL_EXPONENTS ( 1.000000000000000000, 0.000000000000000000, 0.000000000000000000, 0.000000000000000000, 0.000000000000000000, 0.000000000000000000, 0.000000000000000000 ) ;
#269 = FILL_AREA_STYLE ('',( #326 ) ) ;
#270 = CARTESIAN_POINT ( 'NONE',  ( 0.000000000000000000, 0.2500000000000000000, 0.000000000000000000 ) ) ;
#271 = EDGE_CURVE ( 'NONE', #82, #41, #123, .T. ) ;
#272 = PRESENTATION_LAYER_ASSIGNMENT (  '', '', ( #32 ) ) ;
#273 = AXIS2_PLACEMENT_3D ( 'NONE', #44, #94, #180 ) ;
#274 = DIRECTION ( 'NONE',  ( -0.000000000000000000, -1.000000000000000000, -0.000000000000000000 ) ) ;
#275 = DIRECTION ( 'NONE',  ( -0.000000000000000000, -1.000000000000000000, -0.000000000000000000 ) ) ;
#276 = CIRCLE ( 'NONE', #181, 0.2499999999999995559 ) ;
#277 = ORIENTED_EDGE ( 'NONE', *, *, #54, .F. ) ;
#278 = COLOUR_RGB ( '',1.000000000000000000, 0.000000000000000000, 0.000000000000000000 ) ;
#279 = ORIENTED_EDGE ( 'NONE', *, *, #224, .T. ) ;
#280 = SPHERICAL_SURFACE ( 'NONE', #256, 0.2500000000000000000 ) ;
#281 =( CONVERSION_BASED_UNIT ( 'INCH', #159 ) LENGTH_UNIT ( ) NAMED_UNIT ( #1 ) );
#282 = MECHANICAL_DESIGN_GEOMETRIC_PRESENTATION_REPRESENTATION (  '', ( #63 ), #40 ) ;
#283 = AXIS2_PLACEMENT_3D ( 'NONE', #360, #332, #362 ) ;
#284 = DIRECTION ( 'NONE',  ( 0.000000000000000000, 0.000000000000000000, 1.000000000000000000 ) ) ;
#285 = VERTEX_POINT ( 'NONE', #42 ) ;
#286 = VERTEX_POINT ( 'NONE', #220 ) ;
#287 = DIMENSIONAL_EXPONENTS ( 1.000000000000000000, 0.000000000000000000, 0.000000000000000000, 0.000000000000000000, 0.000000000000000000, 0.000000000000000000, 0.000000000000000000 ) ;
#288 = COLOUR_RGB ( '',0.7921568627450980005, 0.8196078431372548767, 0.9333333333333333481 ) ;
#289 = AXIS2_PLACEMENT_3D ( 'NONE', #113, #174, #233 ) ;
#290 = CARTESIAN_POINT ( 'NONE',  ( 1.224646799147353207E-16, 2.500000000000000000, 0.000000000000000000 ) ) ;
#291 = SURFACE_SIDE_STYLE ('',( #149 ) ) ;
#292 = UNCERTAINTY_MEASURE_WITH_UNIT (LENGTH_MEASURE( 1.000000000000000082E-05 ), #140, 'distance_accuracy_value', 'NONE');
#293 = EDGE_CURVE ( 'NONE', #41, #229, #156, .T. ) ;
#294 = CIRCLE ( 'NONE', #283, 0.2500000000000000000 ) ;
#295 =( NAMED_UNIT ( * ) PLANE_ANGLE_UNIT ( ) SI_UNIT ( $, .RADIAN. ) );
#296 = SURFACE_STYLE_USAGE ( .BOTH. , #267 ) ;
#297 = FACE_OUTER_BOUND ( 'NONE', #155, .T. ) ;
#298 = FACE_OUTER_BOUND ( 'NONE', #79, .T. ) ;
#299 =( LENGTH_UNIT ( ) NAMED_UNIT ( * ) SI_UNIT ( $, .METRE. ) );
#300 = STYLED_ITEM ( 'NONE', ( #237 ), #126 ) ;
#301 = AXIS2_PLACEMENT_3D ( 'NONE', #270, #93, #95 ) ;
#302 = CARTESIAN_POINT ( 'NONE',  ( 0.000000000000000000, 0.6250000000000000000, 0.000000000000000000 ) ) ;
#303 = SURFACE_SIDE_STYLE ('',( #355 ) ) ;
#304 = EDGE_LOOP ( 'NONE', ( #361, #35 ) ) ;
#305 = CARTESIAN_POINT ( 'NONE',  ( 1.224646799147353207E-16, 2.500000000000000000, 0.000000000000000000 ) ) ;
#306 = AXIS2_PLACEMENT_3D ( 'NONE', #185, #188, #223 ) ;
#307 = PLANE ( 'NONE',  #289 ) ;
#308 = FACE_OUTER_BOUND ( 'NONE', #304, .T. ) ;
#309 = VECTOR ( 'NONE', #178, 39.37007874015748143 ) ;
#310 = MECHANICAL_DESIGN_GEOMETRIC_PRESENTATION_REPRESENTATION (  '', ( #228 ), #200 ) ;
#311 = CARTESIAN_POINT ( 'NONE',  ( 0.2499999999999999167, 0.6250000000000000000, 3.061616997868379936E-17 ) ) ;
#312 = LENGTH_MEASURE_WITH_UNIT ( LENGTH_MEASURE( 0.02539999999999999897 ), #369 );
#313 = DIRECTION ( 'NONE',  ( -1.191657677766311302E-16, 1.000000000000000000, -0.000000000000000000 ) ) ;
#314 = EDGE_CURVE ( 'NONE', #285, #147, #294, .T. ) ;
#315 = VERTEX_POINT ( 'NONE', #102 ) ;
#316 = MECHANICAL_DESIGN_GEOMETRIC_PRESENTATION_REPRESENTATION (  '', ( #170 ), #129 ) ;
#317 = CARTESIAN_POINT ( 'NONE',  ( -0.2499999999999992228, 0.6250000000000000000, 0.000000000000000000 ) ) ;
#318 =( NAMED_UNIT ( * ) SI_UNIT ( $, .STERADIAN. ) SOLID_ANGLE_UNIT ( ) );
#319 = ADVANCED_FACE ( 'NONE', ( #217 ), #280, .T. ) ;
#320 = DIRECTION ( 'NONE',  ( 0.000000000000000000, 0.000000000000000000, -1.000000000000000000 ) ) ;
#321 = UNCERTAINTY_MEASURE_WITH_UNIT (LENGTH_MEASURE( 1.000000000000000082E-05 ), #176, 'distance_accuracy_value', 'NONE');
#322 = DIMENSIONAL_EXPONENTS ( 1.000000000000000000, 0.000000000000000000, 0.000000000000000000, 0.000000000000000000, 0.000000000000000000, 0.000000000000000000, 0.000000000000000000 ) ;
#323 = FILL_AREA_STYLE_COLOUR ( '', #262 ) ;
#324 = MECHANICAL_DESIGN_GEOMETRIC_PRESENTATION_REPRESENTATION (  '', ( #351 ), #33 ) ;
#325 = DIRECTION ( 'NONE',  ( -1.000000000000000000, 0.000000000000000000, 0.000000000000000000 ) ) ;
#326 = FILL_AREA_STYLE_COLOUR ( '', #288 ) ;
#327 = LINE ( 'NONE', #70, #45 ) ;
#328 = CARTESIAN_POINT ( 'NONE',  ( 1.224646799147353207E-16, 2.500000000000000000, 0.000000000000000000 ) ) ;
#329 = CARTESIAN_POINT ( 'NONE',  ( 3.459004944959186898E-16, 0.6250000000000000000, 0.000000000000000000 ) ) ;
#330 = APPLICATION_PROTOCOL_DEFINITION ( 'draft international standard', 'automotive_design', 1998, #16 ) ;
#331 = ORIENTED_EDGE ( 'NONE', *, *, #153, .F. ) ;
#332 = DIRECTION ( 'NONE',  ( 1.224646799147353207E-16, -0.000000000000000000, 1.000000000000000000 ) ) ;
#333 = ORIENTED_EDGE ( 'NONE', *, *, #69, .T. ) ;
#334 = DIRECTION ( 'NONE',  ( -1.191657677766311302E-16, 1.000000000000000000, -0.000000000000000000 ) ) ;
#335 = CIRCLE ( 'NONE', #207, 0.2499999999999999722 ) ;
#336 =( NAMED_UNIT ( * ) PLANE_ANGLE_UNIT ( ) SI_UNIT ( $, .RADIAN. ) );
#337 = ORIENTED_EDGE ( 'NONE', *, *, #293, .F. ) ;
#338 =( GEOMETRIC_REPRESENTATION_CONTEXT ( 3 ) GLOBAL_UNCERTAINTY_ASSIGNED_CONTEXT ( ( #292 ) ) GLOBAL_UNIT_ASSIGNED_CONTEXT ( ( #140, #236, #198 ) ) REPRESENTATION_CONTEXT ( 'NONE', 'WORKASPACE' ) );
#339 = ADVANCED_FACE ( 'NONE', ( #219 ), #367, .F. ) ;
#340 = VERTEX_POINT ( 'NONE', #189 ) ;
#341 = CARTESIAN_POINT ( 'NONE',  ( -3.061616997868383018E-17, 0.2500000000000000000, 0.000000000000000000 ) ) ;
#342 = ORIENTED_EDGE ( 'NONE', *, *, #245, .F. ) ;
#343 = SURFACE_STYLE_USAGE ( .BOTH. , #143 ) ;
#344 = AXIS2_PLACEMENT_3D ( 'NONE', #302, #274, #89 ) ;
#345 = PRESENTATION_STYLE_ASSIGNMENT (( #296 ) ) ;
#346 = FILL_AREA_STYLE ('',( #60 ) ) ;
#347 = ADVANCED_BREP_SHAPE_REPRESENTATION ( '59446', ( #100, #96, #273 ), #338 ) ;
#348 =( NAMED_UNIT ( * ) PLANE_ANGLE_UNIT ( ) SI_UNIT ( $, .RADIAN. ) );
#349 = DIRECTION ( 'NONE',  ( -0.000000000000000000, -1.000000000000000000, -0.000000000000000000 ) ) ;
#350 = COLOUR_RGB ( '',1.000000000000000000, 0.000000000000000000, 0.000000000000000000 ) ;
#351 = STYLED_ITEM ( 'NONE', ( #105 ), #265 ) ;
#352 = PRESENTATION_STYLE_ASSIGNMENT (( #263 ) ) ;
#353 = UNCERTAINTY_MEASURE_WITH_UNIT (LENGTH_MEASURE( 1.000000000000000082E-05 ), #20, 'distance_accuracy_value', 'NONE');
#354 = DIRECTION ( 'NONE',  ( -0.000000000000000000, -1.000000000000000000, -0.000000000000000000 ) ) ;
#355 = SURFACE_STYLE_FILL_AREA ( #152 ) ;
#356 = DIRECTION ( 'NONE',  ( 0.000000000000000000, 0.000000000000000000, -1.000000000000000000 ) ) ;
#357 = CYLINDRICAL_SURFACE ( 'NONE', #27, 0.2499999999999999167 ) ;
#358 = ADVANCED_FACE ( 'NONE', ( #252 ), #162, .F. ) ;
#359 = EDGE_LOOP ( 'NONE', ( #218, #142, #127, #17 ) ) ;
#360 = CARTESIAN_POINT ( 'NONE',  ( -3.061616997868383018E-17, 0.2500000000000000000, 0.000000000000000000 ) ) ;
#361 = ORIENTED_EDGE ( 'NONE', *, *, #230, .F. ) ;
#362 = DIRECTION ( 'NONE',  ( 1.000000000000000000, 0.000000000000000000, -1.224646799147353207E-16 ) ) ;
#363 = ORIENTED_EDGE ( 'NONE', *, *, #205, .T. ) ;
#364 = SURFACE_STYLE_USAGE ( .BOTH. , #303 ) ;
#365 = ADVANCED_FACE ( 'NONE', ( #308 ), #307, .T. ) ;
#366 = DIRECTION ( 'NONE',  ( -1.000000000000000000, 0.000000000000000000, 0.000000000000000000 ) ) ;
#367 = PLANE ( 'NONE',  #306 ) ;
#368 = SURFACE_STYLE_FILL_AREA ( #22 ) ;
#369 =( LENGTH_UNIT ( ) NAMED_UNIT ( * ) SI_UNIT ( $, .METRE. ) );
#370 = ORIENTED_EDGE ( 'NONE', *, *, #213, .T. ) ;
#371 = CARTESIAN_POINT ( 'NONE',  ( 1.224646799147353207E-16, 2.500000000000000000, 0.000000000000000000 ) ) ;
#372 = PRODUCT_RELATED_PRODUCT_CATEGORY ( 'part', '', ( #210 ) ) ;
#373 = SURFACE_STYLE_USAGE ( .BOTH. , #291 ) ;
ENDSEC;
END-ISO-10303-21;
