ISO-10303-21;
HEADER;
FILE_DESCRIPTION (( 'STEP AP214' ),
    '1' );
FILE_NAME ('03122.STEP',
    '2023-06-22T14:57:11',
    ( '' ),
    ( '' ),
    'SwSTEP 2.0',
    'SolidWorks 2023',
    '' );
FILE_SCHEMA (( 'AUTOMOTIVE_DESIGN' ));
ENDSEC;

DATA;
#1 = FILL_AREA_STYLE ('',( #213 ) ) ;
#2 = CARTESIAN_POINT ( 'NONE',  ( 0.09374999999999998612, 2.500000000000000000, 1.148106374200644171E-17 ) ) ;
#3 = VECTOR ( 'NONE', #15, 39.37007874015748143 ) ;
#4 = AXIS2_PLACEMENT_3D ( 'NONE', #65, #146, #233 ) ;
#5 = DIRECTION ( 'NONE',  ( -1.000000000000000000, 0.000000000000000000, 0.000000000000000000 ) ) ;
#6 = DIRECTION ( 'NONE',  ( -3.498990854706722745E-17, 1.000000000000000000, -0.000000000000000000 ) ) ;
#7 = PLANE ( 'NONE',  #192 ) ;
#8 = FILL_AREA_STYLE ('',( #221 ) ) ;
#9 = DIRECTION ( 'NONE',  ( 1.000000000000000000, 0.000000000000000000, 0.000000000000000000 ) ) ;
#10 =( NAMED_UNIT ( * ) SI_UNIT ( $, .STERADIAN. ) SOLID_ANGLE_UNIT ( ) );
#11 = ADVANCED_FACE ( 'NONE', ( #14 ), #38, .F. ) ;
#12 =( LENGTH_UNIT ( ) NAMED_UNIT ( * ) SI_UNIT ( $, .METRE. ) );
#13 = MECHANICAL_DESIGN_GEOMETRIC_PRESENTATION_REPRESENTATION (  '', ( #203 ), #34 ) ;
#14 = FACE_OUTER_BOUND ( 'NONE', #98, .T. ) ;
#15 = DIRECTION ( 'NONE',  ( -3.498990854706722745E-17, 1.000000000000000000, -0.000000000000000000 ) ) ;
#16 = VERTEX_POINT ( 'NONE', #164 ) ;
#17 = DIRECTION ( 'NONE',  ( 0.000000000000000000, 0.000000000000000000, -1.000000000000000000 ) ) ;
#18 = DIRECTION ( 'NONE',  ( -0.000000000000000000, -1.000000000000000000, -0.000000000000000000 ) ) ;
#19 = STYLED_ITEM ( 'NONE', ( #268 ), #41 ) ;
#20 = ORIENTED_EDGE ( 'NONE', *, *, #246, .F. ) ;
#21 = DIRECTION ( 'NONE',  ( 0.000000000000000000, 0.000000000000000000, -1.000000000000000000 ) ) ;
#22 =( CONVERSION_BASED_UNIT ( 'INCH', #228 ) LENGTH_UNIT ( ) NAMED_UNIT ( #90 ) );
#23 = PRESENTATION_STYLE_ASSIGNMENT (( #187 ) ) ;
#24 = LENGTH_MEASURE_WITH_UNIT ( LENGTH_MEASURE( 0.02539999999999999897 ), #79 );
#25 = PRESENTATION_STYLE_ASSIGNMENT (( #242 ) ) ;
#26 = DIRECTION ( 'NONE',  ( -1.000000000000000000, 0.000000000000000000, 0.000000000000000000 ) ) ;
#27 =( NAMED_UNIT ( * ) SI_UNIT ( $, .STERADIAN. ) SOLID_ANGLE_UNIT ( ) );
#28 = LENGTH_MEASURE_WITH_UNIT ( LENGTH_MEASURE( 0.02539999999999999897 ), #47 );
#29 = ORIENTED_EDGE ( 'NONE', *, *, #86, .F. ) ;
#30 = EDGE_CURVE ( 'NONE', #255, #126, #122, .T. ) ;
#31 = AXIS2_PLACEMENT_3D ( 'NONE', #43, #306, #234 ) ;
#32 = CARTESIAN_POINT ( 'NONE',  ( 0.09374999999999995837, 2.500000000000000000, 1.148106374200644017E-17 ) ) ;
#33 = ORIENTED_EDGE ( 'NONE', *, *, #140, .F. ) ;
#34 =( GEOMETRIC_REPRESENTATION_CONTEXT ( 3 ) GLOBAL_UNCERTAINTY_ASSIGNED_CONTEXT ( ( #273 ) ) GLOBAL_UNIT_ASSIGNED_CONTEXT ( ( #71, #152, #89 ) ) REPRESENTATION_CONTEXT ( 'NONE', 'WORKASPACE' ) );
#35 = CIRCLE ( 'NONE', #227, 0.09374999999999998612 ) ;
#36 = ORIENTED_EDGE ( 'NONE', *, *, #301, .F. ) ;
#37 = SURFACE_SIDE_STYLE ('',( #66 ) ) ;
#38 = PLANE ( 'NONE',  #243 ) ;
#39 = DIRECTION ( 'NONE',  ( 0.000000000000000000, 0.000000000000000000, -1.000000000000000000 ) ) ;
#40 = CARTESIAN_POINT ( 'NONE',  ( 1.148106374200643401E-17, 0.000000000000000000, 0.09374999999999998612 ) ) ;
#41 = ADVANCED_FACE ( 'NONE', ( #121 ), #216, .T. ) ;
#42 = ORIENTED_EDGE ( 'NONE', *, *, #143, .F. ) ;
#43 = CARTESIAN_POINT ( 'NONE',  ( 0.000000000000000000, 0.7500000000000001110, 0.000000000000000000 ) ) ;
#44 = VECTOR ( 'NONE', #127, 39.37007874015748143 ) ;
#45 = MECHANICAL_DESIGN_GEOMETRIC_PRESENTATION_REPRESENTATION (  '', ( #295 ), #178 ) ;
#46 = ORIENTED_EDGE ( 'NONE', *, *, #177, .F. ) ;
#47 =( LENGTH_UNIT ( ) NAMED_UNIT ( * ) SI_UNIT ( $, .METRE. ) );
#48 = PRODUCT_RELATED_PRODUCT_CATEGORY ( 'part', '', ( #241 ) ) ;
#49 = FILL_AREA_STYLE ('',( #214 ) ) ;
#50 = PRESENTATION_STYLE_ASSIGNMENT (( #282 ) ) ;
#51 = PRODUCT_CONTEXT ( 'NONE', #244, 'mechanical' ) ;
#52 = DIRECTION ( 'NONE',  ( 1.000000000000000000, 3.498990854706722745E-17, 0.000000000000000000 ) ) ;
#53 = AXIS2_PLACEMENT_3D ( 'NONE', #266, #18, #240 ) ;
#54 = PRODUCT_DEFINITION_FORMATION_WITH_SPECIFIED_SOURCE ( 'ANY', '', #241, .NOT_KNOWN. ) ;
#55 = DIRECTION ( 'NONE',  ( -1.000000000000000000, 0.000000000000000000, 0.000000000000000000 ) ) ;
#56 = PRESENTATION_LAYER_ASSIGNMENT (  '', '', ( #123 ) ) ;
#57 = DIMENSIONAL_EXPONENTS ( 1.000000000000000000, 0.000000000000000000, 0.000000000000000000, 0.000000000000000000, 0.000000000000000000, 0.000000000000000000, 0.000000000000000000 ) ;
#58 = MANIFOLD_SOLID_BREP ( 'Revolve - Cutting Edge', #202 ) ;
#59 =( GEOMETRIC_REPRESENTATION_CONTEXT ( 3 ) GLOBAL_UNCERTAINTY_ASSIGNED_CONTEXT ( ( #249 ) ) GLOBAL_UNIT_ASSIGNED_CONTEXT ( ( #134, #62, #163 ) ) REPRESENTATION_CONTEXT ( 'NONE', 'WORKASPACE' ) );
#60 = AXIS2_PLACEMENT_3D ( 'NONE', #215, #108, #194 ) ;
#61 = FACE_OUTER_BOUND ( 'NONE', #100, .T. ) ;
#62 =( NAMED_UNIT ( * ) PLANE_ANGLE_UNIT ( ) SI_UNIT ( $, .RADIAN. ) );
#63 = LINE ( 'NONE', #32, #250 ) ;
#64 = VERTEX_POINT ( 'NONE', #151 ) ;
#65 = CARTESIAN_POINT ( 'NONE',  ( 0.000000000000000000, 0.000000000000000000, 0.000000000000000000 ) ) ;
#66 = SURFACE_STYLE_FILL_AREA ( #1 ) ;
#67 = PRESENTATION_LAYER_ASSIGNMENT (  '', '', ( #170 ) ) ;
#68 = SURFACE_SIDE_STYLE ('',( #278 ) ) ;
#69 = ADVANCED_FACE ( 'NONE', ( #239 ), #81, .T. ) ;
#70 = FILL_AREA_STYLE ('',( #95 ) ) ;
#71 =( CONVERSION_BASED_UNIT ( 'INCH', #280 ) LENGTH_UNIT ( ) NAMED_UNIT ( #252 ) );
#72 = ORIENTED_EDGE ( 'NONE', *, *, #177, .T. ) ;
#73 = DIRECTION ( 'NONE',  ( -3.498990854706722745E-17, 1.000000000000000000, -0.000000000000000000 ) ) ;
#74 = LINE ( 'NONE', #149, #114 ) ;
#75 = PRESENTATION_LAYER_ASSIGNMENT (  '', '', ( #19 ) ) ;
#76 = PRESENTATION_STYLE_ASSIGNMENT (( #144 ) ) ;
#77 = DIRECTION ( 'NONE',  ( -3.498990854706722745E-17, 1.000000000000000000, -0.000000000000000000 ) ) ;
#78 = ADVANCED_BREP_SHAPE_REPRESENTATION ( '03122', ( #58, #173, #83 ), #136 ) ;
#79 =( LENGTH_UNIT ( ) NAMED_UNIT ( * ) SI_UNIT ( $, .METRE. ) );
#80 =( CONVERSION_BASED_UNIT ( 'INCH', #291 ) LENGTH_UNIT ( ) NAMED_UNIT ( #276 ) );
#81 = PLANE ( 'NONE',  #31 ) ;
#82 = STYLED_ITEM ( 'NONE', ( #76 ), #69 ) ;
#83 = AXIS2_PLACEMENT_3D ( 'NONE', #85, #293, #9 ) ;
#84 = EDGE_LOOP ( 'NONE', ( #235, #253 ) ) ;
#85 = CARTESIAN_POINT ( 'NONE',  ( 0.000000000000000000, 0.000000000000000000, 0.000000000000000000 ) ) ;
#86 = EDGE_CURVE ( 'NONE', #64, #137, #74, .T. ) ;
#87 = AXIS2_PLACEMENT_3D ( 'NONE', #125, #292, #17 ) ;
#88 = AXIS2_PLACEMENT_3D ( 'NONE', #270, #73, #5 ) ;
#89 =( NAMED_UNIT ( * ) SI_UNIT ( $, .STERADIAN. ) SOLID_ANGLE_UNIT ( ) );
#90 = DIMENSIONAL_EXPONENTS ( 1.000000000000000000, 0.000000000000000000, 0.000000000000000000, 0.000000000000000000, 0.000000000000000000, 0.000000000000000000, 0.000000000000000000 ) ;
#91 = PRODUCT_DEFINITION_CONTEXT ( 'detailed design', #112, 'design' ) ;
#92 = ORIENTED_EDGE ( 'NONE', *, *, #246, .T. ) ;
#93 = CARTESIAN_POINT ( 'NONE',  ( -0.09374999999999998612, 0.7499999999999998890, 0.000000000000000000 ) ) ;
#94 = CARTESIAN_POINT ( 'NONE',  ( -0.09375000000000009714, 2.500000000000000000, 0.000000000000000000 ) ) ;
#95 = FILL_AREA_STYLE_COLOUR ( '', #167 ) ;
#96 = CARTESIAN_POINT ( 'NONE',  ( 0.000000000000000000, 0.000000000000000000, 0.000000000000000000 ) ) ;
#97 = MECHANICAL_DESIGN_GEOMETRIC_PRESENTATION_REPRESENTATION (  '', ( #123 ), #59 ) ;
#98 = EDGE_LOOP ( 'NONE', ( #20, #33 ) ) ;
#99 = SURFACE_SIDE_STYLE ('',( #209 ) ) ;
#100 = EDGE_LOOP ( 'NONE', ( #238, #302, #161, #36 ) ) ;
#101 =( CONVERSION_BASED_UNIT ( 'INCH', #24 ) LENGTH_UNIT ( ) NAMED_UNIT ( #204 ) );
#102 = APPLICATION_PROTOCOL_DEFINITION ( 'draft international standard', 'automotive_design', 1998, #112 ) ;
#103 = DIRECTION ( 'NONE',  ( -0.000000000000000000, -1.000000000000000000, -0.000000000000000000 ) ) ;
#104 = SURFACE_STYLE_FILL_AREA ( #8 ) ;
#105 =( NAMED_UNIT ( * ) PLANE_ANGLE_UNIT ( ) SI_UNIT ( $, .RADIAN. ) );
#106 =( NAMED_UNIT ( * ) SI_UNIT ( $, .STERADIAN. ) SOLID_ANGLE_UNIT ( ) );
#107 = AXIS2_PLACEMENT_3D ( 'NONE', #218, #223, #55 ) ;
#108 = DIRECTION ( 'NONE',  ( 0.000000000000000000, -1.000000000000000000, -0.000000000000000000 ) ) ;
#109 = DIRECTION ( 'NONE',  ( -0.000000000000000000, -1.000000000000000000, -0.000000000000000000 ) ) ;
#110 =( NAMED_UNIT ( * ) SI_UNIT ( $, .STERADIAN. ) SOLID_ANGLE_UNIT ( ) );
#111 =( NAMED_UNIT ( * ) PLANE_ANGLE_UNIT ( ) SI_UNIT ( $, .RADIAN. ) );
#112 = APPLICATION_CONTEXT ( 'automotive_design' ) ;
#113 = CYLINDRICAL_SURFACE ( 'NONE', #107, 0.09375000000000002776 ) ;
#114 = VECTOR ( 'NONE', #103, 39.37007874015748143 ) ;
#115 = PRODUCT_DEFINITION_SHAPE ( 'NONE', 'NONE',  #251 ) ;
#116 =( GEOMETRIC_REPRESENTATION_CONTEXT ( 3 ) GLOBAL_UNCERTAINTY_ASSIGNED_CONTEXT ( ( #201 ) ) GLOBAL_UNIT_ASSIGNED_CONTEXT ( ( #101, #130, #27 ) ) REPRESENTATION_CONTEXT ( 'NONE', 'WORKASPACE' ) );
#117 = DIRECTION ( 'NONE',  ( -3.498990854706722745E-17, 1.000000000000000000, -0.000000000000000000 ) ) ;
#118 = EDGE_LOOP ( 'NONE', ( #72, #230, #142, #29 ) ) ;
#119 = DIRECTION ( 'NONE',  ( -3.498990854706722745E-17, 1.000000000000000000, 0.000000000000000000 ) ) ;
#120 = EDGE_CURVE ( 'NONE', #137, #188, #148, .T. ) ;
#121 = FACE_OUTER_BOUND ( 'NONE', #279, .T. ) ;
#122 = LINE ( 'NONE', #94, #3 ) ;
#123 = STYLED_ITEM ( 'NONE', ( #50 ), #58 ) ;
#124 =( LENGTH_UNIT ( ) NAMED_UNIT ( * ) SI_UNIT ( $, .METRE. ) );
#125 = CARTESIAN_POINT ( 'NONE',  ( 0.000000000000000000, 0.7500000000000001110, 0.000000000000000000 ) ) ;
#126 = VERTEX_POINT ( 'NONE', #288 ) ;
#127 = DIRECTION ( 'NONE',  ( -0.000000000000000000, -1.000000000000000000, -0.000000000000000000 ) ) ;
#128 = DIRECTION ( 'NONE',  ( 0.000000000000000000, 0.000000000000000000, -1.000000000000000000 ) ) ;
#129 = DIRECTION ( 'NONE',  ( -1.000000000000000000, 0.000000000000000000, 0.000000000000000000 ) ) ;
#130 =( NAMED_UNIT ( * ) PLANE_ANGLE_UNIT ( ) SI_UNIT ( $, .RADIAN. ) );
#131 = CIRCLE ( 'NONE', #156, 0.09375000000000005551 ) ;
#132 = EDGE_CURVE ( 'NONE', #184, #188, #175, .T. ) ;
#133 = CARTESIAN_POINT ( 'NONE',  ( 0.09374999999999998612, 2.500000000000000000, 0.000000000000000000 ) ) ;
#134 =( CONVERSION_BASED_UNIT ( 'INCH', #28 ) LENGTH_UNIT ( ) NAMED_UNIT ( #304 ) );
#135 = COLOUR_RGB ( '',1.000000000000000000, 0.000000000000000000, 0.000000000000000000 ) ;
#136 =( GEOMETRIC_REPRESENTATION_CONTEXT ( 3 ) GLOBAL_UNCERTAINTY_ASSIGNED_CONTEXT ( ( #162 ) ) GLOBAL_UNIT_ASSIGNED_CONTEXT ( ( #195, #285, #110 ) ) REPRESENTATION_CONTEXT ( 'NONE', 'WORKASPACE' ) );
#137 = VERTEX_POINT ( 'NONE', #196 ) ;
#138 = COLOUR_RGB ( '',1.000000000000000000, 0.000000000000000000, 0.000000000000000000 ) ;
#139 = UNCERTAINTY_MEASURE_WITH_UNIT (LENGTH_MEASURE( 1.000000000000000082E-05 ), #22, 'distance_accuracy_value', 'NONE');
#140 = EDGE_CURVE ( 'NONE', #16, #255, #229, .T. ) ;
#141 = PRESENTATION_STYLE_ASSIGNMENT (( #274 ) ) ;
#142 = ORIENTED_EDGE ( 'NONE', *, *, #120, .F. ) ;
#143 = EDGE_CURVE ( 'NONE', #126, #166, #131, .T. ) ;
#144 = SURFACE_STYLE_USAGE ( .BOTH. , #190 ) ;
#145 = CARTESIAN_POINT ( 'NONE',  ( 5.738876719369350386E-35, 0.7500000000000001110, 0.000000000000000000 ) ) ;
#146 = DIRECTION ( 'NONE',  ( -0.000000000000000000, -1.000000000000000000, -0.000000000000000000 ) ) ;
#147 = ORIENTED_EDGE ( 'NONE', *, *, #120, .T. ) ;
#148 = CIRCLE ( 'NONE', #182, 0.09375000000000001388 ) ;
#149 = CARTESIAN_POINT ( 'NONE',  ( 0.000000000000000000, 0.000000000000000000, -0.09374999999999998612 ) ) ;
#150 = EDGE_LOOP ( 'NONE', ( #46, #265 ) ) ;
#151 = CARTESIAN_POINT ( 'NONE',  ( 0.000000000000000000, 0.7500000000000001110, -0.09374999999999998612 ) ) ;
#152 =( NAMED_UNIT ( * ) PLANE_ANGLE_UNIT ( ) SI_UNIT ( $, .RADIAN. ) );
#153 = FILL_AREA_STYLE ('',( #245 ) ) ;
#154 = CYLINDRICAL_SURFACE ( 'NONE', #269, 0.09375000000000002776 ) ;
#155 = EDGE_CURVE ( 'NONE', #184, #64, #297, .T. ) ;
#156 = AXIS2_PLACEMENT_3D ( 'NONE', #193, #309, #172 ) ;
#157 = CIRCLE ( 'NONE', #4, 0.09375000000000001388 ) ;
#158 = MECHANICAL_DESIGN_GEOMETRIC_PRESENTATION_REPRESENTATION (  '', ( #170 ), #185 ) ;
#159 = FILL_AREA_STYLE ('',( #275 ) ) ;
#160 = ADVANCED_FACE ( 'NONE', ( #174 ), #154, .T. ) ;
#161 = ORIENTED_EDGE ( 'NONE', *, *, #30, .T. ) ;
#162 = UNCERTAINTY_MEASURE_WITH_UNIT (LENGTH_MEASURE( 1.000000000000000082E-05 ), #195, 'distance_accuracy_value', 'NONE');
#163 =( NAMED_UNIT ( * ) SI_UNIT ( $, .STERADIAN. ) SOLID_ANGLE_UNIT ( ) );
#164 = CARTESIAN_POINT ( 'NONE',  ( 0.09374999999999998612, 0.7499999999999998890, 1.148106374200644171E-17 ) ) ;
#165 = SURFACE_STYLE_USAGE ( .BOTH. , #68 ) ;
#166 = VERTEX_POINT ( 'NONE', #2 ) ;
#167 = COLOUR_RGB ( '',1.000000000000000000, 0.000000000000000000, 0.000000000000000000 ) ;
#168 = AXIS2_PLACEMENT_3D ( 'NONE', #211, #77, #26 ) ;
#169 = CARTESIAN_POINT ( 'NONE',  ( -6.123233995736766036E-17, 2.500000000000000000, 0.000000000000000000 ) ) ;
#170 = STYLED_ITEM ( 'NONE', ( #25 ), #256 ) ;
#171 =( CONVERSION_BASED_UNIT ( 'INCH', #308 ) LENGTH_UNIT ( ) NAMED_UNIT ( #248 ) );
#172 = DIRECTION ( 'NONE',  ( -1.000000000000000000, 0.000000000000000000, 0.000000000000000000 ) ) ;
#173 = MANIFOLD_SOLID_BREP ( 'Revolve - Tool Body (Straight Shanked)', #247 ) ;
#174 = FACE_OUTER_BOUND ( 'NONE', #232, .T. ) ;
#175 = LINE ( 'NONE', #40, #44 ) ;
#176 = PRESENTATION_LAYER_ASSIGNMENT (  '', '', ( #82 ) ) ;
#177 = EDGE_CURVE ( 'NONE', #64, #184, #217, .T. ) ;
#178 =( GEOMETRIC_REPRESENTATION_CONTEXT ( 3 ) GLOBAL_UNCERTAINTY_ASSIGNED_CONTEXT ( ( #139 ) ) GLOBAL_UNIT_ASSIGNED_CONTEXT ( ( #22, #105, #191 ) ) REPRESENTATION_CONTEXT ( 'NONE', 'WORKASPACE' ) );
#179 = CARTESIAN_POINT ( 'NONE',  ( 1.148106374200643401E-17, 0.7500000000000001110, 0.09374999999999998612 ) ) ;
#180 = SURFACE_SIDE_STYLE ('',( #296 ) ) ;
#181 = CARTESIAN_POINT ( 'NONE',  ( 1.148106374200643555E-17, 0.000000000000000000, 0.09375000000000001388 ) ) ;
#182 = AXIS2_PLACEMENT_3D ( 'NONE', #286, #220, #21 ) ;
#183 = CIRCLE ( 'NONE', #88, 0.09375000000000005551 ) ;
#184 = VERTEX_POINT ( 'NONE', #179 ) ;
#185 =( GEOMETRIC_REPRESENTATION_CONTEXT ( 3 ) GLOBAL_UNCERTAINTY_ASSIGNED_CONTEXT ( ( #225 ) ) GLOBAL_UNIT_ASSIGNED_CONTEXT ( ( #80, #111, #10 ) ) REPRESENTATION_CONTEXT ( 'NONE', 'WORKASPACE' ) );
#186 = ORIENTED_EDGE ( 'NONE', *, *, #30, .F. ) ;
#187 = SURFACE_STYLE_USAGE ( .BOTH. , #99 ) ;
#188 = VERTEX_POINT ( 'NONE', #181 ) ;
#189 = CARTESIAN_POINT ( 'NONE',  ( 0.000000000000000000, 0.000000000000000000, 0.000000000000000000 ) ) ;
#190 = SURFACE_SIDE_STYLE ('',( #104 ) ) ;
#191 =( NAMED_UNIT ( * ) SI_UNIT ( $, .STERADIAN. ) SOLID_ANGLE_UNIT ( ) );
#192 = AXIS2_PLACEMENT_3D ( 'NONE', #133, #222, #52 ) ;
#193 = CARTESIAN_POINT ( 'NONE',  ( -6.123233995736766036E-17, 2.500000000000000000, 0.000000000000000000 ) ) ;
#194 = DIRECTION ( 'NONE',  ( 0.000000000000000000, 0.000000000000000000, -1.000000000000000000 ) ) ;
#195 =( CONVERSION_BASED_UNIT ( 'INCH', #290 ) LENGTH_UNIT ( ) NAMED_UNIT ( #57 ) );
#196 = CARTESIAN_POINT ( 'NONE',  ( 0.000000000000000000, 0.000000000000000000, -0.09375000000000001388 ) ) ;
#197 = SURFACE_STYLE_FILL_AREA ( #153 ) ;
#198 = MECHANICAL_DESIGN_GEOMETRIC_PRESENTATION_REPRESENTATION (  '', ( #19 ), #116 ) ;
#199 = COLOUR_RGB ( '',0.7921568627450980005, 0.8196078431372548767, 0.9333333333333333481 ) ;
#200 = EDGE_CURVE ( 'NONE', #16, #166, #63, .T. ) ;
#201 = UNCERTAINTY_MEASURE_WITH_UNIT (LENGTH_MEASURE( 1.000000000000000082E-05 ), #101, 'distance_accuracy_value', 'NONE');
#202 = CLOSED_SHELL ( 'NONE', ( #212, #69, #41, #256 ) ) ;
#203 = STYLED_ITEM ( 'NONE', ( #23 ), #173 ) ;
#204 = DIMENSIONAL_EXPONENTS ( 1.000000000000000000, 0.000000000000000000, 0.000000000000000000, 0.000000000000000000, 0.000000000000000000, 0.000000000000000000, 0.000000000000000000 ) ;
#205 = UNCERTAINTY_MEASURE_WITH_UNIT (LENGTH_MEASURE( 1.000000000000000082E-05 ), #171, 'distance_accuracy_value', 'NONE');
#206 = DIRECTION ( 'NONE',  ( -1.000000000000000000, -3.498990854706722745E-17, 0.000000000000000000 ) ) ;
#207 = CYLINDRICAL_SURFACE ( 'NONE', #219, 0.09374999999999998612 ) ;
#208 = CARTESIAN_POINT ( 'NONE',  ( -7.582401355855259480E-33, 0.7499999999999998890, 0.000000000000000000 ) ) ;
#209 = SURFACE_STYLE_FILL_AREA ( #49 ) ;
#210 = EDGE_LOOP ( 'NONE', ( #147, #261 ) ) ;
#211 = CARTESIAN_POINT ( 'NONE',  ( -7.582401355855259480E-33, 0.7499999999999998890, 0.000000000000000000 ) ) ;
#212 = ADVANCED_FACE ( 'NONE', ( #298 ), #207, .T. ) ;
#213 = FILL_AREA_STYLE_COLOUR ( '', #138 ) ;
#214 = FILL_AREA_STYLE_COLOUR ( '', #305 ) ;
#215 = CARTESIAN_POINT ( 'NONE',  ( 0.000000000000000000, 0.000000000000000000, 0.000000000000000000 ) ) ;
#216 = CYLINDRICAL_SURFACE ( 'NONE', #226, 0.09374999999999998612 ) ;
#217 = CIRCLE ( 'NONE', #87, 0.09374999999999998612 ) ;
#218 = CARTESIAN_POINT ( 'NONE',  ( -6.123233995736766036E-17, 2.500000000000000000, 0.000000000000000000 ) ) ;
#219 = AXIS2_PLACEMENT_3D ( 'NONE', #96, #303, #39 ) ;
#220 = DIRECTION ( 'NONE',  ( -0.000000000000000000, -1.000000000000000000, -0.000000000000000000 ) ) ;
#221 = FILL_AREA_STYLE_COLOUR ( '', #135 ) ;
#222 = DIRECTION ( 'NONE',  ( 3.498990854706722745E-17, -1.000000000000000000, 0.000000000000000000 ) ) ;
#223 = DIRECTION ( 'NONE',  ( -3.498990854706722745E-17, 1.000000000000000000, -0.000000000000000000 ) ) ;
#224 = EDGE_CURVE ( 'NONE', #188, #137, #157, .T. ) ;
#225 = UNCERTAINTY_MEASURE_WITH_UNIT (LENGTH_MEASURE( 1.000000000000000082E-05 ), #80, 'distance_accuracy_value', 'NONE');
#226 = AXIS2_PLACEMENT_3D ( 'NONE', #189, #109, #128 ) ;
#227 = AXIS2_PLACEMENT_3D ( 'NONE', #208, #260, #258 ) ;
#228 = LENGTH_MEASURE_WITH_UNIT ( LENGTH_MEASURE( 0.02539999999999999897 ), #12 );
#229 = CIRCLE ( 'NONE', #168, 0.09374999999999998612 ) ;
#230 = ORIENTED_EDGE ( 'NONE', *, *, #132, .T. ) ;
#231 = FACE_OUTER_BOUND ( 'NONE', #210, .T. ) ;
#232 = EDGE_LOOP ( 'NONE', ( #92, #300, #42, #186 ) ) ;
#233 = DIRECTION ( 'NONE',  ( 0.000000000000000000, 0.000000000000000000, -1.000000000000000000 ) ) ;
#234 = DIRECTION ( 'NONE',  ( 0.000000000000000000, -0.000000000000000000, 1.000000000000000000 ) ) ;
#235 = ORIENTED_EDGE ( 'NONE', *, *, #143, .T. ) ;
#236 =( LENGTH_UNIT ( ) NAMED_UNIT ( * ) SI_UNIT ( $, .METRE. ) );
#237 =( NAMED_UNIT ( * ) PLANE_ANGLE_UNIT ( ) SI_UNIT ( $, .RADIAN. ) );
#238 = ORIENTED_EDGE ( 'NONE', *, *, #200, .F. ) ;
#239 = FACE_OUTER_BOUND ( 'NONE', #150, .T. ) ;
#240 = DIRECTION ( 'NONE',  ( 0.000000000000000000, 0.000000000000000000, -1.000000000000000000 ) ) ;
#241 = PRODUCT ( '03122', '03122', '', ( #51 ) ) ;
#242 = SURFACE_STYLE_USAGE ( .BOTH. , #37 ) ;
#243 = AXIS2_PLACEMENT_3D ( 'NONE', #145, #119, #206 ) ;
#244 = APPLICATION_CONTEXT ( 'automotive_design' ) ;
#245 = FILL_AREA_STYLE_COLOUR ( '', #199 ) ;
#246 = EDGE_CURVE ( 'NONE', #255, #16, #35, .T. ) ;
#247 = CLOSED_SHELL ( 'NONE', ( #160, #11, #283, #271 ) ) ;
#248 = DIMENSIONAL_EXPONENTS ( 1.000000000000000000, 0.000000000000000000, 0.000000000000000000, 0.000000000000000000, 0.000000000000000000, 0.000000000000000000, 0.000000000000000000 ) ;
#249 = UNCERTAINTY_MEASURE_WITH_UNIT (LENGTH_MEASURE( 1.000000000000000082E-05 ), #134, 'distance_accuracy_value', 'NONE');
#250 = VECTOR ( 'NONE', #117, 39.37007874015748143 ) ;
#251 = PRODUCT_DEFINITION ( 'UNKNOWN', '', #54, #91 ) ;
#252 = DIMENSIONAL_EXPONENTS ( 1.000000000000000000, 0.000000000000000000, 0.000000000000000000, 0.000000000000000000, 0.000000000000000000, 0.000000000000000000, 0.000000000000000000 ) ;
#253 = ORIENTED_EDGE ( 'NONE', *, *, #301, .T. ) ;
#254 = COLOUR_RGB ( '',1.000000000000000000, 0.000000000000000000, 0.000000000000000000 ) ;
#255 = VERTEX_POINT ( 'NONE', #93 ) ;
#256 = ADVANCED_FACE ( 'NONE', ( #231 ), #294, .T. ) ;
#257 = ORIENTED_EDGE ( 'NONE', *, *, #224, .F. ) ;
#258 = DIRECTION ( 'NONE',  ( -1.000000000000000000, 0.000000000000000000, 0.000000000000000000 ) ) ;
#259 = ORIENTED_EDGE ( 'NONE', *, *, #86, .T. ) ;
#260 = DIRECTION ( 'NONE',  ( -3.498990854706722745E-17, 1.000000000000000000, -0.000000000000000000 ) ) ;
#261 = ORIENTED_EDGE ( 'NONE', *, *, #224, .T. ) ;
#262 = MECHANICAL_DESIGN_GEOMETRIC_PRESENTATION_REPRESENTATION (  '', ( #82 ), #299 ) ;
#263 =( LENGTH_UNIT ( ) NAMED_UNIT ( * ) SI_UNIT ( $, .METRE. ) );
#264 =( LENGTH_UNIT ( ) NAMED_UNIT ( * ) SI_UNIT ( $, .METRE. ) );
#265 = ORIENTED_EDGE ( 'NONE', *, *, #155, .F. ) ;
#266 = CARTESIAN_POINT ( 'NONE',  ( 0.000000000000000000, 0.7500000000000001110, 0.000000000000000000 ) ) ;
#267 = SURFACE_SIDE_STYLE ('',( #197 ) ) ;
#268 = PRESENTATION_STYLE_ASSIGNMENT (( #165 ) ) ;
#269 = AXIS2_PLACEMENT_3D ( 'NONE', #169, #6, #129 ) ;
#270 = CARTESIAN_POINT ( 'NONE',  ( -6.123233995736766036E-17, 2.500000000000000000, 0.000000000000000000 ) ) ;
#271 = ADVANCED_FACE ( 'NONE', ( #287 ), #7, .F. ) ;
#272 = APPLICATION_PROTOCOL_DEFINITION ( 'draft international standard', 'automotive_design', 1998, #244 ) ;
#273 = UNCERTAINTY_MEASURE_WITH_UNIT (LENGTH_MEASURE( 1.000000000000000082E-05 ), #71, 'distance_accuracy_value', 'NONE');
#274 = SURFACE_STYLE_USAGE ( .BOTH. , #180 ) ;
#275 = FILL_AREA_STYLE_COLOUR ( '', #254 ) ;
#276 = DIMENSIONAL_EXPONENTS ( 1.000000000000000000, 0.000000000000000000, 0.000000000000000000, 0.000000000000000000, 0.000000000000000000, 0.000000000000000000, 0.000000000000000000 ) ;
#277 = PRESENTATION_LAYER_ASSIGNMENT (  '', '', ( #203 ) ) ;
#278 = SURFACE_STYLE_FILL_AREA ( #70 ) ;
#279 = EDGE_LOOP ( 'NONE', ( #307, #281, #259, #257 ) ) ;
#280 = LENGTH_MEASURE_WITH_UNIT ( LENGTH_MEASURE( 0.02539999999999999897 ), #264 );
#281 = ORIENTED_EDGE ( 'NONE', *, *, #155, .T. ) ;
#282 = SURFACE_STYLE_USAGE ( .BOTH. , #267 ) ;
#283 = ADVANCED_FACE ( 'NONE', ( #61 ), #113, .T. ) ;
#284 = PRESENTATION_LAYER_ASSIGNMENT (  '', '', ( #295 ) ) ;
#285 =( NAMED_UNIT ( * ) PLANE_ANGLE_UNIT ( ) SI_UNIT ( $, .RADIAN. ) );
#286 = CARTESIAN_POINT ( 'NONE',  ( 0.000000000000000000, 0.000000000000000000, 0.000000000000000000 ) ) ;
#287 = FACE_OUTER_BOUND ( 'NONE', #84, .T. ) ;
#288 = CARTESIAN_POINT ( 'NONE',  ( -0.09375000000000012490, 2.500000000000000000, 0.000000000000000000 ) ) ;
#289 = SHAPE_DEFINITION_REPRESENTATION ( #115, #78 ) ;
#290 = LENGTH_MEASURE_WITH_UNIT ( LENGTH_MEASURE( 0.02539999999999999897 ), #263 );
#291 = LENGTH_MEASURE_WITH_UNIT ( LENGTH_MEASURE( 0.02539999999999999897 ), #124 );
#292 = DIRECTION ( 'NONE',  ( -0.000000000000000000, -1.000000000000000000, -0.000000000000000000 ) ) ;
#293 = DIRECTION ( 'NONE',  ( 0.000000000000000000, 0.000000000000000000, 1.000000000000000000 ) ) ;
#294 = PLANE ( 'NONE',  #60 ) ;
#295 = STYLED_ITEM ( 'NONE', ( #141 ), #212 ) ;
#296 = SURFACE_STYLE_FILL_AREA ( #159 ) ;
#297 = CIRCLE ( 'NONE', #53, 0.09374999999999998612 ) ;
#298 = FACE_OUTER_BOUND ( 'NONE', #118, .T. ) ;
#299 =( GEOMETRIC_REPRESENTATION_CONTEXT ( 3 ) GLOBAL_UNCERTAINTY_ASSIGNED_CONTEXT ( ( #205 ) ) GLOBAL_UNIT_ASSIGNED_CONTEXT ( ( #171, #237, #106 ) ) REPRESENTATION_CONTEXT ( 'NONE', 'WORKASPACE' ) );
#300 = ORIENTED_EDGE ( 'NONE', *, *, #200, .T. ) ;
#301 = EDGE_CURVE ( 'NONE', #166, #126, #183, .T. ) ;
#302 = ORIENTED_EDGE ( 'NONE', *, *, #140, .T. ) ;
#303 = DIRECTION ( 'NONE',  ( -0.000000000000000000, -1.000000000000000000, -0.000000000000000000 ) ) ;
#304 = DIMENSIONAL_EXPONENTS ( 1.000000000000000000, 0.000000000000000000, 0.000000000000000000, 0.000000000000000000, 0.000000000000000000, 0.000000000000000000, 0.000000000000000000 ) ;
#305 = COLOUR_RGB ( '',0.7921568627450980005, 0.8196078431372548767, 0.9333333333333333481 ) ;
#306 = DIRECTION ( 'NONE',  ( 0.000000000000000000, 1.000000000000000000, 0.000000000000000000 ) ) ;
#307 = ORIENTED_EDGE ( 'NONE', *, *, #132, .F. ) ;
#308 = LENGTH_MEASURE_WITH_UNIT ( LENGTH_MEASURE( 0.02539999999999999897 ), #236 );
#309 = DIRECTION ( 'NONE',  ( -3.498990854706722745E-17, 1.000000000000000000, -0.000000000000000000 ) ) ;
ENDSEC;
END-ISO-10303-21;
