ISO-10303-21;
HEADER;
FILE_DESCRIPTION (( 'STEP AP214' ),
    '1' );
FILE_NAME ('Micro_SME-005-2.STEP',
    '2021-09-02T09:31:07',
    ( '' ),
    ( '' ),
    'SwSTEP 2.0',
    'SolidWorks 2020',
    '' );
FILE_SCHEMA (( 'AUTOMOTIVE_DESIGN' ));
ENDSEC;

DATA;
#1 = DIRECTION ( 'NONE',  ( -1.000000000000000000, 0.0000000000000000000, 0.0000000000000000000 ) ) ;
#2 = CARTESIAN_POINT ( 'NONE',  ( 0.0000000000000000000, 0.0000000000000000000, 1.500000000000000222 ) ) ;
#3 = ADVANCED_FACE ( 'NONE', ( #243 ), #195, .F. ) ;
#4 = CIRCLE ( 'NONE', #170, 0.06250000000000002776 ) ;
#5 = EDGE_LOOP ( 'NONE', ( #33, #189, #192, #16 ) ) ;
#6 =( CONVERSION_BASED_UNIT ( 'INCH', #125 ) LENGTH_UNIT ( ) NAMED_UNIT ( #111 ) );
#7 = AXIS2_PLACEMENT_3D ( 'NONE', #249, #184, #160 ) ;
#8 = EDGE_CURVE ( 'NONE', #97, #246, #193, .T. ) ;
#9 = CARTESIAN_POINT ( 'NONE',  ( -0.06250000000000002776, 0.0000000000000000000, 1.485000000000000764 ) ) ;
#10 = CARTESIAN_POINT ( 'NONE',  ( 0.04750000000000064587, 5.817072295950006528E-18, 1.500000000000000222 ) ) ;
#11 = ORIENTED_EDGE ( 'NONE', *, *, #28, .T. ) ;
#12 = VERTEX_POINT ( 'NONE', #112 ) ;
#13 = CIRCLE ( 'NONE', #21, 0.04750000000000064587 ) ;
#14 = VECTOR ( 'NONE', #257, 39.37007874015748854 ) ;
#15 = ORIENTED_EDGE ( 'NONE', *, *, #293, .T. ) ;
#16 = ORIENTED_EDGE ( 'NONE', *, *, #162, .F. ) ;
#17 = ORIENTED_EDGE ( 'NONE', *, *, #8, .F. ) ;
#18 = DIRECTION ( 'NONE',  ( -1.000000000000000000, 0.0000000000000000000, 0.0000000000000000000 ) ) ;
#19 = EDGE_LOOP ( 'NONE', ( #176, #50, #17, #262 ) ) ;
#20 = LENGTH_MEASURE_WITH_UNIT ( LENGTH_MEASURE( 0.02539999999999999897 ), #207 );
#21 = AXIS2_PLACEMENT_3D ( 'NONE', #110, #108, #197 ) ;
#22 = CARTESIAN_POINT ( 'NONE',  ( -0.06250000000000002776, 0.0000000000000000000, 1.500000000000000222 ) ) ;
#23 =( NAMED_UNIT ( * ) PLANE_ANGLE_UNIT ( ) SI_UNIT ( $, .RADIAN. ) );
#24 = CARTESIAN_POINT ( 'NONE',  ( 8.572527594031417839E-19, 0.0000000000000000000, 0.006999999999999952441 ) ) ;
#25 = EDGE_CURVE ( 'NONE', #36, #270, #238, .T. ) ;
#26 = DIRECTION ( 'NONE',  ( -1.224646799147353700E-16, -0.0000000000000000000, -1.000000000000000000 ) ) ;
#27 = DIRECTION ( 'NONE',  ( 0.0000000000000000000, 0.0000000000000000000, 1.000000000000000000 ) ) ;
#28 = EDGE_CURVE ( 'NONE', #269, #260, #114, .T. ) ;
#29 = PRODUCT_DEFINITION_CONTEXT ( 'detailed design', #201, 'design' ) ;
#30 = ORIENTED_EDGE ( 'NONE', *, *, #210, .T. ) ;
#31 = AXIS2_PLACEMENT_3D ( 'NONE', #186, #190, #283 ) ;
#32 = CARTESIAN_POINT ( 'NONE',  ( 0.002497499999999991480, 0.0000000000000000000, 0.006999999999999952441 ) ) ;
#33 = ORIENTED_EDGE ( 'NONE', *, *, #105, .T. ) ;
#34 = FACE_OUTER_BOUND ( 'NONE', #234, .T. ) ;
#35 = AXIS2_PLACEMENT_3D ( 'NONE', #127, #27, #185 ) ;
#36 = VERTEX_POINT ( 'NONE', #296 ) ;
#37 = ORIENTED_EDGE ( 'NONE', *, *, #274, .F. ) ;
#38 = CARTESIAN_POINT ( 'NONE',  ( 3.745650057197979701E-35, 0.0000000000000000000, 3.058555380870505224E-19 ) ) ;
#39 = CARTESIAN_POINT ( 'NONE',  ( 8.572527594031417839E-19, 0.0000000000000000000, 0.006999999999999952441 ) ) ;
#40 = CARTESIAN_POINT ( 'NONE',  ( 0.002497499999999991047, 3.058555380870503298E-19, -3.058555380870504742E-19 ) ) ;
#41 = AXIS2_PLACEMENT_3D ( 'NONE', #224, #150, #152 ) ;
#42 = AXIS2_PLACEMENT_3D ( 'NONE', #88, #203, #273 ) ;
#43 = ADVANCED_FACE ( 'NONE', ( #134 ), #180, .T. ) ;
#44 = DIRECTION ( 'NONE',  ( -1.224646799147353700E-16, -0.0000000000000000000, -1.000000000000000000 ) ) ;
#45 = ADVANCED_FACE ( 'NONE', ( #34 ), #295, .T. ) ;
#46 = DIRECTION ( 'NONE',  ( -0.0000000000000000000, -0.0000000000000000000, -1.000000000000000000 ) ) ;
#47 = AXIS2_PLACEMENT_3D ( 'NONE', #38, #242, #154 ) ;
#48 = CIRCLE ( 'NONE', #159, 0.06250000000000002776 ) ;
#49 = APPLICATION_PROTOCOL_DEFINITION ( 'draft international standard', 'automotive_design', 1998, #94 ) ;
#50 = ORIENTED_EDGE ( 'NONE', *, *, #214, .T. ) ;
#51 = CARTESIAN_POINT ( 'NONE',  ( 0.06250000000000006939, 7.654042494670963708E-18, 0.3472910873816099087 ) ) ;
#52 = EDGE_CURVE ( 'NONE', #12, #36, #13, .T. ) ;
#53 = CIRCLE ( 'NONE', #126, 0.06250000000000002776 ) ;
#54 = LINE ( 'NONE', #96, #230 ) ;
#55 = VERTEX_POINT ( 'NONE', #132 ) ;
#56 = EDGE_CURVE ( 'NONE', #269, #284, #151, .T. ) ;
#57 = PRODUCT_DEFINITION_SHAPE ( 'NONE', 'NONE',  #64 ) ;
#58 = ORIENTED_EDGE ( 'NONE', *, *, #267, .T. ) ;
#59 = PRODUCT_CONTEXT ( 'NONE', #94, 'mechanical' ) ;
#60 = DIRECTION ( 'NONE',  ( 1.000000000000000000, 0.0000000000000000000, 0.0000000000000000000 ) ) ;
#61 = VECTOR ( 'NONE', #92, 39.37007874015748143 ) ;
#62 = VERTEX_POINT ( 'NONE', #265 ) ;
#63 = ORIENTED_EDGE ( 'NONE', *, *, #78, .F. ) ;
#64 = PRODUCT_DEFINITION ( 'UNKNOWN', '', #155, #29 ) ;
#65 = ORIENTED_EDGE ( 'NONE', *, *, #141, .F. ) ;
#66 = DIRECTION ( 'NONE',  ( -0.1736481776669311916, 2.126576849575783316E-17, 0.9848077530122080203 ) ) ;
#67 = CARTESIAN_POINT ( 'NONE',  ( 3.745650057197979701E-35, 0.0000000000000000000, 3.058555380870505224E-19 ) ) ;
#68 = CARTESIAN_POINT ( 'NONE',  ( -0.002497499999999989312, 3.058555380870502816E-19, 0.006999999999999952441 ) ) ;
#69 = PRESENTATION_LAYER_ASSIGNMENT (  '', '', ( #158 ) ) ;
#70 = PRESENTATION_STYLE_ASSIGNMENT (( #253 ) ) ;
#71 = DIRECTION ( 'NONE',  ( -0.0000000000000000000, -0.0000000000000000000, -1.000000000000000000 ) ) ;
#72 = CARTESIAN_POINT ( 'NONE',  ( -0.002497499999999991047, 0.0000000000000000000, 3.058555380870504742E-19 ) ) ;
#73 =( LENGTH_UNIT ( ) NAMED_UNIT ( * ) SI_UNIT ( $, .METRE. ) );
#74 = UNCERTAINTY_MEASURE_WITH_UNIT (LENGTH_MEASURE( 1.000000000000000082E-05 ), #6, 'distance_accuracy_value', 'NONE');
#75 = PRESENTATION_STYLE_ASSIGNMENT (( #285 ) ) ;
#76 = EDGE_LOOP ( 'NONE', ( #37, #144, #209, #281 ) ) ;
#77 = FACE_OUTER_BOUND ( 'NONE', #166, .T. ) ;
#78 = EDGE_CURVE ( 'NONE', #260, #269, #216, .T. ) ;
#79 = ORIENTED_EDGE ( 'NONE', *, *, #214, .F. ) ;
#80 = CARTESIAN_POINT ( 'NONE',  ( 0.0000000000000000000, 0.0000000000000000000, 0.0000000000000000000 ) ) ;
#81 = DIRECTION ( 'NONE',  ( -1.224646799147353700E-16, -0.0000000000000000000, -1.000000000000000000 ) ) ;
#82 = SHAPE_DEFINITION_REPRESENTATION ( #57, #93 ) ;
#83 = CARTESIAN_POINT ( 'NONE',  ( -0.04750000000000064587, 0.0000000000000000000, 1.500000000000000222 ) ) ;
#84 = ORIENTED_EDGE ( 'NONE', *, *, #244, .T. ) ;
#85 = CARTESIAN_POINT ( 'NONE',  ( -0.002497499999999991480, 0.0000000000000000000, 6.117110761741010448E-19 ) ) ;
#86 = CARTESIAN_POINT ( 'NONE',  ( 0.0000000000000000000, 0.0000000000000000000, 1.485000000000000764 ) ) ;
#87 = AXIS2_PLACEMENT_3D ( 'NONE', #80, #107, #103 ) ;
#88 = CARTESIAN_POINT ( 'NONE',  ( 0.0000000000000000000, 0.0000000000000000000, 0.0000000000000000000 ) ) ;
#89 = CYLINDRICAL_SURFACE ( 'NONE', #90, 0.06250000000000002776 ) ;
#90 = AXIS2_PLACEMENT_3D ( 'NONE', #225, #46, #226 ) ;
#91 =( CONVERSION_BASED_UNIT ( 'INCH', #20 ) LENGTH_UNIT ( ) NAMED_UNIT ( #131 ) );
#92 = DIRECTION ( 'NONE',  ( -0.0000000000000000000, -0.0000000000000000000, -1.000000000000000000 ) ) ;
#93 = ADVANCED_BREP_SHAPE_REPRESENTATION ( 'Micro_SME-005-2', ( #116, #87 ), #198 ) ;
#94 = APPLICATION_CONTEXT ( 'automotive_design' ) ;
#95 = LINE ( 'NONE', #10, #14 ) ;
#96 = CARTESIAN_POINT ( 'NONE',  ( 0.06250000000000002776, 7.654042494670959086E-18, 1.500000000000000222 ) ) ;
#97 = VERTEX_POINT ( 'NONE', #85 ) ;
#98 = ORIENTED_EDGE ( 'NONE', *, *, #25, .F. ) ;
#99 = APPLICATION_PROTOCOL_DEFINITION ( 'draft international standard', 'automotive_design', 1998, #201 ) ;
#100 = EDGE_LOOP ( 'NONE', ( #282, #172, #194, #264 ) ) ;
#101 = AXIS2_PLACEMENT_3D ( 'NONE', #39, #289, #200 ) ;
#102 = CONICAL_SURFACE ( 'NONE', #31, 0.04750000000000064587, 0.7853981633974466137 ) ;
#103 = DIRECTION ( 'NONE',  ( 1.000000000000000000, 0.0000000000000000000, 0.0000000000000000000 ) ) ;
#104 = ORIENTED_EDGE ( 'NONE', *, *, #274, .T. ) ;
#105 = EDGE_CURVE ( 'NONE', #270, #62, #164, .T. ) ;
#106 = DIRECTION ( 'NONE',  ( -1.224646799147353700E-16, -0.0000000000000000000, -1.000000000000000000 ) ) ;
#107 = DIRECTION ( 'NONE',  ( 0.0000000000000000000, 0.0000000000000000000, 1.000000000000000000 ) ) ;
#108 = DIRECTION ( 'NONE',  ( 0.0000000000000000000, 0.0000000000000000000, 1.000000000000000000 ) ) ;
#109 = MECHANICAL_DESIGN_GEOMETRIC_PRESENTATION_REPRESENTATION (  '', ( #158 ), #136 ) ;
#110 = CARTESIAN_POINT ( 'NONE',  ( 0.0000000000000000000, 0.0000000000000000000, 1.500000000000000222 ) ) ;
#111 = DIMENSIONAL_EXPONENTS ( 1.000000000000000000, 0.0000000000000000000, 0.0000000000000000000, 0.0000000000000000000, 0.0000000000000000000, 0.0000000000000000000, 0.0000000000000000000 ) ;
#112 = CARTESIAN_POINT ( 'NONE',  ( 0.04750000000000064587, 6.735557395310483192E-18, 1.500000000000000222 ) ) ;
#113 = CARTESIAN_POINT ( 'NONE',  ( 4.253089185342924320E-17, 0.0000000000000000000, 0.3472910873816099087 ) ) ;
#114 = CIRCLE ( 'NONE', #101, 0.002497499999999990613 ) ;
#115 = LINE ( 'NONE', #22, #61 ) ;
#116 = MANIFOLD_SOLID_BREP ( 'Cut-Revolve1', #258 ) ;
#117 = LINE ( 'NONE', #68, #292 ) ;
#118 = AXIS2_PLACEMENT_3D ( 'NONE', #67, #299, #215 ) ;
#119 = SURFACE_SIDE_STYLE ('',( #156 ) ) ;
#120 = EDGE_CURVE ( 'NONE', #62, #270, #4, .T. ) ;
#121 = DIRECTION ( 'NONE',  ( -0.0000000000000000000, -0.0000000000000000000, -1.000000000000000000 ) ) ;
#122 = ORIENTED_EDGE ( 'NONE', *, *, #28, .F. ) ;
#123 = CARTESIAN_POINT ( 'NONE',  ( 0.002497499999999991480, 3.058555380870503298E-19, 0.0000000000000000000 ) ) ;
#124 = VECTOR ( 'NONE', #196, 39.37007874015748143 ) ;
#125 = LENGTH_MEASURE_WITH_UNIT ( LENGTH_MEASURE( 0.02539999999999999897 ), #73 );
#126 = AXIS2_PLACEMENT_3D ( 'NONE', #113, #44, #140 ) ;
#127 = CARTESIAN_POINT ( 'NONE',  ( 0.0000000000000000000, 0.0000000000000000000, 1.500000000000000222 ) ) ;
#128 = ADVANCED_FACE ( 'NONE', ( #228 ), #245, .T. ) ;
#129 = DIRECTION ( 'NONE',  ( -1.224646799147353700E-16, -0.0000000000000000000, -1.000000000000000000 ) ) ;
#130 = DIRECTION ( 'NONE',  ( -1.000000000000000000, 0.0000000000000000000, 0.0000000000000000000 ) ) ;
#131 = DIMENSIONAL_EXPONENTS ( 1.000000000000000000, 0.0000000000000000000, 0.0000000000000000000, 0.0000000000000000000, 0.0000000000000000000, 0.0000000000000000000, 0.0000000000000000000 ) ;
#132 = CARTESIAN_POINT ( 'NONE',  ( -0.06249999999999997918, 0.0000000000000000000, 0.3472910873816099087 ) ) ;
#133 = ADVANCED_FACE ( 'NONE', ( #161 ), #89, .T. ) ;
#134 = FACE_OUTER_BOUND ( 'NONE', #76, .T. ) ;
#135 = CARTESIAN_POINT ( 'NONE',  ( 0.0000000000000000000, 0.0000000000000000000, 1.500000000000000222 ) ) ;
#136 =( GEOMETRIC_REPRESENTATION_CONTEXT ( 3 ) GLOBAL_UNCERTAINTY_ASSIGNED_CONTEXT ( ( #167 ) ) GLOBAL_UNIT_ASSIGNED_CONTEXT ( ( #91, #23, #204 ) ) REPRESENTATION_CONTEXT ( 'NONE', 'WORKASPACE' ) );
#137 = ORIENTED_EDGE ( 'NONE', *, *, #105, .F. ) ;
#138 = FACE_OUTER_BOUND ( 'NONE', #19, .T. ) ;
#139 = DIRECTION ( 'NONE',  ( 1.000000000000000000, 0.0000000000000000000, 0.0000000000000000000 ) ) ;
#140 = DIRECTION ( 'NONE',  ( 1.000000000000000000, 0.0000000000000000000, 0.0000000000000000000 ) ) ;
#141 = EDGE_CURVE ( 'NONE', #260, #55, #117, .T. ) ;
#142 = DIRECTION ( 'NONE',  ( 0.0000000000000000000, 0.0000000000000000000, 1.000000000000000000 ) ) ;
#143 = CIRCLE ( 'NONE', #227, 0.04750000000000064587 ) ;
#144 = ORIENTED_EDGE ( 'NONE', *, *, #210, .F. ) ;
#145 = FILL_AREA_STYLE_COLOUR ( '', #223 ) ;
#146 = EDGE_LOOP ( 'NONE', ( #63, #169, #15, #177 ) ) ;
#147 = ORIENTED_EDGE ( 'NONE', *, *, #244, .F. ) ;
#148 = LENGTH_MEASURE_WITH_UNIT ( LENGTH_MEASURE( 0.02539999999999999897 ), #171 );
#149 = EDGE_LOOP ( 'NONE', ( #65, #122, #218, #268 ) ) ;
#150 = DIRECTION ( 'NONE',  ( 0.0000000000000000000, 0.0000000000000000000, 1.000000000000000000 ) ) ;
#151 = LINE ( 'NONE', #199, #124 ) ;
#152 = DIRECTION ( 'NONE',  ( 1.000000000000000000, 0.0000000000000000000, -0.0000000000000000000 ) ) ;
#153 = DIRECTION ( 'NONE',  ( -0.7071067811865462405, 0.0000000000000000000, -0.7071067811865486830 ) ) ;
#154 = DIRECTION ( 'NONE',  ( -1.000000000000000000, 0.0000000000000000000, 1.224646799147353700E-16 ) ) ;
#155 = PRODUCT_DEFINITION_FORMATION_WITH_SPECIFIED_SOURCE ( 'ANY', '', #288, .NOT_KNOWN. ) ;
#156 = SURFACE_STYLE_FILL_AREA ( #182 ) ;
#157 = DIRECTION ( 'NONE',  ( 1.224646799147353700E-16, 0.0000000000000000000, 1.000000000000000000 ) ) ;
#158 = STYLED_ITEM ( 'NONE', ( #70 ), #116 ) ;
#159 = AXIS2_PLACEMENT_3D ( 'NONE', #163, #191, #233 ) ;
#160 = DIRECTION ( 'NONE',  ( 1.000000000000000000, 0.0000000000000000000, 0.0000000000000000000 ) ) ;
#161 = FACE_OUTER_BOUND ( 'NONE', #100, .T. ) ;
#162 = EDGE_CURVE ( 'NONE', #270, #55, #115, .T. ) ;
#163 = CARTESIAN_POINT ( 'NONE',  ( 4.253089185342924320E-17, 0.0000000000000000000, 0.3472910873816099087 ) ) ;
#164 = CIRCLE ( 'NONE', #183, 0.06250000000000002776 ) ;
#165 = ADVANCED_FACE ( 'NONE', ( #206 ), #286, .T. ) ;
#166 = EDGE_LOOP ( 'NONE', ( #212, #104, #137, #98 ) ) ;
#167 = UNCERTAINTY_MEASURE_WITH_UNIT (LENGTH_MEASURE( 1.000000000000000082E-05 ), #91, 'distance_accuracy_value', 'NONE');
#168 = FILL_AREA_STYLE ('',( #145 ) ) ;
#169 = ORIENTED_EDGE ( 'NONE', *, *, #141, .T. ) ;
#170 = AXIS2_PLACEMENT_3D ( 'NONE', #240, #275, #181 ) ;
#171 =( LENGTH_UNIT ( ) NAMED_UNIT ( * ) SI_UNIT ( $, .METRE. ) );
#172 = ORIENTED_EDGE ( 'NONE', *, *, #120, .T. ) ;
#173 =( NAMED_UNIT ( * ) SI_UNIT ( $, .STERADIAN. ) SOLID_ANGLE_UNIT ( ) );
#174 = CARTESIAN_POINT ( 'NONE',  ( 8.572527594031417839E-19, 0.0000000000000000000, 0.006999999999999952441 ) ) ;
#175 = PRESENTATION_LAYER_ASSIGNMENT (  '', '', ( #239 ) ) ;
#176 = ORIENTED_EDGE ( 'NONE', *, *, #78, .T. ) ;
#177 = ORIENTED_EDGE ( 'NONE', *, *, #56, .F. ) ;
#178 = DIMENSIONAL_EXPONENTS ( 1.000000000000000000, 0.0000000000000000000, 0.0000000000000000000, 0.0000000000000000000, 0.0000000000000000000, 0.0000000000000000000, 0.0000000000000000000 ) ;
#179 = DIRECTION ( 'NONE',  ( 0.0000000000000000000, 0.0000000000000000000, -1.000000000000000000 ) ) ;
#180 = CONICAL_SURFACE ( 'NONE', #221, 0.04750000000000064587, 0.7853981633974466137 ) ;
#181 = DIRECTION ( 'NONE',  ( 1.000000000000000000, 0.0000000000000000000, 0.0000000000000000000 ) ) ;
#182 = FILL_AREA_STYLE ('',( #290 ) ) ;
#183 = AXIS2_PLACEMENT_3D ( 'NONE', #86, #179, #60 ) ;
#184 = DIRECTION ( 'NONE',  ( 1.224646799147353700E-16, 0.0000000000000000000, 1.000000000000000000 ) ) ;
#185 = DIRECTION ( 'NONE',  ( 1.000000000000000000, 0.0000000000000000000, -0.0000000000000000000 ) ) ;
#186 = CARTESIAN_POINT ( 'NONE',  ( 0.0000000000000000000, 0.0000000000000000000, 1.500000000000000222 ) ) ;
#187 = ADVANCED_FACE ( 'NONE', ( #250 ), #271, .T. ) ;
#188 =( NAMED_UNIT ( * ) SI_UNIT ( $, .STERADIAN. ) SOLID_ANGLE_UNIT ( ) );
#189 = ORIENTED_EDGE ( 'NONE', *, *, #248, .T. ) ;
#190 = DIRECTION ( 'NONE',  ( 0.0000000000000000000, 0.0000000000000000000, -1.000000000000000000 ) ) ;
#191 = DIRECTION ( 'NONE',  ( -1.224646799147353700E-16, -0.0000000000000000000, -1.000000000000000000 ) ) ;
#192 = ORIENTED_EDGE ( 'NONE', *, *, #293, .F. ) ;
#193 = CIRCLE ( 'NONE', #47, 0.002497499999999991480 ) ;
#194 = ORIENTED_EDGE ( 'NONE', *, *, #162, .T. ) ;
#195 = PLANE ( 'NONE',  #41 ) ;
#196 = DIRECTION ( 'NONE',  ( 0.1736481776669313859, 0.0000000000000000000, 0.9848077530122077983 ) ) ;
#197 = DIRECTION ( 'NONE',  ( 1.000000000000000000, 0.0000000000000000000, 0.0000000000000000000 ) ) ;
#198 =( GEOMETRIC_REPRESENTATION_CONTEXT ( 3 ) GLOBAL_UNCERTAINTY_ASSIGNED_CONTEXT ( ( #74 ) ) GLOBAL_UNIT_ASSIGNED_CONTEXT ( ( #6, #208, #188 ) ) REPRESENTATION_CONTEXT ( 'NONE', 'WORKASPACE' ) );
#199 = CARTESIAN_POINT ( 'NONE',  ( 0.002497499999999991480, 0.0000000000000000000, 0.006999999999999952441 ) ) ;
#200 = DIRECTION ( 'NONE',  ( -1.000000000000000000, 0.0000000000000000000, 0.0000000000000000000 ) ) ;
#201 = APPLICATION_CONTEXT ( 'automotive_design' ) ;
#202 = DIRECTION ( 'NONE',  ( 1.000000000000000000, 0.0000000000000000000, 0.0000000000000000000 ) ) ;
#203 = DIRECTION ( 'NONE',  ( -1.224646799147353700E-16, -0.0000000000000000000, -1.000000000000000000 ) ) ;
#204 =( NAMED_UNIT ( * ) SI_UNIT ( $, .STERADIAN. ) SOLID_ANGLE_UNIT ( ) );
#205 = EDGE_CURVE ( 'NONE', #284, #55, #53, .T. ) ;
#206 = FACE_OUTER_BOUND ( 'NONE', #146, .T. ) ;
#207 =( LENGTH_UNIT ( ) NAMED_UNIT ( * ) SI_UNIT ( $, .METRE. ) );
#208 =( NAMED_UNIT ( * ) PLANE_ANGLE_UNIT ( ) SI_UNIT ( $, .RADIAN. ) );
#209 = ORIENTED_EDGE ( 'NONE', *, *, #25, .T. ) ;
#210 = EDGE_CURVE ( 'NONE', #36, #12, #143, .T. ) ;
#211 = LINE ( 'NONE', #72, #298 ) ;
#212 = ORIENTED_EDGE ( 'NONE', *, *, #52, .F. ) ;
#213 = CIRCLE ( 'NONE', #118, 0.002497499999999991480 ) ;
#214 = EDGE_CURVE ( 'NONE', #269, #246, #229, .T. ) ;
#215 = DIRECTION ( 'NONE',  ( -1.000000000000000000, 0.0000000000000000000, 1.224646799147353700E-16 ) ) ;
#216 = CIRCLE ( 'NONE', #255, 0.002497499999999990613 ) ;
#217 =( GEOMETRIC_REPRESENTATION_CONTEXT ( 3 ) GLOBAL_UNCERTAINTY_ASSIGNED_CONTEXT ( ( #256 ) ) GLOBAL_UNIT_ASSIGNED_CONTEXT ( ( #237, #263, #173 ) ) REPRESENTATION_CONTEXT ( 'NONE', 'WORKASPACE' ) );
#218 = ORIENTED_EDGE ( 'NONE', *, *, #56, .T. ) ;
#219 = CARTESIAN_POINT ( 'NONE',  ( 0.0000000000000000000, 0.0000000000000000000, 0.0000000000000000000 ) ) ;
#220 = DIRECTION ( 'NONE',  ( 0.0000000000000000000, 0.0000000000000000000, -1.000000000000000000 ) ) ;
#221 = AXIS2_PLACEMENT_3D ( 'NONE', #135, #220, #18 ) ;
#222 = DIRECTION ( 'NONE',  ( -1.000000000000000000, 0.0000000000000000000, 1.224646799147353700E-16 ) ) ;
#223 = COLOUR_RGB ( '',0.7921568627450980005, 0.8196078431372548767, 0.9333333333333333481 ) ;
#224 = CARTESIAN_POINT ( 'NONE',  ( 0.0000000000000000000, 0.0000000000000000000, 0.0000000000000000000 ) ) ;
#225 = CARTESIAN_POINT ( 'NONE',  ( 0.0000000000000000000, 0.0000000000000000000, 1.500000000000000222 ) ) ;
#226 = DIRECTION ( 'NONE',  ( -1.000000000000000000, 0.0000000000000000000, 0.0000000000000000000 ) ) ;
#227 = AXIS2_PLACEMENT_3D ( 'NONE', #254, #142, #202 ) ;
#228 = FACE_OUTER_BOUND ( 'NONE', #149, .T. ) ;
#229 = LINE ( 'NONE', #40, #247 ) ;
#230 = VECTOR ( 'NONE', #121, 39.37007874015748143 ) ;
#231 = ORIENTED_EDGE ( 'NONE', *, *, #52, .T. ) ;
#232 = SURFACE_SIDE_STYLE ('',( #259 ) ) ;
#233 = DIRECTION ( 'NONE',  ( 1.000000000000000000, 0.0000000000000000000, 0.0000000000000000000 ) ) ;
#234 = EDGE_LOOP ( 'NONE', ( #79, #11, #58, #147 ) ) ;
#235 = EDGE_LOOP ( 'NONE', ( #30, #231 ) ) ;
#236 = PRODUCT_RELATED_PRODUCT_CATEGORY ( 'part', '', ( #288 ) ) ;
#237 =( CONVERSION_BASED_UNIT ( 'INCH', #148 ) LENGTH_UNIT ( ) NAMED_UNIT ( #178 ) );
#238 = LINE ( 'NONE', #83, #266 ) ;
#239 = STYLED_ITEM ( 'NONE', ( #75 ), #93 ) ;
#240 = CARTESIAN_POINT ( 'NONE',  ( 0.0000000000000000000, 0.0000000000000000000, 1.485000000000000764 ) ) ;
#241 = ADVANCED_FACE ( 'NONE', ( #138 ), #297, .T. ) ;
#242 = DIRECTION ( 'NONE',  ( -1.224646799147353700E-16, -0.0000000000000000000, -1.000000000000000000 ) ) ;
#243 = FACE_OUTER_BOUND ( 'NONE', #287, .T. ) ;
#244 = EDGE_CURVE ( 'NONE', #246, #97, #213, .T. ) ;
#245 = CONICAL_SURFACE ( 'NONE', #272, 0.002497499999999990613, 0.1745329251994338915 ) ;
#246 = VERTEX_POINT ( 'NONE', #123 ) ;
#247 = VECTOR ( 'NONE', #26, 39.37007874015748143 ) ;
#248 = EDGE_CURVE ( 'NONE', #62, #284, #54, .T. ) ;
#249 = CARTESIAN_POINT ( 'NONE',  ( 8.572527594031417839E-19, 0.0000000000000000000, 0.006999999999999952441 ) ) ;
#250 = FACE_OUTER_BOUND ( 'NONE', #5, .T. ) ;
#251 = AXIS2_PLACEMENT_3D ( 'NONE', #219, #81, #222 ) ;
#252 = MECHANICAL_DESIGN_GEOMETRIC_PRESENTATION_REPRESENTATION (  '', ( #239 ), #217 ) ;
#253 = SURFACE_STYLE_USAGE ( .BOTH. , #119 ) ;
#254 = CARTESIAN_POINT ( 'NONE',  ( 0.0000000000000000000, 0.0000000000000000000, 1.500000000000000222 ) ) ;
#255 = AXIS2_PLACEMENT_3D ( 'NONE', #174, #106, #130 ) ;
#256 = UNCERTAINTY_MEASURE_WITH_UNIT (LENGTH_MEASURE( 1.000000000000000082E-05 ), #237, 'distance_accuracy_value', 'NONE');
#257 = DIRECTION ( 'NONE',  ( 0.7071067811865462405, 8.659560562354916834E-17, -0.7071067811865486830 ) ) ;
#258 = CLOSED_SHELL ( 'NONE', ( #241, #165, #279, #187, #133, #276, #43, #128, #45, #3 ) ) ;
#259 = SURFACE_STYLE_FILL_AREA ( #168 ) ;
#260 = VERTEX_POINT ( 'NONE', #261 ) ;
#261 = CARTESIAN_POINT ( 'NONE',  ( -0.002497499999999989312, 3.979949016379005598E-18, 0.006999999999999952441 ) ) ;
#262 = ORIENTED_EDGE ( 'NONE', *, *, #267, .F. ) ;
#263 =( NAMED_UNIT ( * ) PLANE_ANGLE_UNIT ( ) SI_UNIT ( $, .RADIAN. ) );
#264 = ORIENTED_EDGE ( 'NONE', *, *, #205, .F. ) ;
#265 = CARTESIAN_POINT ( 'NONE',  ( 0.06250000000000002776, 7.654042494670959086E-18, 1.485000000000000764 ) ) ;
#266 = VECTOR ( 'NONE', #153, 39.37007874015748854 ) ;
#267 = EDGE_CURVE ( 'NONE', #260, #97, #211, .T. ) ;
#268 = ORIENTED_EDGE ( 'NONE', *, *, #205, .T. ) ;
#269 = VERTEX_POINT ( 'NONE', #32 ) ;
#270 = VERTEX_POINT ( 'NONE', #9 ) ;
#271 = CYLINDRICAL_SURFACE ( 'NONE', #277, 0.06250000000000002776 ) ;
#272 = AXIS2_PLACEMENT_3D ( 'NONE', #24, #157, #139 ) ;
#273 = DIRECTION ( 'NONE',  ( -1.000000000000000000, 0.0000000000000000000, 1.224646799147353700E-16 ) ) ;
#274 = EDGE_CURVE ( 'NONE', #12, #62, #95, .T. ) ;
#275 = DIRECTION ( 'NONE',  ( 0.0000000000000000000, 0.0000000000000000000, -1.000000000000000000 ) ) ;
#276 = ADVANCED_FACE ( 'NONE', ( #278 ), #280, .T. ) ;
#277 = AXIS2_PLACEMENT_3D ( 'NONE', #2, #71, #1 ) ;
#278 = FACE_OUTER_BOUND ( 'NONE', #235, .T. ) ;
#279 = ADVANCED_FACE ( 'NONE', ( #77 ), #102, .T. ) ;
#280 = PLANE ( 'NONE',  #35 ) ;
#281 = ORIENTED_EDGE ( 'NONE', *, *, #120, .F. ) ;
#282 = ORIENTED_EDGE ( 'NONE', *, *, #248, .F. ) ;
#283 = DIRECTION ( 'NONE',  ( -1.000000000000000000, 0.0000000000000000000, 0.0000000000000000000 ) ) ;
#284 = VERTEX_POINT ( 'NONE', #51 ) ;
#285 = SURFACE_STYLE_USAGE ( .BOTH. , #232 ) ;
#286 = CONICAL_SURFACE ( 'NONE', #7, 0.002497499999999990613, 0.1745329251994338915 ) ;
#287 = EDGE_LOOP ( 'NONE', ( #294, #84 ) ) ;
#288 = PRODUCT ( 'Micro_SME-005-2', 'Micro_SME-005-2', '', ( #59 ) ) ;
#289 = DIRECTION ( 'NONE',  ( -1.224646799147353700E-16, -0.0000000000000000000, -1.000000000000000000 ) ) ;
#290 = FILL_AREA_STYLE_COLOUR ( '', #291 ) ;
#291 = COLOUR_RGB ( '',0.7921568627450980005, 0.8196078431372548767, 0.9333333333333333481 ) ;
#292 = VECTOR ( 'NONE', #66, 39.37007874015747433 ) ;
#293 = EDGE_CURVE ( 'NONE', #55, #284, #48, .T. ) ;
#294 = ORIENTED_EDGE ( 'NONE', *, *, #8, .T. ) ;
#295 = CYLINDRICAL_SURFACE ( 'NONE', #251, 0.002497499999999991047 ) ;
#296 = CARTESIAN_POINT ( 'NONE',  ( -0.04750000000000064587, 0.0000000000000000000, 1.500000000000000222 ) ) ;
#297 = CYLINDRICAL_SURFACE ( 'NONE', #42, 0.002497499999999991047 ) ;
#298 = VECTOR ( 'NONE', #129, 39.37007874015748143 ) ;
#299 = DIRECTION ( 'NONE',  ( -1.224646799147353700E-16, -0.0000000000000000000, -1.000000000000000000 ) ) ;
ENDSEC;
END-ISO-10303-21;
