ISO-10303-21;
HEADER;
FILE_DESCRIPTION (( 'STEP AP214' ),
    '1' );
FILE_NAME ('Micro_RSC-500-1X.STEP',
    '2021-09-03T17:53:55',
    ( '' ),
    ( '' ),
    'SwSTEP 2.0',
    'SolidWorks 2020',
    '' );
FILE_SCHEMA (( 'AUTOMOTIVE_DESIGN' ));
ENDSEC;

DATA;
#1 = FACE_OUTER_BOUND ( 'NONE', #132, .T. ) ;
#2 = FACE_OUTER_BOUND ( 'NONE', #93, .T. ) ;
#3 = CONICAL_SURFACE ( 'NONE', #72, 0.003999999999999999216, 0.5235987755983003700 ) ;
#4 = FACE_OUTER_BOUND ( 'NONE', #155, .T. ) ;
#5 = DIRECTION ( 'NONE',  ( 1.000000000000000000, 0.0000000000000000000, -0.0000000000000000000 ) ) ;
#6 = SURFACE_SIDE_STYLE ('',( #151 ) ) ;
#7 = PRODUCT_DEFINITION_FORMATION_WITH_SPECIFIED_SOURCE ( 'ANY', '', #236, .NOT_KNOWN. ) ;
#8 = DIRECTION ( 'NONE',  ( 1.000000000000000000, 0.0000000000000000000, 0.0000000000000000000 ) ) ;
#9 = CIRCLE ( 'NONE', #133, 0.003999999999999999216 ) ;
#10 = DIRECTION ( 'NONE',  ( -1.000000000000000000, 0.0000000000000000000, 0.0000000000000000000 ) ) ;
#11 =( CONVERSION_BASED_UNIT ( 'INCH', #205 ) LENGTH_UNIT ( ) NAMED_UNIT ( #64 ) );
#12 = ORIENTED_EDGE ( 'NONE', *, *, #57, .T. ) ;
#13 = CIRCLE ( 'NONE', #39, 0.2500000000000000000 ) ;
#14 = ORIENTED_EDGE ( 'NONE', *, *, #74, .T. ) ;
#15 = CLOSED_SHELL ( 'NONE', ( #182, #88, #218, #41, #31, #112, #152, #147 ) ) ;
#16 = CARTESIAN_POINT ( 'NONE',  ( 0.0000000000000000000, 0.0000000000000000000, 0.0000000000000000000 ) ) ;
#17 = DIRECTION ( 'NONE',  ( 0.0000000000000000000, 0.0000000000000000000, 1.000000000000000000 ) ) ;
#18 = CARTESIAN_POINT ( 'NONE',  ( 0.003999999999999999216, 0.0000000000000000000, 0.0000000000000000000 ) ) ;
#19 = CARTESIAN_POINT ( 'NONE',  ( 0.0000000000000000000, 0.0000000000000000000, 0.4260844986619422570 ) ) ;
#20 = STYLED_ITEM ( 'NONE', ( #126 ), #145 ) ;
#21 =( GEOMETRIC_REPRESENTATION_CONTEXT ( 3 ) GLOBAL_UNCERTAINTY_ASSIGNED_CONTEXT ( ( #202 ) ) GLOBAL_UNIT_ASSIGNED_CONTEXT ( ( #186, #187, #73 ) ) REPRESENTATION_CONTEXT ( 'NONE', 'WORKASPACE' ) );
#22 = DIRECTION ( 'NONE',  ( 0.0000000000000000000, 0.0000000000000000000, -1.000000000000000000 ) ) ;
#23 = CARTESIAN_POINT ( 'NONE',  ( 0.0000000000000000000, 0.0000000000000000000, 0.4260844986619422570 ) ) ;
#24 = CYLINDRICAL_SURFACE ( 'NONE', #101, 0.2500000000000000000 ) ;
#25 = EDGE_CURVE ( 'NONE', #61, #178, #146, .T. ) ;
#26 = SHAPE_DEFINITION_REPRESENTATION ( #120, #193 ) ;
#27 = FILL_AREA_STYLE_COLOUR ( '', #190 ) ;
#28 = DIMENSIONAL_EXPONENTS ( 1.000000000000000000, 0.0000000000000000000, 0.0000000000000000000, 0.0000000000000000000, 0.0000000000000000000, 0.0000000000000000000, 0.0000000000000000000 ) ;
#29 = PRESENTATION_STYLE_ASSIGNMENT (( #223 ) ) ;
#30 = LINE ( 'NONE', #92, #161 ) ;
#31 = ADVANCED_FACE ( 'NONE', ( #173 ), #248, .T. ) ;
#32 = VECTOR ( 'NONE', #199, 39.37007874015748143 ) ;
#33 = AXIS2_PLACEMENT_3D ( 'NONE', #124, #150, #200 ) ;
#34 = DIRECTION ( 'NONE',  ( -0.0000000000000000000, -0.0000000000000000000, -1.000000000000000000 ) ) ;
#35 = VERTEX_POINT ( 'NONE', #78 ) ;
#36 = CARTESIAN_POINT ( 'NONE',  ( -0.003999999999999999216, 4.898587196589411612E-19, 0.0000000000000000000 ) ) ;
#37 = EDGE_CURVE ( 'NONE', #137, #234, #157, .T. ) ;
#38 = DIRECTION ( 'NONE',  ( -1.000000000000000000, 0.0000000000000000000, 0.0000000000000000000 ) ) ;
#39 = AXIS2_PLACEMENT_3D ( 'NONE', #23, #237, #181 ) ;
#40 = DIRECTION ( 'NONE',  ( 0.0000000000000000000, 0.0000000000000000000, -1.000000000000000000 ) ) ;
#41 = ADVANCED_FACE ( 'NONE', ( #227 ), #231, .T. ) ;
#42 = CARTESIAN_POINT ( 'NONE',  ( -0.2500000000000000000, 0.0000000000000000000, 3.000000000000000444 ) ) ;
#43 = AXIS2_PLACEMENT_3D ( 'NONE', #220, #68, #62 ) ;
#44 = AXIS2_PLACEMENT_3D ( 'NONE', #111, #244, #49 ) ;
#45 = APPLICATION_CONTEXT ( 'automotive_design' ) ;
#46 =( LENGTH_UNIT ( ) NAMED_UNIT ( * ) SI_UNIT ( $, .METRE. ) );
#47 = FILL_AREA_STYLE_COLOUR ( '', #185 ) ;
#48 = FILL_AREA_STYLE ('',( #27 ) ) ;
#49 = DIRECTION ( 'NONE',  ( 1.000000000000000000, 0.0000000000000000000, 0.0000000000000000000 ) ) ;
#50 = EDGE_LOOP ( 'NONE', ( #171, #115, #222, #114 ) ) ;
#51 = ORIENTED_EDGE ( 'NONE', *, *, #177, .T. ) ;
#52 = CONICAL_SURFACE ( 'NONE', #69, 0.003999999999999999216, 0.5235987755983003700 ) ;
#53 = DIRECTION ( 'NONE',  ( 1.000000000000000000, 0.0000000000000000000, 0.0000000000000000000 ) ) ;
#54 = VERTEX_POINT ( 'NONE', #213 ) ;
#55 = DIRECTION ( 'NONE',  ( -1.000000000000000000, 0.0000000000000000000, 0.0000000000000000000 ) ) ;
#56 = EDGE_LOOP ( 'NONE', ( #14, #232 ) ) ;
#57 = EDGE_CURVE ( 'NONE', #158, #211, #212, .T. ) ;
#58 = CARTESIAN_POINT ( 'NONE',  ( 0.0000000000000000000, 0.0000000000000000000, 3.000000000000000444 ) ) ;
#59 = CARTESIAN_POINT ( 'NONE',  ( 0.0000000000000000000, 0.0000000000000000000, 3.000000000000000444 ) ) ;
#60 = DIMENSIONAL_EXPONENTS ( 1.000000000000000000, 0.0000000000000000000, 0.0000000000000000000, 0.0000000000000000000, 0.0000000000000000000, 0.0000000000000000000, 0.0000000000000000000 ) ;
#61 = VERTEX_POINT ( 'NONE', #194 ) ;
#62 = DIRECTION ( 'NONE',  ( -1.000000000000000000, 0.0000000000000000000, 0.0000000000000000000 ) ) ;
#63 = DIRECTION ( 'NONE',  ( 0.0000000000000000000, 0.0000000000000000000, 1.000000000000000000 ) ) ;
#64 = DIMENSIONAL_EXPONENTS ( 1.000000000000000000, 0.0000000000000000000, 0.0000000000000000000, 0.0000000000000000000, 0.0000000000000000000, 0.0000000000000000000, 0.0000000000000000000 ) ;
#65 = APPLICATION_CONTEXT ( 'automotive_design' ) ;
#66 = CARTESIAN_POINT ( 'NONE',  ( 0.0000000000000000000, 0.0000000000000000000, 2.985000000000001208 ) ) ;
#67 = EDGE_CURVE ( 'NONE', #54, #158, #9, .T. ) ;
#68 = DIRECTION ( 'NONE',  ( 0.0000000000000000000, 0.0000000000000000000, -1.000000000000000000 ) ) ;
#69 = AXIS2_PLACEMENT_3D ( 'NONE', #216, #162, #149 ) ;
#70 = CARTESIAN_POINT ( 'NONE',  ( 0.0000000000000000000, 0.0000000000000000000, 0.0000000000000000000 ) ) ;
#71 = ORIENTED_EDGE ( 'NONE', *, *, #95, .T. ) ;
#72 = AXIS2_PLACEMENT_3D ( 'NONE', #84, #63, #8 ) ;
#73 =( NAMED_UNIT ( * ) SI_UNIT ( $, .STERADIAN. ) SOLID_ANGLE_UNIT ( ) );
#74 = EDGE_CURVE ( 'NONE', #137, #35, #228, .T. ) ;
#75 = ORIENTED_EDGE ( 'NONE', *, *, #99, .F. ) ;
#76 = ORIENTED_EDGE ( 'NONE', *, *, #25, .T. ) ;
#77 = ORIENTED_EDGE ( 'NONE', *, *, #224, .T. ) ;
#78 = CARTESIAN_POINT ( 'NONE',  ( 0.2350000000000011524, 2.969768487932338510E-17, 3.000000000000000444 ) ) ;
#79 = ORIENTED_EDGE ( 'NONE', *, *, #67, .T. ) ;
#80 = ORIENTED_EDGE ( 'NONE', *, *, #201, .F. ) ;
#81 = CIRCLE ( 'NONE', #113, 0.2500000000000000000 ) ;
#82 = DIRECTION ( 'NONE',  ( 0.0000000000000000000, 0.0000000000000000000, -1.000000000000000000 ) ) ;
#83 = STYLED_ITEM ( 'NONE', ( #29 ), #193 ) ;
#84 = CARTESIAN_POINT ( 'NONE',  ( 0.0000000000000000000, 0.0000000000000000000, 0.0000000000000000000 ) ) ;
#85 = DIRECTION ( 'NONE',  ( 1.000000000000000000, 0.0000000000000000000, 0.0000000000000000000 ) ) ;
#86 = CARTESIAN_POINT ( 'NONE',  ( 0.0000000000000000000, 0.0000000000000000000, 0.0000000000000000000 ) ) ;
#87 = CONICAL_SURFACE ( 'NONE', #43, 0.2350000000000011524, 0.7853981633974380649 ) ;
#88 = ADVANCED_FACE ( 'NONE', ( #1 ), #243, .T. ) ;
#89 = SURFACE_SIDE_STYLE ('',( #131 ) ) ;
#90 = DIRECTION ( 'NONE',  ( 0.7071067811865402453, 8.659560562354845344E-17, -0.7071067811865546782 ) ) ;
#91 = EDGE_CURVE ( 'NONE', #54, #178, #196, .T. ) ;
#92 = CARTESIAN_POINT ( 'NONE',  ( 0.2350000000000011524, 2.877919977996294002E-17, 3.000000000000000444 ) ) ;
#93 = EDGE_LOOP ( 'NONE', ( #174, #116, #245, #96 ) ) ;
#94 = ORIENTED_EDGE ( 'NONE', *, *, #37, .F. ) ;
#95 = EDGE_CURVE ( 'NONE', #234, #61, #81, .T. ) ;
#96 = ORIENTED_EDGE ( 'NONE', *, *, #129, .T. ) ;
#97 = DIRECTION ( 'NONE',  ( -0.5000000000000012212, 6.123233995736780827E-17, 0.8660254037844377084 ) ) ;
#98 = CARTESIAN_POINT ( 'NONE',  ( -0.2350000000000011524, 0.0000000000000000000, 3.000000000000000444 ) ) ;
#99 = EDGE_CURVE ( 'NONE', #234, #211, #105, .T. ) ;
#100 = DIRECTION ( 'NONE',  ( 0.5000000000000012212, 0.0000000000000000000, 0.8660254037844377084 ) ) ;
#101 = AXIS2_PLACEMENT_3D ( 'NONE', #204, #221, #10 ) ;
#102 =( CONVERSION_BASED_UNIT ( 'INCH', #164 ) LENGTH_UNIT ( ) NAMED_UNIT ( #60 ) );
#103 = DIRECTION ( 'NONE',  ( 0.0000000000000000000, 0.0000000000000000000, 1.000000000000000000 ) ) ;
#104 = CARTESIAN_POINT ( 'NONE',  ( -0.2350000000000011524, 0.0000000000000000000, 3.000000000000000444 ) ) ;
#105 = LINE ( 'NONE', #42, #32 ) ;
#106 = VECTOR ( 'NONE', #34, 39.37007874015748143 ) ;
#107 = PLANE ( 'NONE',  #134 ) ;
#108 = UNCERTAINTY_MEASURE_WITH_UNIT (LENGTH_MEASURE( 1.000000000000000082E-05 ), #11, 'distance_accuracy_value', 'NONE');
#109 =( NAMED_UNIT ( * ) SI_UNIT ( $, .STERADIAN. ) SOLID_ANGLE_UNIT ( ) );
#110 = MECHANICAL_DESIGN_GEOMETRIC_PRESENTATION_REPRESENTATION (  '', ( #20 ), #198 ) ;
#111 = CARTESIAN_POINT ( 'NONE',  ( 0.0000000000000000000, 0.0000000000000000000, 3.000000000000000444 ) ) ;
#112 = ADVANCED_FACE ( 'NONE', ( #121 ), #87, .T. ) ;
#113 = AXIS2_PLACEMENT_3D ( 'NONE', #240, #22, #85 ) ;
#114 = ORIENTED_EDGE ( 'NONE', *, *, #177, .F. ) ;
#115 = ORIENTED_EDGE ( 'NONE', *, *, #74, .F. ) ;
#116 = ORIENTED_EDGE ( 'NONE', *, *, #67, .F. ) ;
#117 = AXIS2_PLACEMENT_3D ( 'NONE', #66, #82, #163 ) ;
#118 = ORIENTED_EDGE ( 'NONE', *, *, #246, .F. ) ;
#119 = DIRECTION ( 'NONE',  ( -1.000000000000000000, 0.0000000000000000000, 0.0000000000000000000 ) ) ;
#120 = PRODUCT_DEFINITION_SHAPE ( 'NONE', 'NONE',  #169 ) ;
#121 = FACE_OUTER_BOUND ( 'NONE', #50, .T. ) ;
#122 = PRODUCT_RELATED_PRODUCT_CATEGORY ( 'part', '', ( #236 ) ) ;
#123 = DIRECTION ( 'NONE',  ( -1.000000000000000000, 0.0000000000000000000, 0.0000000000000000000 ) ) ;
#124 = CARTESIAN_POINT ( 'NONE',  ( 0.0000000000000000000, 0.0000000000000000000, 0.0000000000000000000 ) ) ;
#125 = CARTESIAN_POINT ( 'NONE',  ( -0.003999999999999999216, 1.555301434917138211E-17, 0.0000000000000000000 ) ) ;
#126 = PRESENTATION_STYLE_ASSIGNMENT (( #239 ) ) ;
#127 = VECTOR ( 'NONE', #97, 39.37007874015748854 ) ;
#128 = CIRCLE ( 'NONE', #117, 0.2500000000000000000 ) ;
#129 = EDGE_CURVE ( 'NONE', #178, #211, #241, .T. ) ;
#130 =( LENGTH_UNIT ( ) NAMED_UNIT ( * ) SI_UNIT ( $, .METRE. ) );
#131 = SURFACE_STYLE_FILL_AREA ( #48 ) ;
#132 = EDGE_LOOP ( 'NONE', ( #118, #77, #175, #94 ) ) ;
#133 = AXIS2_PLACEMENT_3D ( 'NONE', #16, #215, #38 ) ;
#134 = AXIS2_PLACEMENT_3D ( 'NONE', #86, #103, #5 ) ;
#135 = CARTESIAN_POINT ( 'NONE',  ( -0.2500000000000000000, 0.0000000000000000000, 2.985000000000001208 ) ) ;
#136 = PRODUCT_CONTEXT ( 'NONE', #65, 'mechanical' ) ;
#137 = VERTEX_POINT ( 'NONE', #104 ) ;
#138 = DIRECTION ( 'NONE',  ( -0.7071067811865402453, 0.0000000000000000000, -0.7071067811865546782 ) ) ;
#139 = AXIS2_PLACEMENT_3D ( 'NONE', #58, #142, #55 ) ;
#140 = MECHANICAL_DESIGN_GEOMETRIC_PRESENTATION_REPRESENTATION (  '', ( #83 ), #21 ) ;
#141 = ORIENTED_EDGE ( 'NONE', *, *, #129, .F. ) ;
#142 = DIRECTION ( 'NONE',  ( -0.0000000000000000000, -0.0000000000000000000, -1.000000000000000000 ) ) ;
#143 = EDGE_LOOP ( 'NONE', ( #188, #51, #209, #141 ) ) ;
#144 = AXIS2_PLACEMENT_3D ( 'NONE', #159, #40, #119 ) ;
#145 = MANIFOLD_SOLID_BREP ( 'Cut-Revolve1', #15 ) ;
#146 = LINE ( 'NONE', #191, #106 ) ;
#147 = ADVANCED_FACE ( 'NONE', ( #4 ), #107, .F. ) ;
#148 = FACE_OUTER_BOUND ( 'NONE', #242, .T. ) ;
#149 = DIRECTION ( 'NONE',  ( 1.000000000000000000, 0.0000000000000000000, 0.0000000000000000000 ) ) ;
#150 = DIRECTION ( 'NONE',  ( -0.0000000000000000000, -0.0000000000000000000, -1.000000000000000000 ) ) ;
#151 = SURFACE_STYLE_FILL_AREA ( #238 ) ;
#152 = ADVANCED_FACE ( 'NONE', ( #2 ), #3, .T. ) ;
#153 = DIRECTION ( 'NONE',  ( 0.0000000000000000000, 0.0000000000000000000, 1.000000000000000000 ) ) ;
#154 = DIRECTION ( 'NONE',  ( 1.000000000000000000, 0.0000000000000000000, -0.0000000000000000000 ) ) ;
#155 = EDGE_LOOP ( 'NONE', ( #79, #192 ) ) ;
#156 =( GEOMETRIC_REPRESENTATION_CONTEXT ( 3 ) GLOBAL_UNCERTAINTY_ASSIGNED_CONTEXT ( ( #108 ) ) GLOBAL_UNIT_ASSIGNED_CONTEXT ( ( #11, #206, #109 ) ) REPRESENTATION_CONTEXT ( 'NONE', 'WORKASPACE' ) );
#157 = LINE ( 'NONE', #98, #189 ) ;
#158 = VERTEX_POINT ( 'NONE', #125 ) ;
#159 = CARTESIAN_POINT ( 'NONE',  ( 0.0000000000000000000, 0.0000000000000000000, 3.000000000000000444 ) ) ;
#160 = VECTOR ( 'NONE', #100, 39.37007874015748854 ) ;
#161 = VECTOR ( 'NONE', #90, 39.37007874015748854 ) ;
#162 = DIRECTION ( 'NONE',  ( 0.0000000000000000000, 0.0000000000000000000, 1.000000000000000000 ) ) ;
#163 = DIRECTION ( 'NONE',  ( 1.000000000000000000, 0.0000000000000000000, 0.0000000000000000000 ) ) ;
#164 = LENGTH_MEASURE_WITH_UNIT ( LENGTH_MEASURE( 0.02539999999999999897 ), #46 );
#165 = AXIS2_PLACEMENT_3D ( 'NONE', #59, #229, #154 ) ;
#166 = CARTESIAN_POINT ( 'NONE',  ( 0.2500000000000000000, 3.061616997868382402E-17, 0.4260844986619422570 ) ) ;
#167 = FACE_OUTER_BOUND ( 'NONE', #247, .T. ) ;
#168 = PRESENTATION_LAYER_ASSIGNMENT (  '', '', ( #20 ) ) ;
#169 = PRODUCT_DEFINITION ( 'UNKNOWN', '', #7, #233 ) ;
#170 = LENGTH_MEASURE_WITH_UNIT ( LENGTH_MEASURE( 0.02539999999999999897 ), #130 );
#171 = ORIENTED_EDGE ( 'NONE', *, *, #224, .F. ) ;
#172 = AXIS2_PLACEMENT_3D ( 'NONE', #19, #180, #123 ) ;
#173 = FACE_OUTER_BOUND ( 'NONE', #56, .T. ) ;
#174 = ORIENTED_EDGE ( 'NONE', *, *, #57, .F. ) ;
#175 = ORIENTED_EDGE ( 'NONE', *, *, #95, .F. ) ;
#176 = DIRECTION ( 'NONE',  ( 1.000000000000000000, 0.0000000000000000000, 0.0000000000000000000 ) ) ;
#177 = EDGE_CURVE ( 'NONE', #61, #234, #128, .T. ) ;
#178 = VERTEX_POINT ( 'NONE', #166 ) ;
#179 = CIRCLE ( 'NONE', #44, 0.2350000000000011524 ) ;
#180 = DIRECTION ( 'NONE',  ( -0.0000000000000000000, -0.0000000000000000000, -1.000000000000000000 ) ) ;
#181 = DIRECTION ( 'NONE',  ( -1.000000000000000000, 0.0000000000000000000, 0.0000000000000000000 ) ) ;
#182 = ADVANCED_FACE ( 'NONE', ( #148 ), #52, .T. ) ;
#183 = AXIS2_PLACEMENT_3D ( 'NONE', #195, #17, #176 ) ;
#184 =( LENGTH_UNIT ( ) NAMED_UNIT ( * ) SI_UNIT ( $, .METRE. ) );
#185 = COLOUR_RGB ( '',0.7921568627450980005, 0.8196078431372548767, 0.9333333333333333481 ) ;
#186 =( CONVERSION_BASED_UNIT ( 'INCH', #170 ) LENGTH_UNIT ( ) NAMED_UNIT ( #28 ) );
#187 =( NAMED_UNIT ( * ) PLANE_ANGLE_UNIT ( ) SI_UNIT ( $, .RADIAN. ) );
#188 = ORIENTED_EDGE ( 'NONE', *, *, #25, .F. ) ;
#189 = VECTOR ( 'NONE', #138, 39.37007874015748854 ) ;
#190 = COLOUR_RGB ( '',0.7921568627450980005, 0.8196078431372548767, 0.9333333333333333481 ) ;
#191 = CARTESIAN_POINT ( 'NONE',  ( 0.2500000000000000000, 3.061616997868382402E-17, 3.000000000000000444 ) ) ;
#192 = ORIENTED_EDGE ( 'NONE', *, *, #201, .T. ) ;
#193 = ADVANCED_BREP_SHAPE_REPRESENTATION ( 'Micro_RSC-500-1X', ( #145, #214 ), #156 ) ;
#194 = CARTESIAN_POINT ( 'NONE',  ( 0.2500000000000000000, 3.061616997868382402E-17, 2.985000000000001208 ) ) ;
#195 = CARTESIAN_POINT ( 'NONE',  ( 0.0000000000000000000, 0.0000000000000000000, 3.000000000000000444 ) ) ;
#196 = LINE ( 'NONE', #18, #160 ) ;
#197 =( NAMED_UNIT ( * ) SI_UNIT ( $, .STERADIAN. ) SOLID_ANGLE_UNIT ( ) );
#198 =( GEOMETRIC_REPRESENTATION_CONTEXT ( 3 ) GLOBAL_UNCERTAINTY_ASSIGNED_CONTEXT ( ( #217 ) ) GLOBAL_UNIT_ASSIGNED_CONTEXT ( ( #102, #203, #197 ) ) REPRESENTATION_CONTEXT ( 'NONE', 'WORKASPACE' ) );
#199 = DIRECTION ( 'NONE',  ( -0.0000000000000000000, -0.0000000000000000000, -1.000000000000000000 ) ) ;
#200 = DIRECTION ( 'NONE',  ( -1.000000000000000000, 0.0000000000000000000, 0.0000000000000000000 ) ) ;
#201 = EDGE_CURVE ( 'NONE', #158, #54, #235, .T. ) ;
#202 = UNCERTAINTY_MEASURE_WITH_UNIT (LENGTH_MEASURE( 1.000000000000000082E-05 ), #186, 'distance_accuracy_value', 'NONE');
#203 =( NAMED_UNIT ( * ) PLANE_ANGLE_UNIT ( ) SI_UNIT ( $, .RADIAN. ) );
#204 = CARTESIAN_POINT ( 'NONE',  ( 0.0000000000000000000, 0.0000000000000000000, 3.000000000000000444 ) ) ;
#205 = LENGTH_MEASURE_WITH_UNIT ( LENGTH_MEASURE( 0.02539999999999999897 ), #184 );
#206 =( NAMED_UNIT ( * ) PLANE_ANGLE_UNIT ( ) SI_UNIT ( $, .RADIAN. ) );
#207 = ORIENTED_EDGE ( 'NONE', *, *, #91, .F. ) ;
#208 = APPLICATION_PROTOCOL_DEFINITION ( 'draft international standard', 'automotive_design', 1998, #45 ) ;
#209 = ORIENTED_EDGE ( 'NONE', *, *, #99, .T. ) ;
#210 = EDGE_CURVE ( 'NONE', #211, #178, #13, .T. ) ;
#211 = VERTEX_POINT ( 'NONE', #219 ) ;
#212 = LINE ( 'NONE', #36, #127 ) ;
#213 = CARTESIAN_POINT ( 'NONE',  ( 0.003999999999999999216, 0.0000000000000000000, 0.0000000000000000000 ) ) ;
#214 = AXIS2_PLACEMENT_3D ( 'NONE', #70, #153, #53 ) ;
#215 = DIRECTION ( 'NONE',  ( -0.0000000000000000000, -0.0000000000000000000, -1.000000000000000000 ) ) ;
#216 = CARTESIAN_POINT ( 'NONE',  ( 0.0000000000000000000, 0.0000000000000000000, 0.0000000000000000000 ) ) ;
#217 = UNCERTAINTY_MEASURE_WITH_UNIT (LENGTH_MEASURE( 1.000000000000000082E-05 ), #102, 'distance_accuracy_value', 'NONE');
#218 = ADVANCED_FACE ( 'NONE', ( #167 ), #24, .T. ) ;
#219 = CARTESIAN_POINT ( 'NONE',  ( -0.2500000000000000000, 0.0000000000000000000, 0.4260844986619422570 ) ) ;
#220 = CARTESIAN_POINT ( 'NONE',  ( 0.0000000000000000000, 0.0000000000000000000, 3.000000000000000444 ) ) ;
#221 = DIRECTION ( 'NONE',  ( -0.0000000000000000000, -0.0000000000000000000, -1.000000000000000000 ) ) ;
#222 = ORIENTED_EDGE ( 'NONE', *, *, #37, .T. ) ;
#223 = SURFACE_STYLE_USAGE ( .BOTH. , #89 ) ;
#224 = EDGE_CURVE ( 'NONE', #35, #61, #30, .T. ) ;
#225 = APPLICATION_PROTOCOL_DEFINITION ( 'draft international standard', 'automotive_design', 1998, #65 ) ;
#226 = ORIENTED_EDGE ( 'NONE', *, *, #210, .T. ) ;
#227 = FACE_OUTER_BOUND ( 'NONE', #143, .T. ) ;
#228 = CIRCLE ( 'NONE', #183, 0.2350000000000011524 ) ;
#229 = DIRECTION ( 'NONE',  ( 0.0000000000000000000, 0.0000000000000000000, 1.000000000000000000 ) ) ;
#230 = PRESENTATION_LAYER_ASSIGNMENT (  '', '', ( #83 ) ) ;
#231 = CYLINDRICAL_SURFACE ( 'NONE', #139, 0.2500000000000000000 ) ;
#232 = ORIENTED_EDGE ( 'NONE', *, *, #246, .T. ) ;
#233 = PRODUCT_DEFINITION_CONTEXT ( 'detailed design', #45, 'design' ) ;
#234 = VERTEX_POINT ( 'NONE', #135 ) ;
#235 = CIRCLE ( 'NONE', #33, 0.003999999999999999216 ) ;
#236 = PRODUCT ( 'Micro_RSC-500-1X', 'Micro_RSC-500-1X', '', ( #136 ) ) ;
#237 = DIRECTION ( 'NONE',  ( -0.0000000000000000000, -0.0000000000000000000, -1.000000000000000000 ) ) ;
#238 = FILL_AREA_STYLE ('',( #47 ) ) ;
#239 = SURFACE_STYLE_USAGE ( .BOTH. , #6 ) ;
#240 = CARTESIAN_POINT ( 'NONE',  ( 0.0000000000000000000, 0.0000000000000000000, 2.985000000000001208 ) ) ;
#241 = CIRCLE ( 'NONE', #172, 0.2500000000000000000 ) ;
#242 = EDGE_LOOP ( 'NONE', ( #80, #12, #226, #207 ) ) ;
#243 = CONICAL_SURFACE ( 'NONE', #144, 0.2350000000000011524, 0.7853981633974380649 ) ;
#244 = DIRECTION ( 'NONE',  ( 0.0000000000000000000, 0.0000000000000000000, 1.000000000000000000 ) ) ;
#245 = ORIENTED_EDGE ( 'NONE', *, *, #91, .T. ) ;
#246 = EDGE_CURVE ( 'NONE', #35, #137, #179, .T. ) ;
#247 = EDGE_LOOP ( 'NONE', ( #71, #76, #249, #75 ) ) ;
#248 = PLANE ( 'NONE',  #165 ) ;
#249 = ORIENTED_EDGE ( 'NONE', *, *, #210, .F. ) ;
ENDSEC;
END-ISO-10303-21;
