ISO-10303-21;
HEADER;
FILE_DESCRIPTION (( 'STEP AP214' ),
    '1' );
FILE_NAME ('Micro_BEM-156-03X.STEP',
    '2021-09-03T13:03:27',
    ( '' ),
    ( '' ),
    'SwSTEP 2.0',
    'SolidWorks 2020',
    '' );
FILE_SCHEMA (( 'AUTOMOTIVE_DESIGN' ));
ENDSEC;

DATA;
#1 = FILL_AREA_STYLE_COLOUR ( '', #118 ) ;
#2 = UNCERTAINTY_MEASURE_WITH_UNIT (LENGTH_MEASURE( 1.000000000000000082E-05 ), #55, 'distance_accuracy_value', 'NONE');
#3 = CIRCLE ( 'NONE', #70, 0.07802190000000000514 ) ;
#4 = DIRECTION ( 'NONE',  ( -0.7071067811865463515, 0.0000000000000000000, -0.7071067811865486830 ) ) ;
#5 = AXIS2_PLACEMENT_3D ( 'NONE', #143, #238, #94 ) ;
#6 = PRODUCT_DEFINITION_SHAPE ( 'NONE', 'NONE',  #134 ) ;
#7 = ORIENTED_EDGE ( 'NONE', *, *, #249, .T. ) ;
#8 = ORIENTED_EDGE ( 'NONE', *, *, #217, .T. ) ;
#9 = CARTESIAN_POINT ( 'NONE',  ( 0.07802190000000007453, 0.0000000000000000000, 0.5629999999999999449 ) ) ;
#10 = CONICAL_SURFACE ( 'NONE', #38, 0.07874999999999980627, 0.7853981633974466137 ) ;
#11 = VECTOR ( 'NONE', #92, 39.37007874015748143 ) ;
#12 = EDGE_CURVE ( 'NONE', #291, #268, #321, .T. ) ;
#13 = SPHERICAL_SURFACE ( 'NONE', #137, 0.07802190000000000514 ) ;
#14 = FACE_OUTER_BOUND ( 'NONE', #148, .T. ) ;
#15 = AXIS2_PLACEMENT_3D ( 'NONE', #170, #172, #213 ) ;
#16 = CARTESIAN_POINT ( 'NONE',  ( 0.0000000000000000000, 0.0000000000000000000, 2.000000000000000000 ) ) ;
#17 = FACE_OUTER_BOUND ( 'NONE', #175, .T. ) ;
#18 = FACE_OUTER_BOUND ( 'NONE', #19, .T. ) ;
#19 = EDGE_LOOP ( 'NONE', ( #22, #300 ) ) ;
#20 = ADVANCED_FACE ( 'NONE', ( #198 ), #124, .T. ) ;
#21 = CYLINDRICAL_SURFACE ( 'NONE', #176, 0.07802190000000000514 ) ;
#22 = ORIENTED_EDGE ( 'NONE', *, *, #119, .T. ) ;
#23 = DIRECTION ( 'NONE',  ( 1.000000000000000000, 0.0000000000000000000, 0.0000000000000000000 ) ) ;
#24 =( LENGTH_UNIT ( ) NAMED_UNIT ( * ) SI_UNIT ( $, .METRE. ) );
#25 = AXIS2_PLACEMENT_3D ( 'NONE', #51, #56, #223 ) ;
#26 = AXIS2_PLACEMENT_3D ( 'NONE', #243, #171, #23 ) ;
#27 = PRESENTATION_STYLE_ASSIGNMENT (( #218 ) ) ;
#28 = ORIENTED_EDGE ( 'NONE', *, *, #217, .F. ) ;
#29 = SURFACE_SIDE_STYLE ('',( #248 ) ) ;
#30 = EDGE_CURVE ( 'NONE', #84, #142, #109, .T. ) ;
#31 = ORIENTED_EDGE ( 'NONE', *, *, #104, .T. ) ;
#32 = STYLED_ITEM ( 'NONE', ( #27 ), #187 ) ;
#33 = ORIENTED_EDGE ( 'NONE', *, *, #229, .F. ) ;
#34 = CARTESIAN_POINT ( 'NONE',  ( 0.07874999999999980627, 9.644093543285380530E-18, 2.000000000000000000 ) ) ;
#35 = DIMENSIONAL_EXPONENTS ( 1.000000000000000000, 0.0000000000000000000, 0.0000000000000000000, 0.0000000000000000000, 0.0000000000000000000, 0.0000000000000000000, 0.0000000000000000000 ) ;
#36 = DIRECTION ( 'NONE',  ( 1.000000000000000000, 0.0000000000000000000, 0.0000000000000000000 ) ) ;
#37 = CARTESIAN_POINT ( 'NONE',  ( -0.07802189999999993575, 1.051799537592296220E-17, 0.5629999999999999449 ) ) ;
#38 = AXIS2_PLACEMENT_3D ( 'NONE', #258, #111, #136 ) ;
#39 = SPHERICAL_SURFACE ( 'NONE', #315, 0.07802190000000000514 ) ;
#40 = CARTESIAN_POINT ( 'NONE',  ( 6.894761479199598081E-17, 0.0000000000000000000, 0.5629999999999999449 ) ) ;
#41 = FACE_OUTER_BOUND ( 'NONE', #195, .T. ) ;
#42 = CONICAL_SURFACE ( 'NONE', #239, 0.07802190000000000514, 0.1745329251994338082 ) ;
#43 = ADVANCED_FACE ( 'NONE', ( #149 ), #255, .T. ) ;
#44 = CARTESIAN_POINT ( 'NONE',  ( 0.0000000000000000000, 0.0000000000000000000, 2.000000000000000000 ) ) ;
#45 = DIRECTION ( 'NONE',  ( -1.224646799147353207E-16, -0.0000000000000000000, -1.000000000000000000 ) ) ;
#46 = VERTEX_POINT ( 'NONE', #180 ) ;
#47 = CIRCLE ( 'NONE', #5, 0.09375000000000001388 ) ;
#48 =( NAMED_UNIT ( * ) PLANE_ANGLE_UNIT ( ) SI_UNIT ( $, .RADIAN. ) );
#49 = ORIENTED_EDGE ( 'NONE', *, *, #304, .T. ) ;
#50 =( LENGTH_UNIT ( ) NAMED_UNIT ( * ) SI_UNIT ( $, .METRE. ) );
#51 = CARTESIAN_POINT ( 'NONE',  ( 7.987127902323220081E-17, 0.0000000000000000000, 0.6521984875871288390 ) ) ;
#52 = STYLED_ITEM ( 'NONE', ( #222 ), #91 ) ;
#53 = AXIS2_PLACEMENT_3D ( 'NONE', #16, #313, #267 ) ;
#54 = FILL_AREA_STYLE ('',( #1 ) ) ;
#55 =( CONVERSION_BASED_UNIT ( 'INCH', #296 ) LENGTH_UNIT ( ) NAMED_UNIT ( #62 ) );
#56 = DIRECTION ( 'NONE',  ( -1.224646799147353207E-16, -0.0000000000000000000, -1.000000000000000000 ) ) ;
#57 = DIRECTION ( 'NONE',  ( -1.000000000000000000, 0.0000000000000000000, 1.224646799147353207E-16 ) ) ;
#58 = APPLICATION_PROTOCOL_DEFINITION ( 'draft international standard', 'automotive_design', 1998, #214 ) ;
#59 = CIRCLE ( 'NONE', #155, 0.07802190000000000514 ) ;
#60 = CARTESIAN_POINT ( 'NONE',  ( 0.0000000000000000000, 0.0000000000000000000, 2.000000000000000000 ) ) ;
#61 = DIRECTION ( 'NONE',  ( 1.224646799147353207E-16, 0.0000000000000000000, 1.000000000000000000 ) ) ;
#62 = DIMENSIONAL_EXPONENTS ( 1.000000000000000000, 0.0000000000000000000, 0.0000000000000000000, 0.0000000000000000000, 0.0000000000000000000, 0.0000000000000000000, 0.0000000000000000000 ) ;
#63 = DIRECTION ( 'NONE',  ( 0.0000000000000000000, 1.000000000000000000, 0.0000000000000000000 ) ) ;
#64 = DIRECTION ( 'NONE',  ( 0.0000000000000000000, 1.000000000000000000, 0.0000000000000000000 ) ) ;
#65 = PRESENTATION_LAYER_ASSIGNMENT (  '', '', ( #52 ) ) ;
#66 = CARTESIAN_POINT ( 'NONE',  ( 0.07802190000000000514, 9.554927009839488851E-18, -9.554927009839488851E-18 ) ) ;
#67 = EDGE_CURVE ( 'NONE', #142, #291, #154, .T. ) ;
#68 = DIRECTION ( 'NONE',  ( -1.000000000000000000, 0.0000000000000000000, 0.0000000000000000000 ) ) ;
#69 = ORIENTED_EDGE ( 'NONE', *, *, #30, .F. ) ;
#70 = AXIS2_PLACEMENT_3D ( 'NONE', #40, #284, #259 ) ;
#71 = DIRECTION ( 'NONE',  ( 0.0000000000000000000, -1.000000000000000000, 0.0000000000000000000 ) ) ;
#72 = ORIENTED_EDGE ( 'NONE', *, *, #119, .F. ) ;
#73 = ADVANCED_FACE ( 'NONE', ( #204 ), #302, .T. ) ;
#74 = CARTESIAN_POINT ( 'NONE',  ( -0.07802189999999993575, 9.554927009839488851E-18, 0.5629999999999999449 ) ) ;
#75 = ORIENTED_EDGE ( 'NONE', *, *, #318, .F. ) ;
#76 = CIRCLE ( 'NONE', #81, 0.07802190000000000514 ) ;
#77 = DIRECTION ( 'NONE',  ( -0.0000000000000000000, -0.0000000000000000000, -1.000000000000000000 ) ) ;
#78 = DIRECTION ( 'NONE',  ( -1.224646799147353207E-16, -0.0000000000000000000, -1.000000000000000000 ) ) ;
#79 = EDGE_CURVE ( 'NONE', #319, #46, #253, .T. ) ;
#80 = ORIENTED_EDGE ( 'NONE', *, *, #292, .F. ) ;
#81 = AXIS2_PLACEMENT_3D ( 'NONE', #96, #71, #194 ) ;
#82 = DIRECTION ( 'NONE',  ( 0.0000000000000000000, 0.0000000000000000000, -1.000000000000000000 ) ) ;
#83 = FILL_AREA_STYLE_COLOUR ( '', #123 ) ;
#84 = VERTEX_POINT ( 'NONE', #130 ) ;
#85 = ORIENTED_EDGE ( 'NONE', *, *, #325, .T. ) ;
#86 = VECTOR ( 'NONE', #272, 39.37007874015748143 ) ;
#87 = DIRECTION ( 'NONE',  ( 1.000000000000000000, 0.0000000000000000000, 0.0000000000000000000 ) ) ;
#88 = CARTESIAN_POINT ( 'NONE',  ( 9.554927009839488851E-18, 0.0000000000000000000, 0.07802190000000000514 ) ) ;
#89 = CARTESIAN_POINT ( 'NONE',  ( 9.554927009839488851E-18, 0.0000000000000000000, 0.07802190000000000514 ) ) ;
#90 =( CONVERSION_BASED_UNIT ( 'INCH', #206 ) LENGTH_UNIT ( ) NAMED_UNIT ( #163 ) );
#91 = MANIFOLD_SOLID_BREP ( 'Fillet1', #232 ) ;
#92 = DIRECTION ( 'NONE',  ( -0.0000000000000000000, -0.0000000000000000000, -1.000000000000000000 ) ) ;
#93 = ORIENTED_EDGE ( 'NONE', *, *, #325, .F. ) ;
#94 = DIRECTION ( 'NONE',  ( 1.000000000000000000, 0.0000000000000000000, 0.0000000000000000000 ) ) ;
#95 = ORIENTED_EDGE ( 'NONE', *, *, #79, .T. ) ;
#96 = CARTESIAN_POINT ( 'NONE',  ( 9.554927009839488851E-18, 0.0000000000000000000, 0.07802190000000000514 ) ) ;
#97 = ORIENTED_EDGE ( 'NONE', *, *, #318, .T. ) ;
#98 = CARTESIAN_POINT ( 'NONE',  ( 0.09375000000000009714, 1.148106374200644787E-17, 0.6521984875871288390 ) ) ;
#99 = ORIENTED_EDGE ( 'NONE', *, *, #30, .T. ) ;
#100 = MECHANICAL_DESIGN_GEOMETRIC_PRESENTATION_REPRESENTATION (  '', ( #52 ), #224 ) ;
#101 = VERTEX_POINT ( 'NONE', #297 ) ;
#102 = EDGE_CURVE ( 'NONE', #103, #215, #3, .T. ) ;
#103 = VERTEX_POINT ( 'NONE', #37 ) ;
#104 = EDGE_CURVE ( 'NONE', #103, #129, #181, .T. ) ;
#105 = ORIENTED_EDGE ( 'NONE', *, *, #12, .T. ) ;
#106 = CIRCLE ( 'NONE', #185, 0.07802190000000000514 ) ;
#107 =( NAMED_UNIT ( * ) PLANE_ANGLE_UNIT ( ) SI_UNIT ( $, .RADIAN. ) );
#108 = ORIENTED_EDGE ( 'NONE', *, *, #270, .F. ) ;
#109 = LINE ( 'NONE', #197, #293 ) ;
#110 = CARTESIAN_POINT ( 'NONE',  ( 9.554927009839488851E-18, 0.0000000000000000000, 0.07802190000000000514 ) ) ;
#111 = DIRECTION ( 'NONE',  ( 0.0000000000000000000, 0.0000000000000000000, -1.000000000000000000 ) ) ;
#112 = ADVANCED_FACE ( 'NONE', ( #184 ), #10, .T. ) ;
#113 = DIRECTION ( 'NONE',  ( 1.224646799147353207E-16, 1.000000000000000000, -0.0000000000000000000 ) ) ;
#114 = LINE ( 'NONE', #167, #11 ) ;
#115 = FACE_OUTER_BOUND ( 'NONE', #153, .T. ) ;
#116 = CARTESIAN_POINT ( 'NONE',  ( 0.07874999999999980627, 1.056257864264590573E-17, 2.000000000000000000 ) ) ;
#117 = ORIENTED_EDGE ( 'NONE', *, *, #221, .T. ) ;
#118 = COLOUR_RGB ( '',0.7921568627450980005, 0.8196078431372548767, 0.9333333333333333481 ) ;
#119 = EDGE_CURVE ( 'NONE', #84, #319, #277, .T. ) ;
#120 = CARTESIAN_POINT ( 'NONE',  ( 0.07802190000000007453, 0.0000000000000000000, 0.5629999999999999449 ) ) ;
#121 = CARTESIAN_POINT ( 'NONE',  ( 0.0000000000000000000, 0.0000000000000000000, 2.000000000000000000 ) ) ;
#122 = CIRCLE ( 'NONE', #323, 0.07802190000000000514 ) ;
#123 = COLOUR_RGB ( '',0.7921568627450980005, 0.8196078431372548767, 0.9333333333333333481 ) ;
#124 = CYLINDRICAL_SURFACE ( 'NONE', #150, 0.07802190000000000514 ) ;
#125 = UNCERTAINTY_MEASURE_WITH_UNIT (LENGTH_MEASURE( 1.000000000000000082E-05 ), #90, 'distance_accuracy_value', 'NONE');
#126 = SURFACE_STYLE_USAGE ( .BOTH. , #29 ) ;
#127 = PRODUCT_CONTEXT ( 'NONE', #262, 'mechanical' ) ;
#128 = EDGE_LOOP ( 'NONE', ( #228, #8, #33 ) ) ;
#129 = VERTEX_POINT ( 'NONE', #133 ) ;
#130 = CARTESIAN_POINT ( 'NONE',  ( -0.07874999999999980627, 0.0000000000000000000, 2.000000000000000000 ) ) ;
#131 = DIRECTION ( 'NONE',  ( 1.000000000000000000, 0.0000000000000000000, 0.0000000000000000000 ) ) ;
#132 = AXIS2_PLACEMENT_3D ( 'NONE', #88, #61, #210 ) ;
#133 = CARTESIAN_POINT ( 'NONE',  ( -0.07802189999999999126, 0.0000000000000000000, 0.07802190000000001902 ) ) ;
#134 = PRODUCT_DEFINITION ( 'UNKNOWN', '', #190, #183 ) ;
#135 = DIRECTION ( 'NONE',  ( 1.000000000000000000, 0.0000000000000000000, 0.0000000000000000000 ) ) ;
#136 = DIRECTION ( 'NONE',  ( -1.000000000000000000, 0.0000000000000000000, 0.0000000000000000000 ) ) ;
#137 = AXIS2_PLACEMENT_3D ( 'NONE', #89, #64, #135 ) ;
#138 = CARTESIAN_POINT ( 'NONE',  ( 0.0000000000000000000, 0.0000000000000000000, 2.000000000000000000 ) ) ;
#139 = AXIS2_PLACEMENT_3D ( 'NONE', #151, #199, #202 ) ;
#140 = APPLICATION_PROTOCOL_DEFINITION ( 'draft international standard', 'automotive_design', 1998, #262 ) ;
#141 = DIRECTION ( 'NONE',  ( -1.000000000000000000, 0.0000000000000000000, 0.0000000000000000000 ) ) ;
#142 = VERTEX_POINT ( 'NONE', #233 ) ;
#143 = CARTESIAN_POINT ( 'NONE',  ( 7.987127902323220081E-17, 0.0000000000000000000, 0.6521984875871288390 ) ) ;
#144 = VECTOR ( 'NONE', #189, 39.37007874015747433 ) ;
#145 =( NAMED_UNIT ( * ) SI_UNIT ( $, .STERADIAN. ) SOLID_ANGLE_UNIT ( ) );
#146 = ORIENTED_EDGE ( 'NONE', *, *, #285, .F. ) ;
#147 = CYLINDRICAL_SURFACE ( 'NONE', #201, 0.09375000000000001388 ) ;
#148 = EDGE_LOOP ( 'NONE', ( #271, #49, #105, #301 ) ) ;
#149 = FACE_OUTER_BOUND ( 'NONE', #274, .T. ) ;
#150 = AXIS2_PLACEMENT_3D ( 'NONE', #227, #78, #57 ) ;
#151 = CARTESIAN_POINT ( 'NONE',  ( 0.0000000000000000000, 0.0000000000000000000, 0.0000000000000000000 ) ) ;
#152 = EDGE_LOOP ( 'NONE', ( #28, #200, #196 ) ) ;
#153 = EDGE_LOOP ( 'NONE', ( #314, #117, #168, #241 ) ) ;
#154 = LINE ( 'NONE', #276, #86 ) ;
#155 = AXIS2_PLACEMENT_3D ( 'NONE', #182, #113, #286 ) ;
#156 = CIRCLE ( 'NONE', #53, 0.07874999999999980627 ) ;
#157 = DIRECTION ( 'NONE',  ( -0.0000000000000000000, -0.0000000000000000000, -1.000000000000000000 ) ) ;
#158 = DIRECTION ( 'NONE',  ( 1.000000000000000000, 0.0000000000000000000, 0.0000000000000000000 ) ) ;
#159 = FACE_OUTER_BOUND ( 'NONE', #152, .T. ) ;
#160 = DIRECTION ( 'NONE',  ( 1.224646799147353207E-16, 0.0000000000000000000, 1.000000000000000000 ) ) ;
#161 = PRODUCT ( 'Micro_BEM-156-03X', 'Micro_BEM-156-03X', '', ( #127 ) ) ;
#162 =( NAMED_UNIT ( * ) PLANE_ANGLE_UNIT ( ) SI_UNIT ( $, .RADIAN. ) );
#163 = DIMENSIONAL_EXPONENTS ( 1.000000000000000000, 0.0000000000000000000, 0.0000000000000000000, 0.0000000000000000000, 0.0000000000000000000, 0.0000000000000000000, 0.0000000000000000000 ) ;
#164 = PRODUCT_RELATED_PRODUCT_CATEGORY ( 'part', '', ( #161 ) ) ;
#165 = FACE_OUTER_BOUND ( 'NONE', #128, .T. ) ;
#166 = CIRCLE ( 'NONE', #26, 0.09375000000000001388 ) ;
#167 = CARTESIAN_POINT ( 'NONE',  ( 0.09375000000000001388, 1.148106374200643863E-17, 2.000000000000000000 ) ) ;
#168 = ORIENTED_EDGE ( 'NONE', *, *, #229, .T. ) ;
#169 = DIRECTION ( 'NONE',  ( -1.224646799147353207E-16, -0.0000000000000000000, -1.000000000000000000 ) ) ;
#170 = CARTESIAN_POINT ( 'NONE',  ( 0.0000000000000000000, 0.0000000000000000000, 1.984999999999999654 ) ) ;
#171 = DIRECTION ( 'NONE',  ( 0.0000000000000000000, 0.0000000000000000000, -1.000000000000000000 ) ) ;
#172 = DIRECTION ( 'NONE',  ( 0.0000000000000000000, 0.0000000000000000000, -1.000000000000000000 ) ) ;
#173 = EDGE_LOOP ( 'NONE', ( #203, #95, #93, #69 ) ) ;
#174 = ORIENTED_EDGE ( 'NONE', *, *, #12, .F. ) ;
#175 = EDGE_LOOP ( 'NONE', ( #75, #193, #244, #80 ) ) ;
#176 = AXIS2_PLACEMENT_3D ( 'NONE', #288, #169, #260 ) ;
#177 = DIRECTION ( 'NONE',  ( 0.7071067811865463515, 8.659560562354916834E-17, -0.7071067811865486830 ) ) ;
#178 = SHAPE_DEFINITION_REPRESENTATION ( #6, #187 ) ;
#179 = VERTEX_POINT ( 'NONE', #279 ) ;
#180 = CARTESIAN_POINT ( 'NONE',  ( 0.09375000000000001388, 1.148106374200643863E-17, 1.984999999999999654 ) ) ;
#181 = LINE ( 'NONE', #303, #282 ) ;
#182 = CARTESIAN_POINT ( 'NONE',  ( 9.554927009839488851E-18, 0.0000000000000000000, 0.07802190000000000514 ) ) ;
#183 = PRODUCT_DEFINITION_CONTEXT ( 'detailed design', #214, 'design' ) ;
#184 = FACE_OUTER_BOUND ( 'NONE', #173, .T. ) ;
#185 = AXIS2_PLACEMENT_3D ( 'NONE', #263, #45, #68 ) ;
#186 = MECHANICAL_DESIGN_GEOMETRIC_PRESENTATION_REPRESENTATION (  '', ( #32 ), #219 ) ;
#187 = ADVANCED_BREP_SHAPE_REPRESENTATION ( 'Micro_BEM-156-03X', ( #91, #139 ), #324 ) ;
#188 = CONICAL_SURFACE ( 'NONE', #266, 0.07802190000000000514, 0.1745329251994338082 ) ;
#189 = DIRECTION ( 'NONE',  ( -0.1736481776669311083, 2.126576849575782084E-17, 0.9848077530122080203 ) ) ;
#190 = PRODUCT_DEFINITION_FORMATION_WITH_SPECIFIED_SOURCE ( 'ANY', '', #161, .NOT_KNOWN. ) ;
#191 = EDGE_LOOP ( 'NONE', ( #316, #251, #31, #7 ) ) ;
#192 = LENGTH_MEASURE_WITH_UNIT ( LENGTH_MEASURE( 0.02539999999999999897 ), #50 );
#193 = ORIENTED_EDGE ( 'NONE', *, *, #270, .T. ) ;
#194 = DIRECTION ( 'NONE',  ( 0.0000000000000000000, 0.0000000000000000000, -1.000000000000000000 ) ) ;
#195 = EDGE_LOOP ( 'NONE', ( #322, #146, #298, #264 ) ) ;
#196 = ORIENTED_EDGE ( 'NONE', *, *, #249, .F. ) ;
#197 = CARTESIAN_POINT ( 'NONE',  ( -0.07874999999999980627, 0.0000000000000000000, 2.000000000000000000 ) ) ;
#198 = FACE_OUTER_BOUND ( 'NONE', #191, .T. ) ;
#199 = DIRECTION ( 'NONE',  ( 0.0000000000000000000, 0.0000000000000000000, 1.000000000000000000 ) ) ;
#200 = ORIENTED_EDGE ( 'NONE', *, *, #309, .T. ) ;
#201 = AXIS2_PLACEMENT_3D ( 'NONE', #44, #77, #141 ) ;
#202 = DIRECTION ( 'NONE',  ( 1.000000000000000000, 0.0000000000000000000, 0.0000000000000000000 ) ) ;
#203 = ORIENTED_EDGE ( 'NONE', *, *, #311, .F. ) ;
#204 = FACE_OUTER_BOUND ( 'NONE', #290, .T. ) ;
#205 = VECTOR ( 'NONE', #240, 39.37007874015748143 ) ;
#206 = LENGTH_MEASURE_WITH_UNIT ( LENGTH_MEASURE( 0.02539999999999999897 ), #281 );
#207 = DIRECTION ( 'NONE',  ( 0.0000000000000000000, 0.0000000000000000000, 1.000000000000000000 ) ) ;
#208 = DIRECTION ( 'NONE',  ( 1.224646799147353207E-16, 0.0000000000000000000, 1.000000000000000000 ) ) ;
#209 = ADVANCED_FACE ( 'NONE', ( #14 ), #188, .T. ) ;
#210 = DIRECTION ( 'NONE',  ( -1.000000000000000000, 0.0000000000000000000, 2.188366338220633428E-16 ) ) ;
#211 = DIRECTION ( 'NONE',  ( 1.000000000000000000, 0.0000000000000000000, -0.0000000000000000000 ) ) ;
#212 = AXIS2_PLACEMENT_3D ( 'NONE', #138, #207, #87 ) ;
#213 = DIRECTION ( 'NONE',  ( 1.000000000000000000, 0.0000000000000000000, 0.0000000000000000000 ) ) ;
#214 = APPLICATION_CONTEXT ( 'automotive_design' ) ;
#215 = VERTEX_POINT ( 'NONE', #9 ) ;
#216 = PLANE ( 'NONE',  #283 ) ;
#217 = EDGE_CURVE ( 'NONE', #179, #129, #59, .T. ) ;
#218 = SURFACE_STYLE_USAGE ( .BOTH. , #247 ) ;
#219 =( GEOMETRIC_REPRESENTATION_CONTEXT ( 3 ) GLOBAL_UNCERTAINTY_ASSIGNED_CONTEXT ( ( #2 ) ) GLOBAL_UNIT_ASSIGNED_CONTEXT ( ( #55, #107, #226 ) ) REPRESENTATION_CONTEXT ( 'NONE', 'WORKASPACE' ) );
#220 = DIRECTION ( 'NONE',  ( -1.000000000000000000, 0.0000000000000000000, 0.0000000000000000000 ) ) ;
#221 = EDGE_CURVE ( 'NONE', #215, #101, #308, .T. ) ;
#222 = PRESENTATION_STYLE_ASSIGNMENT (( #126 ) ) ;
#223 = DIRECTION ( 'NONE',  ( 1.000000000000000000, 0.0000000000000000000, 0.0000000000000000000 ) ) ;
#224 =( GEOMETRIC_REPRESENTATION_CONTEXT ( 3 ) GLOBAL_UNCERTAINTY_ASSIGNED_CONTEXT ( ( #125 ) ) GLOBAL_UNIT_ASSIGNED_CONTEXT ( ( #90, #162, #235 ) ) REPRESENTATION_CONTEXT ( 'NONE', 'WORKASPACE' ) );
#225 = AXIS2_PLACEMENT_3D ( 'NONE', #60, #157, #220 ) ;
#226 =( NAMED_UNIT ( * ) SI_UNIT ( $, .STERADIAN. ) SOLID_ANGLE_UNIT ( ) );
#227 = CARTESIAN_POINT ( 'NONE',  ( 0.0000000000000000000, 0.0000000000000000000, 0.0000000000000000000 ) ) ;
#228 = ORIENTED_EDGE ( 'NONE', *, *, #309, .F. ) ;
#229 = EDGE_CURVE ( 'NONE', #101, #129, #234, .T. ) ;
#230 = DIRECTION ( 'NONE',  ( -1.000000000000000000, 0.0000000000000000000, 2.188366338220633428E-16 ) ) ;
#231 = ADVANCED_FACE ( 'NONE', ( #165 ), #39, .T. ) ;
#232 = CLOSED_SHELL ( 'NONE', ( #231, #265, #209, #112, #73, #306, #295, #43, #236, #20, #242 ) ) ;
#233 = CARTESIAN_POINT ( 'NONE',  ( -0.09375000000000001388, 0.0000000000000000000, 1.984999999999999654 ) ) ;
#234 = CIRCLE ( 'NONE', #132, 0.07802190000000000514 ) ;
#235 =( NAMED_UNIT ( * ) SI_UNIT ( $, .STERADIAN. ) SOLID_ANGLE_UNIT ( ) );
#236 = ADVANCED_FACE ( 'NONE', ( #41 ), #42, .T. ) ;
#237 = CARTESIAN_POINT ( 'NONE',  ( -0.09374999999999991673, 0.0000000000000000000, 0.6521984875871288390 ) ) ;
#238 = DIRECTION ( 'NONE',  ( -1.224646799147353207E-16, -0.0000000000000000000, -1.000000000000000000 ) ) ;
#239 = AXIS2_PLACEMENT_3D ( 'NONE', #254, #305, #131 ) ;
#240 = DIRECTION ( 'NONE',  ( 0.1736481776669313026, 0.0000000000000000000, 0.9848077530122077983 ) ) ;
#241 = ORIENTED_EDGE ( 'NONE', *, *, #104, .F. ) ;
#242 = ADVANCED_FACE ( 'NONE', ( #159 ), #13, .T. ) ;
#243 = CARTESIAN_POINT ( 'NONE',  ( 0.0000000000000000000, 0.0000000000000000000, 1.984999999999999654 ) ) ;
#244 = ORIENTED_EDGE ( 'NONE', *, *, #67, .T. ) ;
#245 = VECTOR ( 'NONE', #280, 39.37007874015748143 ) ;
#246 = CARTESIAN_POINT ( 'NONE',  ( 0.0000000000000000000, 0.0000000000000000000, 2.000000000000000000 ) ) ;
#247 = SURFACE_SIDE_STYLE ('',( #250 ) ) ;
#248 = SURFACE_STYLE_FILL_AREA ( #54 ) ;
#249 = EDGE_CURVE ( 'NONE', #129, #101, #122, .T. ) ;
#250 = SURFACE_STYLE_FILL_AREA ( #269 ) ;
#251 = ORIENTED_EDGE ( 'NONE', *, *, #285, .T. ) ;
#252 = AXIS2_PLACEMENT_3D ( 'NONE', #246, #82, #275 ) ;
#253 = LINE ( 'NONE', #34, #299 ) ;
#254 = CARTESIAN_POINT ( 'NONE',  ( 6.894761479199598081E-17, 0.0000000000000000000, 0.5629999999999999449 ) ) ;
#255 = CONICAL_SURFACE ( 'NONE', #252, 0.07874999999999980627, 0.7853981633974466137 ) ;
#256 = CIRCLE ( 'NONE', #15, 0.09375000000000001388 ) ;
#257 = DIRECTION ( 'NONE',  ( -1.224646799147353207E-16, -0.0000000000000000000, -1.000000000000000000 ) ) ;
#258 = CARTESIAN_POINT ( 'NONE',  ( 0.0000000000000000000, 0.0000000000000000000, 2.000000000000000000 ) ) ;
#259 = DIRECTION ( 'NONE',  ( -1.000000000000000000, 0.0000000000000000000, 0.0000000000000000000 ) ) ;
#260 = DIRECTION ( 'NONE',  ( -1.000000000000000000, 0.0000000000000000000, 1.224646799147353207E-16 ) ) ;
#261 = ORIENTED_EDGE ( 'NONE', *, *, #79, .F. ) ;
#262 = APPLICATION_CONTEXT ( 'automotive_design' ) ;
#263 = CARTESIAN_POINT ( 'NONE',  ( 6.894761479199598081E-17, 0.0000000000000000000, 0.5629999999999999449 ) ) ;
#264 = ORIENTED_EDGE ( 'NONE', *, *, #292, .T. ) ;
#265 = ADVANCED_FACE ( 'NONE', ( #115 ), #21, .T. ) ;
#266 = AXIS2_PLACEMENT_3D ( 'NONE', #310, #208, #36 ) ;
#267 = DIRECTION ( 'NONE',  ( 1.000000000000000000, 0.0000000000000000000, 0.0000000000000000000 ) ) ;
#268 = VERTEX_POINT ( 'NONE', #98 ) ;
#269 = FILL_AREA_STYLE ('',( #83 ) ) ;
#270 = EDGE_CURVE ( 'NONE', #46, #142, #166, .T. ) ;
#271 = ORIENTED_EDGE ( 'NONE', *, *, #102, .F. ) ;
#272 = DIRECTION ( 'NONE',  ( -0.0000000000000000000, -0.0000000000000000000, -1.000000000000000000 ) ) ;
#273 = UNCERTAINTY_MEASURE_WITH_UNIT (LENGTH_MEASURE( 1.000000000000000082E-05 ), #320, 'distance_accuracy_value', 'NONE');
#274 = EDGE_LOOP ( 'NONE', ( #261, #72, #99, #108 ) ) ;
#275 = DIRECTION ( 'NONE',  ( -1.000000000000000000, 0.0000000000000000000, 0.0000000000000000000 ) ) ;
#276 = CARTESIAN_POINT ( 'NONE',  ( -0.09375000000000001388, 0.0000000000000000000, 2.000000000000000000 ) ) ;
#277 = CIRCLE ( 'NONE', #212, 0.07874999999999980627 ) ;
#278 = PRESENTATION_LAYER_ASSIGNMENT (  '', '', ( #32 ) ) ;
#279 = CARTESIAN_POINT ( 'NONE',  ( 1.433239051475923482E-17, 0.0000000000000000000, 0.0000000000000000000 ) ) ;
#280 = DIRECTION ( 'NONE',  ( -1.224646799147353207E-16, -0.0000000000000000000, -1.000000000000000000 ) ) ;
#281 =( LENGTH_UNIT ( ) NAMED_UNIT ( * ) SI_UNIT ( $, .METRE. ) );
#282 = VECTOR ( 'NONE', #257, 39.37007874015748143 ) ;
#283 = AXIS2_PLACEMENT_3D ( 'NONE', #121, #317, #211 ) ;
#284 = DIRECTION ( 'NONE',  ( -1.224646799147353207E-16, -0.0000000000000000000, -1.000000000000000000 ) ) ;
#285 = EDGE_CURVE ( 'NONE', #215, #103, #106, .T. ) ;
#286 = DIRECTION ( 'NONE',  ( -1.000000000000000000, 1.224646799147353207E-16, 0.0000000000000000000 ) ) ;
#287 = EDGE_CURVE ( 'NONE', #215, #268, #312, .T. ) ;
#288 = CARTESIAN_POINT ( 'NONE',  ( 0.0000000000000000000, 0.0000000000000000000, 0.0000000000000000000 ) ) ;
#289 = LINE ( 'NONE', #74, #144 ) ;
#290 = EDGE_LOOP ( 'NONE', ( #85, #97, #174, #294 ) ) ;
#291 = VERTEX_POINT ( 'NONE', #237 ) ;
#292 = EDGE_CURVE ( 'NONE', #268, #291, #47, .T. ) ;
#293 = VECTOR ( 'NONE', #4, 39.37007874015748143 ) ;
#294 = ORIENTED_EDGE ( 'NONE', *, *, #67, .F. ) ;
#295 = ADVANCED_FACE ( 'NONE', ( #18 ), #216, .T. ) ;
#296 = LENGTH_MEASURE_WITH_UNIT ( LENGTH_MEASURE( 0.02539999999999999897 ), #24 );
#297 = CARTESIAN_POINT ( 'NONE',  ( 0.07802190000000001902, 9.554927009839488851E-18, 0.07802189999999999126 ) ) ;
#298 = ORIENTED_EDGE ( 'NONE', *, *, #287, .T. ) ;
#299 = VECTOR ( 'NONE', #177, 39.37007874015748143 ) ;
#300 = ORIENTED_EDGE ( 'NONE', *, *, #311, .T. ) ;
#301 = ORIENTED_EDGE ( 'NONE', *, *, #287, .F. ) ;
#302 = CYLINDRICAL_SURFACE ( 'NONE', #225, 0.09375000000000001388 ) ;
#303 = CARTESIAN_POINT ( 'NONE',  ( -0.07802190000000000514, 0.0000000000000000000, 9.554927009839488851E-18 ) ) ;
#304 = EDGE_CURVE ( 'NONE', #103, #291, #289, .T. ) ;
#305 = DIRECTION ( 'NONE',  ( 1.224646799147353207E-16, 0.0000000000000000000, 1.000000000000000000 ) ) ;
#306 = ADVANCED_FACE ( 'NONE', ( #17 ), #147, .T. ) ;
#307 = CARTESIAN_POINT ( 'NONE',  ( 9.554927009839488851E-18, 0.0000000000000000000, 0.07802190000000000514 ) ) ;
#308 = LINE ( 'NONE', #66, #245 ) ;
#309 = EDGE_CURVE ( 'NONE', #179, #101, #76, .T. ) ;
#310 = CARTESIAN_POINT ( 'NONE',  ( 6.894761479199598081E-17, 0.0000000000000000000, 0.5629999999999999449 ) ) ;
#311 = EDGE_CURVE ( 'NONE', #319, #84, #156, .T. ) ;
#312 = LINE ( 'NONE', #120, #205 ) ;
#313 = DIRECTION ( 'NONE',  ( 0.0000000000000000000, 0.0000000000000000000, 1.000000000000000000 ) ) ;
#314 = ORIENTED_EDGE ( 'NONE', *, *, #102, .T. ) ;
#315 = AXIS2_PLACEMENT_3D ( 'NONE', #110, #63, #158 ) ;
#316 = ORIENTED_EDGE ( 'NONE', *, *, #221, .F. ) ;
#317 = DIRECTION ( 'NONE',  ( 0.0000000000000000000, 0.0000000000000000000, 1.000000000000000000 ) ) ;
#318 = EDGE_CURVE ( 'NONE', #46, #268, #114, .T. ) ;
#319 = VERTEX_POINT ( 'NONE', #116 ) ;
#320 =( CONVERSION_BASED_UNIT ( 'INCH', #192 ) LENGTH_UNIT ( ) NAMED_UNIT ( #35 ) );
#321 = CIRCLE ( 'NONE', #25, 0.09375000000000001388 ) ;
#322 = ORIENTED_EDGE ( 'NONE', *, *, #304, .F. ) ;
#323 = AXIS2_PLACEMENT_3D ( 'NONE', #307, #160, #230 ) ;
#324 =( GEOMETRIC_REPRESENTATION_CONTEXT ( 3 ) GLOBAL_UNCERTAINTY_ASSIGNED_CONTEXT ( ( #273 ) ) GLOBAL_UNIT_ASSIGNED_CONTEXT ( ( #320, #48, #145 ) ) REPRESENTATION_CONTEXT ( 'NONE', 'WORKASPACE' ) );
#325 = EDGE_CURVE ( 'NONE', #142, #46, #256, .T. ) ;
ENDSEC;
END-ISO-10303-21;
