ISO-10303-21;
HEADER;
FILE_DESCRIPTION (( 'STEP AP214' ),
    '1' );
FILE_NAME ('Micro_AEMM-030-2X.STEP',
    '2022-03-15T14:24:08',
    ( '' ),
    ( '' ),
    'SwSTEP 2.0',
    'SolidWorks 2022',
    '' );
FILE_SCHEMA (( 'AUTOMOTIVE_DESIGN' ));
ENDSEC;

DATA;
#1 = ORIENTED_EDGE ( 'NONE', *, *, #213, .T. ) ;
#2 = LENGTH_MEASURE_WITH_UNIT ( LENGTH_MEASURE( 0.02539999999999999897 ), #6 );
#3 = CARTESIAN_POINT ( 'NONE',  ( 0.000000000000000000, 0.000000000000000000, 2.244094000000000033 ) ) ;
#4 = UNCERTAINTY_MEASURE_WITH_UNIT (LENGTH_MEASURE( 1.000000000000000082E-05 ), #46, 'distance_accuracy_value', 'NONE');
#5 = DIRECTION ( 'NONE',  ( 0.000000000000000000, 0.000000000000000000, 1.000000000000000000 ) ) ;
#6 =( LENGTH_UNIT ( ) NAMED_UNIT ( * ) SI_UNIT ( $, .METRE. ) );
#7 = CARTESIAN_POINT ( 'NONE',  ( 0.000000000000000000, 0.000000000000000000, 2.244094000000000033 ) ) ;
#8 = VECTOR ( 'NONE', #281, 39.37007874015748854 ) ;
#9 = DIRECTION ( 'NONE',  ( 0.000000000000000000, 0.000000000000000000, -1.000000000000000000 ) ) ;
#10 = PLANE ( 'NONE',  #223 ) ;
#11 = ADVANCED_FACE ( 'NONE', ( #205 ), #151, .T. ) ;
#12 = DIRECTION ( 'NONE',  ( 0.000000000000000000, 0.000000000000000000, -1.000000000000000000 ) ) ;
#13 = FACE_OUTER_BOUND ( 'NONE', #57, .T. ) ;
#14 = AXIS2_PLACEMENT_3D ( 'NONE', #3, #276, #28 ) ;
#15 = AXIS2_PLACEMENT_3D ( 'NONE', #267, #65, #218 ) ;
#16 = EDGE_CURVE ( 'NONE', #107, #159, #52, .T. ) ;
#17 = DIRECTION ( 'NONE',  ( 1.000000000000000000, 0.000000000000000000, 0.000000000000000000 ) ) ;
#18 = COLOUR_RGB ( '',0.7921568627450980005, 0.8196078431372548767, 0.9333333333333333481 ) ;
#19 = DIRECTION ( 'NONE',  ( 0.000000000000000000, 0.000000000000000000, 1.000000000000000000 ) ) ;
#20 = CARTESIAN_POINT ( 'NONE',  ( 0.1031100000000002570, 1.354581824536888722E-17, 2.244094000000000033 ) ) ;
#21 = ORIENTED_EDGE ( 'NONE', *, *, #246, .F. ) ;
#22 = LENGTH_MEASURE_WITH_UNIT ( LENGTH_MEASURE( 0.02539999999999999897 ), #130 );
#23 =( LENGTH_UNIT ( ) NAMED_UNIT ( * ) SI_UNIT ( $, .METRE. ) );
#24 = VECTOR ( 'NONE', #233, 39.37007874015748143 ) ;
#25 = ORIENTED_EDGE ( 'NONE', *, *, #239, .F. ) ;
#26 = ORIENTED_EDGE ( 'NONE', *, *, #104, .F. ) ;
#27 = PRESENTATION_STYLE_ASSIGNMENT (( #43 ) ) ;
#28 = DIRECTION ( 'NONE',  ( -1.000000000000000000, 0.000000000000000000, 0.000000000000000000 ) ) ;
#29 = DIRECTION ( 'NONE',  ( 0.000000000000000000, 0.000000000000000000, 1.000000000000000000 ) ) ;
#30 = CARTESIAN_POINT ( 'NONE',  ( -0.1031100000000002570, 0.000000000000000000, 2.244094000000000033 ) ) ;
#31 = DIRECTION ( 'NONE',  ( -1.000000000000000000, 0.000000000000000000, 0.000000000000000000 ) ) ;
#32 = CARTESIAN_POINT ( 'NONE',  ( 8.847974565113091896E-34, 0.000000000000000000, 7.224919520692329689E-18 ) ) ;
#33 = CYLINDRICAL_SURFACE ( 'NONE', #152, 0.05899594499999998715 ) ;
#34 = FACE_OUTER_BOUND ( 'NONE', #69, .T. ) ;
#35 = CARTESIAN_POINT ( 'NONE',  ( 0.000000000000000000, 0.000000000000000000, 0.000000000000000000 ) ) ;
#36 = CIRCLE ( 'NONE', #189, 0.1181100000000000066 ) ;
#37 = EDGE_CURVE ( 'NONE', #286, #243, #44, .T. ) ;
#38 = ORIENTED_EDGE ( 'NONE', *, *, #201, .T. ) ;
#39 = ADVANCED_FACE ( 'NONE', ( #42 ), #73, .F. ) ;
#40 = DIRECTION ( 'NONE',  ( -1.224646799147353207E-16, -0.000000000000000000, -1.000000000000000000 ) ) ;
#41 = VERTEX_POINT ( 'NONE', #208 ) ;
#42 = FACE_OUTER_BOUND ( 'NONE', #45, .T. ) ;
#43 = SURFACE_STYLE_USAGE ( .BOTH. , #229 ) ;
#44 = CIRCLE ( 'NONE', #84, 0.1031100000000002570 ) ;
#45 = EDGE_LOOP ( 'NONE', ( #245, #184 ) ) ;
#46 =( CONVERSION_BASED_UNIT ( 'INCH', #2 ) LENGTH_UNIT ( ) NAMED_UNIT ( #285 ) );
#47 = DIRECTION ( 'NONE',  ( 1.224646799147353207E-16, 0.000000000000000000, 1.000000000000000000 ) ) ;
#48 = DIRECTION ( 'NONE',  ( -1.000000000000000000, 0.000000000000000000, 0.000000000000000000 ) ) ;
#49 = CARTESIAN_POINT ( 'NONE',  ( 0.000000000000000000, 0.000000000000000000, 2.244094000000000033 ) ) ;
#50 = SURFACE_STYLE_FILL_AREA ( #164 ) ;
#51 = CARTESIAN_POINT ( 'NONE',  ( 3.857159805062494824E-17, 0.000000000000000000, 0.3149609999999999910 ) ) ;
#52 = CIRCLE ( 'NONE', #222, 0.05899594500000000796 ) ;
#53 = CARTESIAN_POINT ( 'NONE',  ( 0.05899594500000002184, 0.000000000000000000, 0.3149609999999999910 ) ) ;
#54 = DIRECTION ( 'NONE',  ( -0.000000000000000000, -0.000000000000000000, -1.000000000000000000 ) ) ;
#55 = DIMENSIONAL_EXPONENTS ( 1.000000000000000000, 0.000000000000000000, 0.000000000000000000, 0.000000000000000000, 0.000000000000000000, 0.000000000000000000, 0.000000000000000000 ) ;
#56 = PRODUCT_DEFINITION_SHAPE ( 'NONE', 'NONE',  #102 ) ;
#57 = EDGE_LOOP ( 'NONE', ( #25, #89, #221, #26 ) ) ;
#58 = ADVANCED_FACE ( 'NONE', ( #145 ), #127, .T. ) ;
#59 = CLOSED_SHELL ( 'NONE', ( #74, #123, #58, #191, #196, #194, #11, #172, #237, #39 ) ) ;
#60 = CIRCLE ( 'NONE', #105, 0.05899594500000000796 ) ;
#61 = APPLICATION_PROTOCOL_DEFINITION ( 'draft international standard', 'automotive_design', 1998, #217 ) ;
#62 = CARTESIAN_POINT ( 'NONE',  ( 0.1181100000000000066, 1.446430334472939084E-17, 2.244094000000000033 ) ) ;
#63 = DIRECTION ( 'NONE',  ( -0.1736481776669311916, 2.126576849575783316E-17, 0.9848077530122080203 ) ) ;
#64 = EDGE_CURVE ( 'NONE', #131, #292, #36, .T. ) ;
#65 = DIRECTION ( 'NONE',  ( -1.224646799147353207E-16, -0.000000000000000000, -1.000000000000000000 ) ) ;
#66 = ORIENTED_EDGE ( 'NONE', *, *, #64, .F. ) ;
#67 = FILL_AREA_STYLE_COLOUR ( '', #18 ) ;
#68 = ORIENTED_EDGE ( 'NONE', *, *, #98, .T. ) ;
#69 = EDGE_LOOP ( 'NONE', ( #225, #95, #103, #220 ) ) ;
#70 = DIRECTION ( 'NONE',  ( 0.000000000000000000, 0.000000000000000000, 1.000000000000000000 ) ) ;
#71 = VECTOR ( 'NONE', #40, 39.37007874015748143 ) ;
#72 = CARTESIAN_POINT ( 'NONE',  ( 0.000000000000000000, 0.000000000000000000, 0.000000000000000000 ) ) ;
#73 = PLANE ( 'NONE',  #125 ) ;
#74 = ADVANCED_FACE ( 'NONE', ( #122 ), #33, .T. ) ;
#75 = CARTESIAN_POINT ( 'NONE',  ( 0.1181100000000000899, 1.446430334472940009E-17, 0.6502134654053797203 ) ) ;
#76 = DIRECTION ( 'NONE',  ( 1.000000000000000000, 0.000000000000000000, 0.000000000000000000 ) ) ;
#77 = CARTESIAN_POINT ( 'NONE',  ( 0.000000000000000000, 0.000000000000000000, 2.244094000000000033 ) ) ;
#78 = CARTESIAN_POINT ( 'NONE',  ( -0.05899594499999998715, 0.000000000000000000, 7.224919520692328148E-18 ) ) ;
#79 = CONICAL_SURFACE ( 'NONE', #250, 0.05899594499999998021, 0.1745329251994338915 ) ;
#80 = CARTESIAN_POINT ( 'NONE',  ( 0.000000000000000000, 0.000000000000000000, 2.229093999999999465 ) ) ;
#81 =( GEOMETRIC_REPRESENTATION_CONTEXT ( 3 ) GLOBAL_UNCERTAINTY_ASSIGNED_CONTEXT ( ( #4 ) ) GLOBAL_UNIT_ASSIGNED_CONTEXT ( ( #46, #298, #258 ) ) REPRESENTATION_CONTEXT ( 'NONE', 'WORKASPACE' ) );
#82 = DIRECTION ( 'NONE',  ( -0.7071067811865358044, 0.000000000000000000, -0.7071067811865590080 ) ) ;
#83 = AXIS2_PLACEMENT_3D ( 'NONE', #228, #9, #48 ) ;
#84 = AXIS2_PLACEMENT_3D ( 'NONE', #203, #5, #248 ) ;
#85 = VECTOR ( 'NONE', #175, 39.37007874015748143 ) ;
#86 = CARTESIAN_POINT ( 'NONE',  ( 0.05899594499999998715, 7.224919520692328148E-18, -7.224919520692328148E-18 ) ) ;
#87 = EDGE_CURVE ( 'NONE', #292, #131, #207, .T. ) ;
#88 = PRESENTATION_STYLE_ASSIGNMENT (( #293 ) ) ;
#89 = ORIENTED_EDGE ( 'NONE', *, *, #234, .T. ) ;
#90 = AXIS2_PLACEMENT_3D ( 'NONE', #35, #19, #17 ) ;
#91 = CYLINDRICAL_SURFACE ( 'NONE', #15, 0.05899594499999998715 ) ;
#92 = UNCERTAINTY_MEASURE_WITH_UNIT (LENGTH_MEASURE( 1.000000000000000082E-05 ), #117, 'distance_accuracy_value', 'NONE');
#93 = DIRECTION ( 'NONE',  ( 1.000000000000000000, 0.000000000000000000, -0.000000000000000000 ) ) ;
#94 = CARTESIAN_POINT ( 'NONE',  ( 0.05899594500000002184, 0.000000000000000000, 0.3149609999999999910 ) ) ;
#95 = ORIENTED_EDGE ( 'NONE', *, *, #200, .T. ) ;
#96 = MECHANICAL_DESIGN_GEOMETRIC_PRESENTATION_REPRESENTATION (  '', ( #273 ), #215 ) ;
#97 = CARTESIAN_POINT ( 'NONE',  ( 7.962818391712065690E-17, 0.000000000000000000, 0.6502134654053797203 ) ) ;
#98 = EDGE_CURVE ( 'NONE', #41, #107, #256, .T. ) ;
#99 = DIRECTION ( 'NONE',  ( 0.000000000000000000, 0.000000000000000000, -1.000000000000000000 ) ) ;
#100 = CYLINDRICAL_SURFACE ( 'NONE', #266, 0.1181100000000000066 ) ;
#101 = CARTESIAN_POINT ( 'NONE',  ( 0.1031100000000002570, 1.262733314600838667E-17, 2.244094000000000033 ) ) ;
#102 = PRODUCT_DEFINITION ( 'UNKNOWN', '', #257, #253 ) ;
#103 = ORIENTED_EDGE ( 'NONE', *, *, #219, .T. ) ;
#104 = EDGE_CURVE ( 'NONE', #178, #292, #232, .T. ) ;
#105 = AXIS2_PLACEMENT_3D ( 'NONE', #32, #283, #163 ) ;
#106 = DIRECTION ( 'NONE',  ( -1.000000000000000000, 0.000000000000000000, 0.000000000000000000 ) ) ;
#107 = VERTEX_POINT ( 'NONE', #211 ) ;
#108 = CIRCLE ( 'NONE', #144, 0.05899594499999998021 ) ;
#109 = CARTESIAN_POINT ( 'NONE',  ( -0.1031100000000002570, 0.000000000000000000, 2.244094000000000033 ) ) ;
#110 = DIRECTION ( 'NONE',  ( -1.000000000000000000, 0.000000000000000000, 0.000000000000000000 ) ) ;
#111 = AXIS2_PLACEMENT_3D ( 'NONE', #185, #280, #261 ) ;
#112 = DIRECTION ( 'NONE',  ( 1.000000000000000000, 0.000000000000000000, 0.000000000000000000 ) ) ;
#113 = PRODUCT_RELATED_PRODUCT_CATEGORY ( 'part', '', ( #150 ) ) ;
#114 = ORIENTED_EDGE ( 'NONE', *, *, #288, .T. ) ;
#115 = DIRECTION ( 'NONE',  ( 1.224646799147353207E-16, 0.000000000000000000, 1.000000000000000000 ) ) ;
#116 = DIRECTION ( 'NONE',  ( -1.000000000000000000, 0.000000000000000000, 1.224646799147352961E-16 ) ) ;
#117 =( CONVERSION_BASED_UNIT ( 'INCH', #231 ) LENGTH_UNIT ( ) NAMED_UNIT ( #55 ) );
#118 = COLOUR_RGB ( '',0.7921568627450980005, 0.8196078431372548767, 0.9333333333333333481 ) ;
#119 = CARTESIAN_POINT ( 'NONE',  ( 0.1181100000000000066, 1.446430334472939084E-17, 2.229093999999999465 ) ) ;
#120 = ADVANCED_BREP_SHAPE_REPRESENTATION ( 'Micro_AEMM-030-2X', ( #279, #90 ), #81 ) ;
#121 =( NAMED_UNIT ( * ) PLANE_ANGLE_UNIT ( ) SI_UNIT ( $, .RADIAN. ) );
#122 = FACE_OUTER_BOUND ( 'NONE', #278, .T. ) ;
#123 = ADVANCED_FACE ( 'NONE', ( #13 ), #79, .T. ) ;
#124 = DIRECTION ( 'NONE',  ( -1.224646799147353207E-16, -0.000000000000000000, -1.000000000000000000 ) ) ;
#125 = AXIS2_PLACEMENT_3D ( 'NONE', #254, #29, #93 ) ;
#126 = VECTOR ( 'NONE', #63, 39.37007874015747433 ) ;
#127 = CONICAL_SURFACE ( 'NONE', #193, 0.1031100000000002570, 0.7853981633974318477 ) ;
#128 = APPLICATION_CONTEXT ( 'automotive_design' ) ;
#129 = ORIENTED_EDGE ( 'NONE', *, *, #186, .F. ) ;
#130 =( LENGTH_UNIT ( ) NAMED_UNIT ( * ) SI_UNIT ( $, .METRE. ) );
#131 = VERTEX_POINT ( 'NONE', #230 ) ;
#132 = CARTESIAN_POINT ( 'NONE',  ( -0.05899594499999993857, 7.224919520692326607E-18, 0.3149609999999999910 ) ) ;
#133 = ORIENTED_EDGE ( 'NONE', *, *, #37, .T. ) ;
#134 = ORIENTED_EDGE ( 'NONE', *, *, #219, .F. ) ;
#135 = LINE ( 'NONE', #86, #71 ) ;
#136 = VERTEX_POINT ( 'NONE', #119 ) ;
#137 = CARTESIAN_POINT ( 'NONE',  ( 8.847974565113091896E-34, 0.000000000000000000, 7.224919520692329689E-18 ) ) ;
#138 = ORIENTED_EDGE ( 'NONE', *, *, #246, .T. ) ;
#139 = EDGE_LOOP ( 'NONE', ( #271, #38, #68, #170 ) ) ;
#140 = DIRECTION ( 'NONE',  ( -1.224646799147353207E-16, -0.000000000000000000, -1.000000000000000000 ) ) ;
#141 = UNCERTAINTY_MEASURE_WITH_UNIT (LENGTH_MEASURE( 1.000000000000000082E-05 ), #294, 'distance_accuracy_value', 'NONE');
#142 = ORIENTED_EDGE ( 'NONE', *, *, #169, .F. ) ;
#143 = CARTESIAN_POINT ( 'NONE',  ( 0.000000000000000000, 0.000000000000000000, 2.229093999999999465 ) ) ;
#144 = AXIS2_PLACEMENT_3D ( 'NONE', #155, #179, #106 ) ;
#145 = FACE_OUTER_BOUND ( 'NONE', #226, .T. ) ;
#146 = DIRECTION ( 'NONE',  ( -1.224646799147353207E-16, -0.000000000000000000, -1.000000000000000000 ) ) ;
#147 = DIRECTION ( 'NONE',  ( -1.000000000000000000, 0.000000000000000000, 0.000000000000000000 ) ) ;
#148 = DIMENSIONAL_EXPONENTS ( 1.000000000000000000, 0.000000000000000000, 0.000000000000000000, 0.000000000000000000, 0.000000000000000000, 0.000000000000000000, 0.000000000000000000 ) ;
#149 = CIRCLE ( 'NONE', #174, 0.1181100000000000066 ) ;
#150 = PRODUCT ( 'Micro_AEMM-030-2X', 'Micro_AEMM-030-2X', '', ( #176 ) ) ;
#151 = CONICAL_SURFACE ( 'NONE', #83, 0.1031100000000002570, 0.7853981633974318477 ) ;
#152 = AXIS2_PLACEMENT_3D ( 'NONE', #72, #124, #161 ) ;
#153 = EDGE_CURVE ( 'NONE', #159, #107, #60, .T. ) ;
#154 = FILL_AREA_STYLE ('',( #67 ) ) ;
#155 = CARTESIAN_POINT ( 'NONE',  ( 3.857159805062494824E-17, 0.000000000000000000, 0.3149609999999999910 ) ) ;
#156 = LINE ( 'NONE', #132, #126 ) ;
#157 = ORIENTED_EDGE ( 'NONE', *, *, #104, .T. ) ;
#158 = PRESENTATION_LAYER_ASSIGNMENT (  '', '', ( #273 ) ) ;
#159 = VERTEX_POINT ( 'NONE', #167 ) ;
#160 = AXIS2_PLACEMENT_3D ( 'NONE', #80, #168, #227 ) ;
#161 = DIRECTION ( 'NONE',  ( -1.000000000000000000, 0.000000000000000000, 1.224646799147353207E-16 ) ) ;
#162 = ORIENTED_EDGE ( 'NONE', *, *, #234, .F. ) ;
#163 = DIRECTION ( 'NONE',  ( -1.000000000000000000, 0.000000000000000000, 1.224646799147352961E-16 ) ) ;
#164 = FILL_AREA_STYLE ('',( #282 ) ) ;
#165 = DIRECTION ( 'NONE',  ( 0.000000000000000000, 0.000000000000000000, 1.000000000000000000 ) ) ;
#166 = CIRCLE ( 'NONE', #160, 0.1181100000000000066 ) ;
#167 = CARTESIAN_POINT ( 'NONE',  ( 0.05899594500000001490, 7.224919520692329689E-18, -1.895600338963814870E-33 ) ) ;
#168 = DIRECTION ( 'NONE',  ( 0.000000000000000000, 0.000000000000000000, -1.000000000000000000 ) ) ;
#169 = EDGE_CURVE ( 'NONE', #243, #136, #209, .T. ) ;
#170 = ORIENTED_EDGE ( 'NONE', *, *, #153, .F. ) ;
#171 = AXIS2_PLACEMENT_3D ( 'NONE', #51, #188, #110 ) ;
#172 = ADVANCED_FACE ( 'NONE', ( #252 ), #297, .T. ) ;
#173 = LINE ( 'NONE', #62, #85 ) ;
#174 = AXIS2_PLACEMENT_3D ( 'NONE', #143, #99, #187 ) ;
#175 = DIRECTION ( 'NONE',  ( -0.000000000000000000, -0.000000000000000000, -1.000000000000000000 ) ) ;
#176 = PRODUCT_CONTEXT ( 'NONE', #128, 'mechanical' ) ;
#177 = LINE ( 'NONE', #270, #238 ) ;
#178 = VERTEX_POINT ( 'NONE', #94 ) ;
#179 = DIRECTION ( 'NONE',  ( -1.224646799147353207E-16, -0.000000000000000000, -1.000000000000000000 ) ) ;
#180 = ORIENTED_EDGE ( 'NONE', *, *, #288, .F. ) ;
#181 = VERTEX_POINT ( 'NONE', #259 ) ;
#182 = DIRECTION ( 'NONE',  ( 1.000000000000000000, 0.000000000000000000, 0.000000000000000000 ) ) ;
#183 = AXIS2_PLACEMENT_3D ( 'NONE', #198, #70, #112 ) ;
#184 = ORIENTED_EDGE ( 'NONE', *, *, #153, .T. ) ;
#185 = CARTESIAN_POINT ( 'NONE',  ( 7.962818391712065690E-17, 0.000000000000000000, 0.6502134654053797203 ) ) ;
#186 = EDGE_CURVE ( 'NONE', #181, #136, #166, .T. ) ;
#187 = DIRECTION ( 'NONE',  ( 1.000000000000000000, 0.000000000000000000, 0.000000000000000000 ) ) ;
#188 = DIRECTION ( 'NONE',  ( -1.224646799147353207E-16, -0.000000000000000000, -1.000000000000000000 ) ) ;
#189 = AXIS2_PLACEMENT_3D ( 'NONE', #97, #146, #182 ) ;
#190 = CARTESIAN_POINT ( 'NONE',  ( 3.857159805062494824E-17, 0.000000000000000000, 0.3149609999999999910 ) ) ;
#191 = ADVANCED_FACE ( 'NONE', ( #210 ), #100, .T. ) ;
#192 =( NAMED_UNIT ( * ) SI_UNIT ( $, .STERADIAN. ) SOLID_ANGLE_UNIT ( ) );
#193 = AXIS2_PLACEMENT_3D ( 'NONE', #7, #12, #31 ) ;
#194 = ADVANCED_FACE ( 'NONE', ( #206 ), #10, .T. ) ;
#195 = EDGE_LOOP ( 'NONE', ( #274, #275, #66, #134 ) ) ;
#196 = ADVANCED_FACE ( 'NONE', ( #34 ), #204, .T. ) ;
#197 = SURFACE_STYLE_FILL_AREA ( #154 ) ;
#198 = CARTESIAN_POINT ( 'NONE',  ( 0.000000000000000000, 0.000000000000000000, 2.244094000000000033 ) ) ;
#199 = VECTOR ( 'NONE', #140, 39.37007874015748143 ) ;
#200 = EDGE_CURVE ( 'NONE', #136, #181, #149, .T. ) ;
#201 = EDGE_CURVE ( 'NONE', #178, #41, #263, .T. ) ;
#202 = ORIENTED_EDGE ( 'NONE', *, *, #16, .F. ) ;
#203 = CARTESIAN_POINT ( 'NONE',  ( 0.000000000000000000, 0.000000000000000000, 2.244094000000000033 ) ) ;
#204 = CYLINDRICAL_SURFACE ( 'NONE', #14, 0.1181100000000000066 ) ;
#205 = FACE_OUTER_BOUND ( 'NONE', #299, .T. ) ;
#206 = FACE_OUTER_BOUND ( 'NONE', #295, .T. ) ;
#207 = CIRCLE ( 'NONE', #111, 0.1181100000000000066 ) ;
#208 = CARTESIAN_POINT ( 'NONE',  ( -0.05899594499999993857, 1.084461143271085796E-17, 0.3149609999999999910 ) ) ;
#209 = LINE ( 'NONE', #101, #8 ) ;
#210 = FACE_OUTER_BOUND ( 'NONE', #195, .T. ) ;
#211 = CARTESIAN_POINT ( 'NONE',  ( -0.05899594500000000796, 0.000000000000000000, 1.444983904138465938E-17 ) ) ;
#212 = VECTOR ( 'NONE', #82, 39.37007874015748854 ) ;
#213 = EDGE_CURVE ( 'NONE', #178, #159, #135, .T. ) ;
#214 = ORIENTED_EDGE ( 'NONE', *, *, #37, .F. ) ;
#215 =( GEOMETRIC_REPRESENTATION_CONTEXT ( 3 ) GLOBAL_UNCERTAINTY_ASSIGNED_CONTEXT ( ( #92 ) ) GLOBAL_UNIT_ASSIGNED_CONTEXT ( ( #117, #121, #192 ) ) REPRESENTATION_CONTEXT ( 'NONE', 'WORKASPACE' ) );
#216 = APPLICATION_PROTOCOL_DEFINITION ( 'draft international standard', 'automotive_design', 1998, #128 ) ;
#217 = APPLICATION_CONTEXT ( 'automotive_design' ) ;
#218 = DIRECTION ( 'NONE',  ( -1.000000000000000000, 0.000000000000000000, 1.224646799147353207E-16 ) ) ;
#219 = EDGE_CURVE ( 'NONE', #181, #131, #177, .T. ) ;
#220 = ORIENTED_EDGE ( 'NONE', *, *, #87, .F. ) ;
#221 = ORIENTED_EDGE ( 'NONE', *, *, #64, .T. ) ;
#222 = AXIS2_PLACEMENT_3D ( 'NONE', #137, #224, #116 ) ;
#223 = AXIS2_PLACEMENT_3D ( 'NONE', #49, #165, #235 ) ;
#224 = DIRECTION ( 'NONE',  ( -1.224646799147353207E-16, -0.000000000000000000, -1.000000000000000000 ) ) ;
#225 = ORIENTED_EDGE ( 'NONE', *, *, #260, .F. ) ;
#226 = EDGE_LOOP ( 'NONE', ( #180, #247, #129, #21 ) ) ;
#227 = DIRECTION ( 'NONE',  ( 1.000000000000000000, 0.000000000000000000, 0.000000000000000000 ) ) ;
#228 = CARTESIAN_POINT ( 'NONE',  ( 0.000000000000000000, 0.000000000000000000, 2.244094000000000033 ) ) ;
#229 = SURFACE_SIDE_STYLE ('',( #50 ) ) ;
#230 = CARTESIAN_POINT ( 'NONE',  ( -0.1181099999999999234, 0.000000000000000000, 0.6502134654053797203 ) ) ;
#231 = LENGTH_MEASURE_WITH_UNIT ( LENGTH_MEASURE( 0.02539999999999999897 ), #23 );
#232 = LINE ( 'NONE', #53, #24 ) ;
#233 = DIRECTION ( 'NONE',  ( 0.1736481776669313859, 0.000000000000000000, 0.9848077530122077983 ) ) ;
#234 = EDGE_CURVE ( 'NONE', #41, #131, #156, .T. ) ;
#235 = DIRECTION ( 'NONE',  ( 1.000000000000000000, 0.000000000000000000, -0.000000000000000000 ) ) ;
#236 = MECHANICAL_DESIGN_GEOMETRIC_PRESENTATION_REPRESENTATION (  '', ( #287 ), #290 ) ;
#237 = ADVANCED_FACE ( 'NONE', ( #289 ), #91, .T. ) ;
#238 = VECTOR ( 'NONE', #296, 39.37007874015748143 ) ;
#239 = EDGE_CURVE ( 'NONE', #41, #178, #108, .T. ) ;
#240 = ORIENTED_EDGE ( 'NONE', *, *, #239, .T. ) ;
#241 = SURFACE_SIDE_STYLE ('',( #197 ) ) ;
#242 = CIRCLE ( 'NONE', #183, 0.1031100000000002570 ) ;
#243 = VERTEX_POINT ( 'NONE', #20 ) ;
#244 =( NAMED_UNIT ( * ) SI_UNIT ( $, .STERADIAN. ) SOLID_ANGLE_UNIT ( ) );
#245 = ORIENTED_EDGE ( 'NONE', *, *, #16, .T. ) ;
#246 = EDGE_CURVE ( 'NONE', #286, #181, #291, .T. ) ;
#247 = ORIENTED_EDGE ( 'NONE', *, *, #169, .T. ) ;
#248 = DIRECTION ( 'NONE',  ( 1.000000000000000000, 0.000000000000000000, 0.000000000000000000 ) ) ;
#249 = PRESENTATION_LAYER_ASSIGNMENT (  '', '', ( #287 ) ) ;
#250 = AXIS2_PLACEMENT_3D ( 'NONE', #190, #115, #76 ) ;
#251 = ORIENTED_EDGE ( 'NONE', *, *, #98, .F. ) ;
#252 = FACE_OUTER_BOUND ( 'NONE', #265, .T. ) ;
#253 = PRODUCT_DEFINITION_CONTEXT ( 'detailed design', #217, 'design' ) ;
#254 = CARTESIAN_POINT ( 'NONE',  ( 0.000000000000000000, 0.000000000000000000, 0.000000000000000000 ) ) ;
#255 = DIRECTION ( 'NONE',  ( 1.000000000000000000, 0.000000000000000000, 0.000000000000000000 ) ) ;
#256 = LINE ( 'NONE', #78, #199 ) ;
#257 = PRODUCT_DEFINITION_FORMATION_WITH_SPECIFIED_SOURCE ( 'ANY', '', #150, .NOT_KNOWN. ) ;
#258 =( NAMED_UNIT ( * ) SI_UNIT ( $, .STERADIAN. ) SOLID_ANGLE_UNIT ( ) );
#259 = CARTESIAN_POINT ( 'NONE',  ( -0.1181100000000000066, 0.000000000000000000, 2.229093999999999465 ) ) ;
#260 = EDGE_CURVE ( 'NONE', #136, #292, #173, .T. ) ;
#261 = DIRECTION ( 'NONE',  ( 1.000000000000000000, 0.000000000000000000, 0.000000000000000000 ) ) ;
#262 = ORIENTED_EDGE ( 'NONE', *, *, #201, .F. ) ;
#263 = CIRCLE ( 'NONE', #171, 0.05899594499999998021 ) ;
#264 = ORIENTED_EDGE ( 'NONE', *, *, #87, .T. ) ;
#265 = EDGE_LOOP ( 'NONE', ( #162, #262, #157, #264 ) ) ;
#266 = AXIS2_PLACEMENT_3D ( 'NONE', #77, #54, #147 ) ;
#267 = CARTESIAN_POINT ( 'NONE',  ( 0.000000000000000000, 0.000000000000000000, 0.000000000000000000 ) ) ;
#268 = ORIENTED_EDGE ( 'NONE', *, *, #200, .F. ) ;
#269 = SHAPE_DEFINITION_REPRESENTATION ( #56, #120 ) ;
#270 = CARTESIAN_POINT ( 'NONE',  ( -0.1181100000000000066, 0.000000000000000000, 2.244094000000000033 ) ) ;
#271 = ORIENTED_EDGE ( 'NONE', *, *, #213, .F. ) ;
#272 =( NAMED_UNIT ( * ) PLANE_ANGLE_UNIT ( ) SI_UNIT ( $, .RADIAN. ) );
#273 = STYLED_ITEM ( 'NONE', ( #27 ), #120 ) ;
#274 = ORIENTED_EDGE ( 'NONE', *, *, #186, .T. ) ;
#275 = ORIENTED_EDGE ( 'NONE', *, *, #260, .T. ) ;
#276 = DIRECTION ( 'NONE',  ( -0.000000000000000000, -0.000000000000000000, -1.000000000000000000 ) ) ;
#277 = AXIS2_PLACEMENT_3D ( 'NONE', #284, #47, #255 ) ;
#278 = EDGE_LOOP ( 'NONE', ( #240, #1, #202, #251 ) ) ;
#279 = MANIFOLD_SOLID_BREP ( 'Cut-Revolve1', #59 ) ;
#280 = DIRECTION ( 'NONE',  ( -1.224646799147353207E-16, -0.000000000000000000, -1.000000000000000000 ) ) ;
#281 = DIRECTION ( 'NONE',  ( 0.7071067811865358044, 8.659560562354788645E-17, -0.7071067811865590080 ) ) ;
#282 = FILL_AREA_STYLE_COLOUR ( '', #118 ) ;
#283 = DIRECTION ( 'NONE',  ( -1.224646799147353207E-16, -0.000000000000000000, -1.000000000000000000 ) ) ;
#284 = CARTESIAN_POINT ( 'NONE',  ( 3.857159805062494824E-17, 0.000000000000000000, 0.3149609999999999910 ) ) ;
#285 = DIMENSIONAL_EXPONENTS ( 1.000000000000000000, 0.000000000000000000, 0.000000000000000000, 0.000000000000000000, 0.000000000000000000, 0.000000000000000000, 0.000000000000000000 ) ;
#286 = VERTEX_POINT ( 'NONE', #30 ) ;
#287 = STYLED_ITEM ( 'NONE', ( #88 ), #279 ) ;
#288 = EDGE_CURVE ( 'NONE', #243, #286, #242, .T. ) ;
#289 = FACE_OUTER_BOUND ( 'NONE', #139, .T. ) ;
#290 =( GEOMETRIC_REPRESENTATION_CONTEXT ( 3 ) GLOBAL_UNCERTAINTY_ASSIGNED_CONTEXT ( ( #141 ) ) GLOBAL_UNIT_ASSIGNED_CONTEXT ( ( #294, #272, #244 ) ) REPRESENTATION_CONTEXT ( 'NONE', 'WORKASPACE' ) );
#291 = LINE ( 'NONE', #109, #212 ) ;
#292 = VERTEX_POINT ( 'NONE', #75 ) ;
#293 = SURFACE_STYLE_USAGE ( .BOTH. , #241 ) ;
#294 =( CONVERSION_BASED_UNIT ( 'INCH', #22 ) LENGTH_UNIT ( ) NAMED_UNIT ( #148 ) );
#295 = EDGE_LOOP ( 'NONE', ( #133, #114 ) ) ;
#296 = DIRECTION ( 'NONE',  ( -0.000000000000000000, -0.000000000000000000, -1.000000000000000000 ) ) ;
#297 = CONICAL_SURFACE ( 'NONE', #277, 0.05899594499999998021, 0.1745329251994338915 ) ;
#298 =( NAMED_UNIT ( * ) PLANE_ANGLE_UNIT ( ) SI_UNIT ( $, .RADIAN. ) );
#299 = EDGE_LOOP ( 'NONE', ( #142, #214, #138, #268 ) ) ;
ENDSEC;
END-ISO-10303-21;
