ISO-10303-21;
HEADER;
FILE_DESCRIPTION (( 'STEP AP214' ),
    '1' );
FILE_NAME ('81946.STEP',
    '2023-06-23T04:11:57',
    ( '' ),
    ( '' ),
    'SwSTEP 2.0',
    'SolidWorks 2023',
    '' );
FILE_SCHEMA (( 'AUTOMOTIVE_DESIGN' ));
ENDSEC;

DATA;
#1 = ORIENTED_EDGE ( 'NONE', *, *, #286, .F. ) ;
#2 = SURFACE_STYLE_FILL_AREA ( #25 ) ;
#3 = STYLED_ITEM ( 'NONE', ( #32 ), #47 ) ;
#4 = DIRECTION ( 'NONE',  ( 0.000000000000000000, 0.000000000000000000, -1.000000000000000000 ) ) ;
#5 = SURFACE_SIDE_STYLE ('',( #80 ) ) ;
#6 = CARTESIAN_POINT ( 'NONE',  ( 0.000000000000000000, 2.000000000000000000, 0.000000000000000000 ) ) ;
#7 = PRESENTATION_STYLE_ASSIGNMENT (( #149 ) ) ;
#8 =( NAMED_UNIT ( * ) SI_UNIT ( $, .STERADIAN. ) SOLID_ANGLE_UNIT ( ) );
#9 = DIRECTION ( 'NONE',  ( -0.000000000000000000, -1.000000000000000000, -0.000000000000000000 ) ) ;
#10 = FILL_AREA_STYLE ('',( #137 ) ) ;
#11 = AXIS2_PLACEMENT_3D ( 'NONE', #29, #97, #4 ) ;
#12 = DIRECTION ( 'NONE',  ( -0.000000000000000000, -1.000000000000000000, -0.000000000000000000 ) ) ;
#13 = CIRCLE ( 'NONE', #248, 0.5000000000000000000 ) ;
#14 = DIRECTION ( 'NONE',  ( -1.000000000000000000, 0.000000000000000000, 0.000000000000000000 ) ) ;
#15 = CARTESIAN_POINT ( 'NONE',  ( -1.224646799147353207E-16, 5.000000000000000000, 0.000000000000000000 ) ) ;
#16 = ORIENTED_EDGE ( 'NONE', *, *, #173, .F. ) ;
#17 = CIRCLE ( 'NONE', #11, 0.5000000000000000000 ) ;
#18 = PRODUCT_DEFINITION_SHAPE ( 'NONE', 'NONE',  #20 ) ;
#19 = STYLED_ITEM ( 'NONE', ( #201 ), #283 ) ;
#20 = PRODUCT_DEFINITION ( 'UNKNOWN', '', #139, #125 ) ;
#21 = VERTEX_POINT ( 'NONE', #171 ) ;
#22 = DIMENSIONAL_EXPONENTS ( 1.000000000000000000, 0.000000000000000000, 0.000000000000000000, 0.000000000000000000, 0.000000000000000000, 0.000000000000000000, 0.000000000000000000 ) ;
#23 = ORIENTED_EDGE ( 'NONE', *, *, #299, .F. ) ;
#24 = ORIENTED_EDGE ( 'NONE', *, *, #98, .T. ) ;
#25 = FILL_AREA_STYLE ('',( #250 ) ) ;
#26 = DIRECTION ( 'NONE',  ( -1.000000000000000000, -4.082155997157843818E-17, 0.000000000000000000 ) ) ;
#27 = ADVANCED_FACE ( 'NONE', ( #295 ), #241, .T. ) ;
#28 = CARTESIAN_POINT ( 'NONE',  ( 0.000000000000000000, 2.000000000000000000, 0.000000000000000000 ) ) ;
#29 = CARTESIAN_POINT ( 'NONE',  ( 0.000000000000000000, 0.000000000000000000, 0.000000000000000000 ) ) ;
#30 = COLOUR_RGB ( '',1.000000000000000000, 0.000000000000000000, 0.000000000000000000 ) ;
#31 = CIRCLE ( 'NONE', #263, 0.5000000000000000000 ) ;
#32 = PRESENTATION_STYLE_ASSIGNMENT (( #176 ) ) ;
#33 =( NAMED_UNIT ( * ) SI_UNIT ( $, .STERADIAN. ) SOLID_ANGLE_UNIT ( ) );
#34 = DIRECTION ( 'NONE',  ( 0.000000000000000000, 0.000000000000000000, -1.000000000000000000 ) ) ;
#35 = ADVANCED_FACE ( 'NONE', ( #101 ), #200, .T. ) ;
#36 = AXIS2_PLACEMENT_3D ( 'NONE', #199, #88, #204 ) ;
#37 = LENGTH_MEASURE_WITH_UNIT ( LENGTH_MEASURE( 0.02539999999999999897 ), #257 );
#38 = DIRECTION ( 'NONE',  ( -0.000000000000000000, -1.000000000000000000, -0.000000000000000000 ) ) ;
#39 = COLOUR_RGB ( '',1.000000000000000000, 0.000000000000000000, 0.000000000000000000 ) ;
#40 = CARTESIAN_POINT ( 'NONE',  ( 0.000000000000000000, 0.000000000000000000, 0.000000000000000000 ) ) ;
#41 = DIRECTION ( 'NONE',  ( 0.000000000000000000, 0.000000000000000000, -1.000000000000000000 ) ) ;
#42 = FACE_OUTER_BOUND ( 'NONE', #208, .T. ) ;
#43 = CARTESIAN_POINT ( 'NONE',  ( 0.4999999999999999445, 5.000000000000000000, 6.123233995736767268E-17 ) ) ;
#44 = ORIENTED_EDGE ( 'NONE', *, *, #286, .T. ) ;
#45 = MECHANICAL_DESIGN_GEOMETRIC_PRESENTATION_REPRESENTATION (  '', ( #135 ), #165 ) ;
#46 = AXIS2_PLACEMENT_3D ( 'NONE', #83, #9, #34 ) ;
#47 = MANIFOLD_SOLID_BREP ( 'Revolve - Tool Body (Straight Shanked)', #260 ) ;
#48 = LENGTH_MEASURE_WITH_UNIT ( LENGTH_MEASURE( 0.02539999999999999897 ), #112 );
#49 = EDGE_CURVE ( 'NONE', #67, #235, #17, .T. ) ;
#50 = ORIENTED_EDGE ( 'NONE', *, *, #159, .T. ) ;
#51 = AXIS2_PLACEMENT_3D ( 'NONE', #78, #170, #223 ) ;
#52 =( GEOMETRIC_REPRESENTATION_CONTEXT ( 3 ) GLOBAL_UNCERTAINTY_ASSIGNED_CONTEXT ( ( #142 ) ) GLOBAL_UNIT_ASSIGNED_CONTEXT ( ( #144, #116, #157 ) ) REPRESENTATION_CONTEXT ( 'NONE', 'WORKASPACE' ) );
#53 = SURFACE_STYLE_FILL_AREA ( #10 ) ;
#54 = ORIENTED_EDGE ( 'NONE', *, *, #302, .T. ) ;
#55 = DIMENSIONAL_EXPONENTS ( 1.000000000000000000, 0.000000000000000000, 0.000000000000000000, 0.000000000000000000, 0.000000000000000000, 0.000000000000000000, 0.000000000000000000 ) ;
#56 = LENGTH_MEASURE_WITH_UNIT ( LENGTH_MEASURE( 0.02539999999999999897 ), #289 );
#57 = PRESENTATION_LAYER_ASSIGNMENT (  '', '', ( #226 ) ) ;
#58 = FACE_OUTER_BOUND ( 'NONE', #194, .T. ) ;
#59 =( LENGTH_UNIT ( ) NAMED_UNIT ( * ) SI_UNIT ( $, .METRE. ) );
#60 = DIRECTION ( 'NONE',  ( 0.000000000000000000, 0.000000000000000000, -1.000000000000000000 ) ) ;
#61 = FACE_OUTER_BOUND ( 'NONE', #115, .T. ) ;
#62 = CARTESIAN_POINT ( 'NONE',  ( -0.5000000000000002220, 5.000000000000000000, 0.000000000000000000 ) ) ;
#63 = DIRECTION ( 'NONE',  ( 1.000000000000000000, 0.000000000000000000, 0.000000000000000000 ) ) ;
#64 =( NAMED_UNIT ( * ) PLANE_ANGLE_UNIT ( ) SI_UNIT ( $, .RADIAN. ) );
#65 =( NAMED_UNIT ( * ) PLANE_ANGLE_UNIT ( ) SI_UNIT ( $, .RADIAN. ) );
#66 = SURFACE_SIDE_STYLE ('',( #2 ) ) ;
#67 = VERTEX_POINT ( 'NONE', #96 ) ;
#68 = PRESENTATION_LAYER_ASSIGNMENT (  '', '', ( #202 ) ) ;
#69 = CIRCLE ( 'NONE', #288, 0.5000000000000000000 ) ;
#70 = ORIENTED_EDGE ( 'NONE', *, *, #207, .F. ) ;
#71 = DIMENSIONAL_EXPONENTS ( 1.000000000000000000, 0.000000000000000000, 0.000000000000000000, 0.000000000000000000, 0.000000000000000000, 0.000000000000000000, 0.000000000000000000 ) ;
#72 = DIRECTION ( 'NONE',  ( -1.000000000000000000, 0.000000000000000000, 0.000000000000000000 ) ) ;
#73 = ORIENTED_EDGE ( 'NONE', *, *, #268, .F. ) ;
#74 = COLOUR_RGB ( '',1.000000000000000000, 0.000000000000000000, 0.000000000000000000 ) ;
#75 = DIRECTION ( 'NONE',  ( -0.000000000000000000, -1.000000000000000000, -0.000000000000000000 ) ) ;
#76 = CARTESIAN_POINT ( 'NONE',  ( -1.224646799147353207E-16, 5.000000000000000000, 0.000000000000000000 ) ) ;
#77 = PRESENTATION_STYLE_ASSIGNMENT (( #298 ) ) ;
#78 = CARTESIAN_POINT ( 'NONE',  ( 0.000000000000000000, 2.000000000000000000, 0.000000000000000000 ) ) ;
#79 = AXIS2_PLACEMENT_3D ( 'NONE', #205, #91, #41 ) ;
#80 = SURFACE_STYLE_FILL_AREA ( #180 ) ;
#81 = UNCERTAINTY_MEASURE_WITH_UNIT (LENGTH_MEASURE( 1.000000000000000082E-05 ), #103, 'distance_accuracy_value', 'NONE');
#82 =( NAMED_UNIT ( * ) SI_UNIT ( $, .STERADIAN. ) SOLID_ANGLE_UNIT ( ) );
#83 = CARTESIAN_POINT ( 'NONE',  ( 0.000000000000000000, 2.000000000000000000, 0.000000000000000000 ) ) ;
#84 = ADVANCED_FACE ( 'NONE', ( #196 ), #291, .T. ) ;
#85 = FILL_AREA_STYLE ('',( #133 ) ) ;
#86 = FILL_AREA_STYLE_COLOUR ( '', #74 ) ;
#87 = DIMENSIONAL_EXPONENTS ( 1.000000000000000000, 0.000000000000000000, 0.000000000000000000, 0.000000000000000000, 0.000000000000000000, 0.000000000000000000, 0.000000000000000000 ) ;
#88 = DIRECTION ( 'NONE',  ( 4.082155997157843818E-17, -1.000000000000000000, 0.000000000000000000 ) ) ;
#89 = ADVANCED_FACE ( 'NONE', ( #42 ), #189, .T. ) ;
#90 = SURFACE_STYLE_USAGE ( .BOTH. , #251 ) ;
#91 = DIRECTION ( 'NONE',  ( -0.000000000000000000, -1.000000000000000000, -0.000000000000000000 ) ) ;
#92 = MECHANICAL_DESIGN_GEOMETRIC_PRESENTATION_REPRESENTATION (  '', ( #3 ), #100 ) ;
#93 = ORIENTED_EDGE ( 'NONE', *, *, #49, .T. ) ;
#94 = ORIENTED_EDGE ( 'NONE', *, *, #207, .T. ) ;
#95 = FILL_AREA_STYLE ('',( #275 ) ) ;
#96 = CARTESIAN_POINT ( 'NONE',  ( 6.123233995736766036E-17, 0.000000000000000000, 0.5000000000000000000 ) ) ;
#97 = DIRECTION ( 'NONE',  ( -0.000000000000000000, -1.000000000000000000, -0.000000000000000000 ) ) ;
#98 = EDGE_CURVE ( 'NONE', #145, #143, #118, .T. ) ;
#99 =( NAMED_UNIT ( * ) PLANE_ANGLE_UNIT ( ) SI_UNIT ( $, .RADIAN. ) );
#100 =( GEOMETRIC_REPRESENTATION_CONTEXT ( 3 ) GLOBAL_UNCERTAINTY_ASSIGNED_CONTEXT ( ( #102 ) ) GLOBAL_UNIT_ASSIGNED_CONTEXT ( ( #273, #297, #82 ) ) REPRESENTATION_CONTEXT ( 'NONE', 'WORKASPACE' ) );
#101 = FACE_OUTER_BOUND ( 'NONE', #114, .T. ) ;
#102 = UNCERTAINTY_MEASURE_WITH_UNIT (LENGTH_MEASURE( 1.000000000000000082E-05 ), #273, 'distance_accuracy_value', 'NONE');
#103 =( CONVERSION_BASED_UNIT ( 'INCH', #198 ) LENGTH_UNIT ( ) NAMED_UNIT ( #71 ) );
#104 = DIRECTION ( 'NONE',  ( 0.000000000000000000, 0.000000000000000000, 1.000000000000000000 ) ) ;
#105 =( NAMED_UNIT ( * ) SI_UNIT ( $, .STERADIAN. ) SOLID_ANGLE_UNIT ( ) );
#106 = LENGTH_MEASURE_WITH_UNIT ( LENGTH_MEASURE( 0.02539999999999999897 ), #182 );
#107 = CYLINDRICAL_SURFACE ( 'NONE', #79, 0.5000000000000000000 ) ;
#108 = FACE_OUTER_BOUND ( 'NONE', #111, .T. ) ;
#109 = DIRECTION ( 'NONE',  ( -4.082155997157843818E-17, 1.000000000000000000, -0.000000000000000000 ) ) ;
#110 =( GEOMETRIC_REPRESENTATION_CONTEXT ( 3 ) GLOBAL_UNCERTAINTY_ASSIGNED_CONTEXT ( ( #174 ) ) GLOBAL_UNIT_ASSIGNED_CONTEXT ( ( #151, #99, #8 ) ) REPRESENTATION_CONTEXT ( 'NONE', 'WORKASPACE' ) );
#111 = EDGE_LOOP ( 'NONE', ( #271, #213, #73, #168 ) ) ;
#112 =( LENGTH_UNIT ( ) NAMED_UNIT ( * ) SI_UNIT ( $, .METRE. ) );
#113 = ADVANCED_FACE ( 'NONE', ( #58 ), #154, .F. ) ;
#114 = EDGE_LOOP ( 'NONE', ( #94, #54, #23, #119 ) ) ;
#115 = EDGE_LOOP ( 'NONE', ( #236, #24, #50, #1 ) ) ;
#116 =( NAMED_UNIT ( * ) PLANE_ANGLE_UNIT ( ) SI_UNIT ( $, .RADIAN. ) );
#117 = ORIENTED_EDGE ( 'NONE', *, *, #98, .F. ) ;
#118 = CIRCLE ( 'NONE', #169, 0.5000000000000000000 ) ;
#119 = ORIENTED_EDGE ( 'NONE', *, *, #159, .F. ) ;
#120 = ADVANCED_FACE ( 'NONE', ( #256 ), #161, .F. ) ;
#121 = SURFACE_SIDE_STYLE ('',( #127 ) ) ;
#122 = DIRECTION ( 'NONE',  ( -4.082155997157843818E-17, 1.000000000000000000, -0.000000000000000000 ) ) ;
#123 = AXIS2_PLACEMENT_3D ( 'NONE', #300, #104, #63 ) ;
#124 =( LENGTH_UNIT ( ) NAMED_UNIT ( * ) SI_UNIT ( $, .METRE. ) );
#125 = PRODUCT_DEFINITION_CONTEXT ( 'detailed design', #146, 'design' ) ;
#126 = DIRECTION ( 'NONE',  ( -1.000000000000000000, 0.000000000000000000, 0.000000000000000000 ) ) ;
#127 = SURFACE_STYLE_FILL_AREA ( #95 ) ;
#128 = DIRECTION ( 'NONE',  ( -4.082155997157843818E-17, 1.000000000000000000, -0.000000000000000000 ) ) ;
#129 = UNCERTAINTY_MEASURE_WITH_UNIT (LENGTH_MEASURE( 1.000000000000000082E-05 ), #239, 'distance_accuracy_value', 'NONE');
#130 = CARTESIAN_POINT ( 'NONE',  ( 0.000000000000000000, 0.000000000000000000, 0.000000000000000000 ) ) ;
#131 = COLOUR_RGB ( '',0.7921568627450980005, 0.8196078431372548767, 0.9333333333333333481 ) ;
#132 = CIRCLE ( 'NONE', #233, 0.5000000000000001110 ) ;
#133 = FILL_AREA_STYLE_COLOUR ( '', #183 ) ;
#134 =( NAMED_UNIT ( * ) PLANE_ANGLE_UNIT ( ) SI_UNIT ( $, .RADIAN. ) );
#135 = STYLED_ITEM ( 'NONE', ( #282 ), #84 ) ;
#136 = SURFACE_STYLE_USAGE ( .BOTH. , #281 ) ;
#137 = FILL_AREA_STYLE_COLOUR ( '', #30 ) ;
#138 = AXIS2_PLACEMENT_3D ( 'NONE', #76, #122, #240 ) ;
#139 = PRODUCT_DEFINITION_FORMATION_WITH_SPECIFIED_SOURCE ( 'ANY', '', #163, .NOT_KNOWN. ) ;
#140 = APPLICATION_CONTEXT ( 'automotive_design' ) ;
#141 = DIRECTION ( 'NONE',  ( -4.082155997157843818E-17, 1.000000000000000000, -0.000000000000000000 ) ) ;
#142 = UNCERTAINTY_MEASURE_WITH_UNIT (LENGTH_MEASURE( 1.000000000000000082E-05 ), #144, 'distance_accuracy_value', 'NONE');
#143 = VERTEX_POINT ( 'NONE', #215 ) ;
#144 =( CONVERSION_BASED_UNIT ( 'INCH', #48 ) LENGTH_UNIT ( ) NAMED_UNIT ( #22 ) );
#145 = VERTEX_POINT ( 'NONE', #277 ) ;
#146 = APPLICATION_CONTEXT ( 'automotive_design' ) ;
#147 = EDGE_LOOP ( 'NONE', ( #70, #117 ) ) ;
#148 = CIRCLE ( 'NONE', #46, 0.5000000000000000000 ) ;
#149 = SURFACE_STYLE_USAGE ( .BOTH. , #266 ) ;
#150 = DIRECTION ( 'NONE',  ( -4.082155997157843818E-17, 1.000000000000000000, -0.000000000000000000 ) ) ;
#151 =( CONVERSION_BASED_UNIT ( 'INCH', #56 ) LENGTH_UNIT ( ) NAMED_UNIT ( #87 ) );
#152 = CARTESIAN_POINT ( 'NONE',  ( 0.000000000000000000, 2.000000000000000000, 0.000000000000000000 ) ) ;
#153 = MANIFOLD_SOLID_BREP ( 'Revolve - Cutting Edge', #191 ) ;
#154 = PLANE ( 'NONE',  #36 ) ;
#155 = CARTESIAN_POINT ( 'NONE',  ( 0.000000000000000000, 0.000000000000000000, -0.5000000000000000000 ) ) ;
#156 = CARTESIAN_POINT ( 'NONE',  ( 4.165999396282937514E-34, 2.000000000000000000, 0.000000000000000000 ) ) ;
#157 =( NAMED_UNIT ( * ) SI_UNIT ( $, .STERADIAN. ) SOLID_ANGLE_UNIT ( ) );
#158 = CYLINDRICAL_SURFACE ( 'NONE', #270, 0.5000000000000001110 ) ;
#159 = EDGE_CURVE ( 'NONE', #143, #264, #221, .T. ) ;
#160 = DIRECTION ( 'NONE',  ( -4.082155997157843818E-17, 1.000000000000000000, 0.000000000000000000 ) ) ;
#161 = PLANE ( 'NONE',  #262 ) ;
#162 = COLOUR_RGB ( '',0.7921568627450980005, 0.8196078431372548767, 0.9333333333333333481 ) ;
#163 = PRODUCT ( '81946', '81946', '', ( #278 ) ) ;
#164 = LINE ( 'NONE', #43, #255 ) ;
#165 =( GEOMETRIC_REPRESENTATION_CONTEXT ( 3 ) GLOBAL_UNCERTAINTY_ASSIGNED_CONTEXT ( ( #179 ) ) GLOBAL_UNIT_ASSIGNED_CONTEXT ( ( #228, #64, #105 ) ) REPRESENTATION_CONTEXT ( 'NONE', 'WORKASPACE' ) );
#166 = ORIENTED_EDGE ( 'NONE', *, *, #173, .T. ) ;
#167 = EDGE_LOOP ( 'NONE', ( #238, #166, #220, #232 ) ) ;
#168 = ORIENTED_EDGE ( 'NONE', *, *, #244, .F. ) ;
#169 = AXIS2_PLACEMENT_3D ( 'NONE', #28, #290, #219 ) ;
#170 = DIRECTION ( 'NONE',  ( 0.000000000000000000, 1.000000000000000000, 0.000000000000000000 ) ) ;
#171 = CARTESIAN_POINT ( 'NONE',  ( 0.5000000000000000000, 5.000000000000000000, 6.123233995736767268E-17 ) ) ;
#172 = CARTESIAN_POINT ( 'NONE',  ( 0.000000000000000000, 2.000000000000000000, -0.5000000000000000000 ) ) ;
#173 = EDGE_CURVE ( 'NONE', #211, #261, #148, .T. ) ;
#174 = UNCERTAINTY_MEASURE_WITH_UNIT (LENGTH_MEASURE( 1.000000000000000082E-05 ), #151, 'distance_accuracy_value', 'NONE');
#175 = PRESENTATION_STYLE_ASSIGNMENT (( #265 ) ) ;
#176 = SURFACE_STYLE_USAGE ( .BOTH. , #121 ) ;
#177 = CARTESIAN_POINT ( 'NONE',  ( -0.5000000000000002220, 5.000000000000000000, 0.000000000000000000 ) ) ;
#178 = AXIS2_PLACEMENT_3D ( 'NONE', #40, #259, #209 ) ;
#179 = UNCERTAINTY_MEASURE_WITH_UNIT (LENGTH_MEASURE( 1.000000000000000082E-05 ), #228, 'distance_accuracy_value', 'NONE');
#180 = FILL_AREA_STYLE ('',( #216 ) ) ;
#181 = SURFACE_STYLE_FILL_AREA ( #85 ) ;
#182 =( LENGTH_UNIT ( ) NAMED_UNIT ( * ) SI_UNIT ( $, .METRE. ) );
#183 = COLOUR_RGB ( '',1.000000000000000000, 0.000000000000000000, 0.000000000000000000 ) ;
#184 = PRESENTATION_LAYER_ASSIGNMENT (  '', '', ( #19 ) ) ;
#185 = APPLICATION_PROTOCOL_DEFINITION ( 'draft international standard', 'automotive_design', 1998, #140 ) ;
#186 = DIRECTION ( 'NONE',  ( 0.000000000000000000, 0.000000000000000000, -1.000000000000000000 ) ) ;
#187 =( CONVERSION_BASED_UNIT ( 'INCH', #106 ) LENGTH_UNIT ( ) NAMED_UNIT ( #307 ) );
#188 = PRODUCT_RELATED_PRODUCT_CATEGORY ( 'part', '', ( #163 ) ) ;
#189 = PLANE ( 'NONE',  #51 ) ;
#190 = DIRECTION ( 'NONE',  ( -1.000000000000000000, 0.000000000000000000, 0.000000000000000000 ) ) ;
#191 = CLOSED_SHELL ( 'NONE', ( #283, #89, #84, #27 ) ) ;
#192 = EDGE_CURVE ( 'NONE', #211, #67, #276, .T. ) ;
#193 = EDGE_LOOP ( 'NONE', ( #212, #93 ) ) ;
#194 = EDGE_LOOP ( 'NONE', ( #284, #44 ) ) ;
#195 =( GEOMETRIC_REPRESENTATION_CONTEXT ( 3 ) GLOBAL_UNCERTAINTY_ASSIGNED_CONTEXT ( ( #81 ) ) GLOBAL_UNIT_ASSIGNED_CONTEXT ( ( #103, #134, #33 ) ) REPRESENTATION_CONTEXT ( 'NONE', 'WORKASPACE' ) );
#196 = FACE_OUTER_BOUND ( 'NONE', #167, .T. ) ;
#197 = DIRECTION ( 'NONE',  ( -4.082155997157843818E-17, 1.000000000000000000, -0.000000000000000000 ) ) ;
#198 = LENGTH_MEASURE_WITH_UNIT ( LENGTH_MEASURE( 0.02539999999999999897 ), #59 );
#199 = CARTESIAN_POINT ( 'NONE',  ( 0.5000000000000000000, 5.000000000000000000, 0.000000000000000000 ) ) ;
#200 = CYLINDRICAL_SURFACE ( 'NONE', #138, 0.5000000000000001110 ) ;
#201 = PRESENTATION_STYLE_ASSIGNMENT (( #136 ) ) ;
#202 = STYLED_ITEM ( 'NONE', ( #7 ), #89 ) ;
#203 = PRESENTATION_LAYER_ASSIGNMENT (  '', '', ( #3 ) ) ;
#204 = DIRECTION ( 'NONE',  ( 1.000000000000000000, 4.082155997157843818E-17, 0.000000000000000000 ) ) ;
#205 = CARTESIAN_POINT ( 'NONE',  ( 0.000000000000000000, 0.000000000000000000, 0.000000000000000000 ) ) ;
#206 = PRESENTATION_LAYER_ASSIGNMENT (  '', '', ( #294 ) ) ;
#207 = EDGE_CURVE ( 'NONE', #143, #145, #69, .T. ) ;
#208 = EDGE_LOOP ( 'NONE', ( #210, #16 ) ) ;
#209 = DIRECTION ( 'NONE',  ( 0.000000000000000000, 0.000000000000000000, -1.000000000000000000 ) ) ;
#210 = ORIENTED_EDGE ( 'NONE', *, *, #231, .F. ) ;
#211 = VERTEX_POINT ( 'NONE', #242 ) ;
#212 = ORIENTED_EDGE ( 'NONE', *, *, #268, .T. ) ;
#213 = ORIENTED_EDGE ( 'NONE', *, *, #192, .T. ) ;
#214 = DIMENSIONAL_EXPONENTS ( 1.000000000000000000, 0.000000000000000000, 0.000000000000000000, 0.000000000000000000, 0.000000000000000000, 0.000000000000000000, 0.000000000000000000 ) ;
#215 = CARTESIAN_POINT ( 'NONE',  ( -0.5000000000000000000, 2.000000000000000000, 0.000000000000000000 ) ) ;
#216 = FILL_AREA_STYLE_COLOUR ( '', #39 ) ;
#217 =( LENGTH_UNIT ( ) NAMED_UNIT ( * ) SI_UNIT ( $, .METRE. ) );
#218 = VECTOR ( 'NONE', #75, 39.37007874015748143 ) ;
#219 = DIRECTION ( 'NONE',  ( -1.000000000000000000, 0.000000000000000000, 0.000000000000000000 ) ) ;
#220 = ORIENTED_EDGE ( 'NONE', *, *, #244, .T. ) ;
#221 = LINE ( 'NONE', #177, #296 ) ;
#222 = LINE ( 'NONE', #155, #218 ) ;
#223 = DIRECTION ( 'NONE',  ( 0.000000000000000000, -0.000000000000000000, 1.000000000000000000 ) ) ;
#224 = DIRECTION ( 'NONE',  ( 0.000000000000000000, 0.000000000000000000, -1.000000000000000000 ) ) ;
#225 = CARTESIAN_POINT ( 'NONE',  ( 6.123233995736766036E-17, 0.000000000000000000, 0.5000000000000000000 ) ) ;
#226 = STYLED_ITEM ( 'NONE', ( #175 ), #27 ) ;
#227 =( GEOMETRIC_REPRESENTATION_CONTEXT ( 3 ) GLOBAL_UNCERTAINTY_ASSIGNED_CONTEXT ( ( #274 ) ) GLOBAL_UNIT_ASSIGNED_CONTEXT ( ( #187, #65, #258 ) ) REPRESENTATION_CONTEXT ( 'NONE', 'WORKASPACE' ) );
#228 =( CONVERSION_BASED_UNIT ( 'INCH', #37 ) LENGTH_UNIT ( ) NAMED_UNIT ( #214 ) );
#229 = DIRECTION ( 'NONE',  ( -4.082155997157843818E-17, 1.000000000000000000, -0.000000000000000000 ) ) ;
#230 = AXIS2_PLACEMENT_3D ( 'NONE', #15, #141, #190 ) ;
#231 = EDGE_CURVE ( 'NONE', #261, #211, #13, .T. ) ;
#232 = ORIENTED_EDGE ( 'NONE', *, *, #49, .F. ) ;
#233 = AXIS2_PLACEMENT_3D ( 'NONE', #285, #109, #72 ) ;
#234 = DIMENSIONAL_EXPONENTS ( 1.000000000000000000, 0.000000000000000000, 0.000000000000000000, 0.000000000000000000, 0.000000000000000000, 0.000000000000000000, 0.000000000000000000 ) ;
#235 = VERTEX_POINT ( 'NONE', #292 ) ;
#236 = ORIENTED_EDGE ( 'NONE', *, *, #302, .F. ) ;
#237 = MECHANICAL_DESIGN_GEOMETRIC_PRESENTATION_REPRESENTATION (  '', ( #202 ), #254 ) ;
#238 = ORIENTED_EDGE ( 'NONE', *, *, #192, .F. ) ;
#239 =( CONVERSION_BASED_UNIT ( 'INCH', #293 ) LENGTH_UNIT ( ) NAMED_UNIT ( #55 ) );
#240 = DIRECTION ( 'NONE',  ( -1.000000000000000000, 0.000000000000000000, 0.000000000000000000 ) ) ;
#241 = PLANE ( 'NONE',  #269 ) ;
#242 = CARTESIAN_POINT ( 'NONE',  ( 6.123233995736766036E-17, 2.000000000000000000, 0.5000000000000000000 ) ) ;
#243 = LENGTH_MEASURE_WITH_UNIT ( LENGTH_MEASURE( 0.02539999999999999897 ), #217 );
#244 = EDGE_CURVE ( 'NONE', #261, #235, #222, .T. ) ;
#245 = DIRECTION ( 'NONE',  ( 0.000000000000000000, -1.000000000000000000, -0.000000000000000000 ) ) ;
#246 = CARTESIAN_POINT ( 'NONE',  ( -1.224646799147353207E-16, 5.000000000000000000, 0.000000000000000000 ) ) ;
#247 = MECHANICAL_DESIGN_GEOMETRIC_PRESENTATION_REPRESENTATION (  '', ( #294 ), #195 ) ;
#248 = AXIS2_PLACEMENT_3D ( 'NONE', #6, #12, #60 ) ;
#249 = ADVANCED_FACE ( 'NONE', ( #61 ), #158, .T. ) ;
#250 = FILL_AREA_STYLE_COLOUR ( '', #131 ) ;
#251 = SURFACE_SIDE_STYLE ('',( #181 ) ) ;
#252 = CARTESIAN_POINT ( 'NONE',  ( 0.000000000000000000, 0.000000000000000000, 0.000000000000000000 ) ) ;
#253 = ADVANCED_BREP_SHAPE_REPRESENTATION ( '81946', ( #153, #47, #123 ), #52 ) ;
#254 =( GEOMETRIC_REPRESENTATION_CONTEXT ( 3 ) GLOBAL_UNCERTAINTY_ASSIGNED_CONTEXT ( ( #129 ) ) GLOBAL_UNIT_ASSIGNED_CONTEXT ( ( #239, #272, #287 ) ) REPRESENTATION_CONTEXT ( 'NONE', 'WORKASPACE' ) );
#255 = VECTOR ( 'NONE', #150, 39.37007874015748143 ) ;
#256 = FACE_OUTER_BOUND ( 'NONE', #147, .T. ) ;
#257 =( LENGTH_UNIT ( ) NAMED_UNIT ( * ) SI_UNIT ( $, .METRE. ) );
#258 =( NAMED_UNIT ( * ) SI_UNIT ( $, .STERADIAN. ) SOLID_ANGLE_UNIT ( ) );
#259 = DIRECTION ( 'NONE',  ( -0.000000000000000000, -1.000000000000000000, -0.000000000000000000 ) ) ;
#260 = CLOSED_SHELL ( 'NONE', ( #35, #120, #249, #113 ) ) ;
#261 = VERTEX_POINT ( 'NONE', #172 ) ;
#262 = AXIS2_PLACEMENT_3D ( 'NONE', #156, #160, #26 ) ;
#263 = AXIS2_PLACEMENT_3D ( 'NONE', #252, #38, #186 ) ;
#264 = VERTEX_POINT ( 'NONE', #62 ) ;
#265 = SURFACE_STYLE_USAGE ( .BOTH. , #5 ) ;
#266 = SURFACE_SIDE_STYLE ('',( #53 ) ) ;
#267 = DIRECTION ( 'NONE',  ( -0.000000000000000000, -1.000000000000000000, -0.000000000000000000 ) ) ;
#268 = EDGE_CURVE ( 'NONE', #235, #67, #31, .T. ) ;
#269 = AXIS2_PLACEMENT_3D ( 'NONE', #130, #245, #224 ) ;
#270 = AXIS2_PLACEMENT_3D ( 'NONE', #246, #229, #14 ) ;
#271 = ORIENTED_EDGE ( 'NONE', *, *, #231, .T. ) ;
#272 =( NAMED_UNIT ( * ) PLANE_ANGLE_UNIT ( ) SI_UNIT ( $, .RADIAN. ) );
#273 =( CONVERSION_BASED_UNIT ( 'INCH', #243 ) LENGTH_UNIT ( ) NAMED_UNIT ( #234 ) );
#274 = UNCERTAINTY_MEASURE_WITH_UNIT (LENGTH_MEASURE( 1.000000000000000082E-05 ), #187, 'distance_accuracy_value', 'NONE');
#275 = FILL_AREA_STYLE_COLOUR ( '', #162 ) ;
#276 = LINE ( 'NONE', #225, #309 ) ;
#277 = CARTESIAN_POINT ( 'NONE',  ( 0.5000000000000000000, 2.000000000000000000, 6.123233995736767268E-17 ) ) ;
#278 = PRODUCT_CONTEXT ( 'NONE', #140, 'mechanical' ) ;
#279 = MECHANICAL_DESIGN_GEOMETRIC_PRESENTATION_REPRESENTATION (  '', ( #19 ), #227 ) ;
#280 = APPLICATION_PROTOCOL_DEFINITION ( 'draft international standard', 'automotive_design', 1998, #146 ) ;
#281 = SURFACE_SIDE_STYLE ('',( #301 ) ) ;
#282 = PRESENTATION_STYLE_ASSIGNMENT (( #90 ) ) ;
#283 = ADVANCED_FACE ( 'NONE', ( #108 ), #107, .T. ) ;
#284 = ORIENTED_EDGE ( 'NONE', *, *, #299, .T. ) ;
#285 = CARTESIAN_POINT ( 'NONE',  ( -1.224646799147353207E-16, 5.000000000000000000, 0.000000000000000000 ) ) ;
#286 = EDGE_CURVE ( 'NONE', #21, #264, #306, .T. ) ;
#287 =( NAMED_UNIT ( * ) SI_UNIT ( $, .STERADIAN. ) SOLID_ANGLE_UNIT ( ) );
#288 = AXIS2_PLACEMENT_3D ( 'NONE', #152, #128, #126 ) ;
#289 =( LENGTH_UNIT ( ) NAMED_UNIT ( * ) SI_UNIT ( $, .METRE. ) );
#290 = DIRECTION ( 'NONE',  ( -4.082155997157843818E-17, 1.000000000000000000, -0.000000000000000000 ) ) ;
#291 = CYLINDRICAL_SURFACE ( 'NONE', #178, 0.5000000000000000000 ) ;
#292 = CARTESIAN_POINT ( 'NONE',  ( 0.000000000000000000, 0.000000000000000000, -0.5000000000000000000 ) ) ;
#293 = LENGTH_MEASURE_WITH_UNIT ( LENGTH_MEASURE( 0.02539999999999999897 ), #124 );
#294 = STYLED_ITEM ( 'NONE', ( #77 ), #153 ) ;
#295 = FACE_OUTER_BOUND ( 'NONE', #193, .T. ) ;
#296 = VECTOR ( 'NONE', #197, 39.37007874015748143 ) ;
#297 =( NAMED_UNIT ( * ) PLANE_ANGLE_UNIT ( ) SI_UNIT ( $, .RADIAN. ) );
#298 = SURFACE_STYLE_USAGE ( .BOTH. , #66 ) ;
#299 = EDGE_CURVE ( 'NONE', #264, #21, #132, .T. ) ;
#300 = CARTESIAN_POINT ( 'NONE',  ( 0.000000000000000000, 0.000000000000000000, 0.000000000000000000 ) ) ;
#301 = SURFACE_STYLE_FILL_AREA ( #304 ) ;
#302 = EDGE_CURVE ( 'NONE', #145, #21, #164, .T. ) ;
#303 = SHAPE_DEFINITION_REPRESENTATION ( #18, #253 ) ;
#304 = FILL_AREA_STYLE ('',( #86 ) ) ;
#305 = MECHANICAL_DESIGN_GEOMETRIC_PRESENTATION_REPRESENTATION (  '', ( #226 ), #110 ) ;
#306 = CIRCLE ( 'NONE', #230, 0.5000000000000001110 ) ;
#307 = DIMENSIONAL_EXPONENTS ( 1.000000000000000000, 0.000000000000000000, 0.000000000000000000, 0.000000000000000000, 0.000000000000000000, 0.000000000000000000, 0.000000000000000000 ) ;
#308 = PRESENTATION_LAYER_ASSIGNMENT (  '', '', ( #135 ) ) ;
#309 = VECTOR ( 'NONE', #267, 39.37007874015748143 ) ;
ENDSEC;
END-ISO-10303-21;
