ISO-10303-21;
HEADER;
FILE_DESCRIPTION (( 'STEP AP214' ),
    '1' );
FILE_NAME ('Micro_BEM-093-02.STEP',
    '2021-09-03T13:00:17',
    ( '' ),
    ( '' ),
    'SwSTEP 2.0',
    'SolidWorks 2020',
    '' );
FILE_SCHEMA (( 'AUTOMOTIVE_DESIGN' ));
ENDSEC;

DATA;
#1 = DIRECTION ( 'NONE',  ( -1.224646799147353700E-16, -0.0000000000000000000, -1.000000000000000000 ) ) ;
#2 = CARTESIAN_POINT ( 'NONE',  ( 5.731732783751346705E-18, 0.0000000000000000000, 0.04680315000000000170 ) ) ;
#3 = AXIS2_PLACEMENT_3D ( 'NONE', #38, #16, #193 ) ;
#4 = DIRECTION ( 'NONE',  ( 0.1736481776669313026, 0.0000000000000000000, 0.9848077530122077983 ) ) ;
#5 = EDGE_LOOP ( 'NONE', ( #180, #300, #222, #262 ) ) ;
#6 = CARTESIAN_POINT ( 'NONE',  ( -0.06249999999999996531, 0.0000000000000000000, 0.4640212600302659474 ) ) ;
#7 = ORIENTED_EDGE ( 'NONE', *, *, #249, .F. ) ;
#8 = CARTESIAN_POINT ( 'NONE',  ( 5.731732783751346705E-18, 0.0000000000000000000, 0.04680315000000000170 ) ) ;
#9 = DIRECTION ( 'NONE',  ( -1.000000000000000000, 0.0000000000000000000, 0.0000000000000000000 ) ) ;
#10 = DIRECTION ( 'NONE',  ( 1.224646799147353700E-16, 0.0000000000000000000, 1.000000000000000000 ) ) ;
#11 = FACE_OUTER_BOUND ( 'NONE', #158, .T. ) ;
#12 = DIRECTION ( 'NONE',  ( -1.000000000000000000, 0.0000000000000000000, 1.224646799147353700E-16 ) ) ;
#13 = EDGE_CURVE ( 'NONE', #98, #302, #292, .T. ) ;
#14 = DIRECTION ( 'NONE',  ( 1.000000000000000000, 0.0000000000000000000, -0.0000000000000000000 ) ) ;
#15 = EDGE_LOOP ( 'NONE', ( #28, #295, #183, #242 ) ) ;
#16 = DIRECTION ( 'NONE',  ( 0.0000000000000000000, 0.0000000000000000000, -1.000000000000000000 ) ) ;
#17 = ORIENTED_EDGE ( 'NONE', *, *, #164, .T. ) ;
#18 =( CONVERSION_BASED_UNIT ( 'INCH', #64 ) LENGTH_UNIT ( ) NAMED_UNIT ( #153 ) );
#19 = COLOUR_RGB ( '',0.7921568627450980005, 0.8196078431372548767, 0.9333333333333333481 ) ;
#20 = EDGE_CURVE ( 'NONE', #154, #268, #111, .T. ) ;
#21 = PRODUCT_DEFINITION ( 'UNKNOWN', '', #170, #319 ) ;
#22 = CYLINDRICAL_SURFACE ( 'NONE', #191, 0.06250000000000002776 ) ;
#23 = LINE ( 'NONE', #107, #273 ) ;
#24 = DIRECTION ( 'NONE',  ( 1.224646799147353700E-16, 0.0000000000000000000, 1.000000000000000000 ) ) ;
#25 = DIRECTION ( 'NONE',  ( -1.224646799147353700E-16, -0.0000000000000000000, -1.000000000000000000 ) ) ;
#26 = CARTESIAN_POINT ( 'NONE',  ( 0.0000000000000000000, 0.0000000000000000000, 1.500000000000000222 ) ) ;
#27 = PRODUCT_DEFINITION_SHAPE ( 'NONE', 'NONE',  #21 ) ;
#28 = ORIENTED_EDGE ( 'NONE', *, *, #119, .F. ) ;
#29 = CARTESIAN_POINT ( 'NONE',  ( -0.06250000000000002776, 0.0000000000000000000, 1.485000000000000764 ) ) ;
#30 = ADVANCED_FACE ( 'NONE', ( #185 ), #281, .T. ) ;
#31 =( LENGTH_UNIT ( ) NAMED_UNIT ( * ) SI_UNIT ( $, .METRE. ) );
#32 = COLOUR_RGB ( '',0.7921568627450980005, 0.8196078431372548767, 0.9333333333333333481 ) ;
#33 = CARTESIAN_POINT ( 'NONE',  ( -0.06250000000000002776, 0.0000000000000000000, 1.500000000000000222 ) ) ;
#34 = LENGTH_MEASURE_WITH_UNIT ( LENGTH_MEASURE( 0.02539999999999999897 ), #289 );
#35 = CARTESIAN_POINT ( 'NONE',  ( -0.04680314999999999476, 0.0000000000000000000, 0.04680315000000000863 ) ) ;
#36 =( GEOMETRIC_REPRESENTATION_CONTEXT ( 3 ) GLOBAL_UNCERTAINTY_ASSIGNED_CONTEXT ( ( #62 ) ) GLOBAL_UNIT_ASSIGNED_CONTEXT ( ( #139, #194, #190 ) ) REPRESENTATION_CONTEXT ( 'NONE', 'WORKASPACE' ) );
#37 = ORIENTED_EDGE ( 'NONE', *, *, #264, .F. ) ;
#38 = CARTESIAN_POINT ( 'NONE',  ( 0.0000000000000000000, 0.0000000000000000000, 1.500000000000000222 ) ) ;
#39 = ORIENTED_EDGE ( 'NONE', *, *, #119, .T. ) ;
#40 = CIRCLE ( 'NONE', #287, 0.06250000000000002776 ) ;
#41 =( NAMED_UNIT ( * ) PLANE_ANGLE_UNIT ( ) SI_UNIT ( $, .RADIAN. ) );
#42 = APPLICATION_PROTOCOL_DEFINITION ( 'draft international standard', 'automotive_design', 1998, #55 ) ;
#43 = ORIENTED_EDGE ( 'NONE', *, *, #197, .T. ) ;
#44 = CIRCLE ( 'NONE', #219, 0.04680315000000000170 ) ;
#45 = DIRECTION ( 'NONE',  ( 1.000000000000000000, 0.0000000000000000000, 0.0000000000000000000 ) ) ;
#46 = LINE ( 'NONE', #251, #69 ) ;
#47 = ORIENTED_EDGE ( 'NONE', *, *, #71, .T. ) ;
#48 = EDGE_CURVE ( 'NONE', #268, #73, #50, .T. ) ;
#49 = CARTESIAN_POINT ( 'NONE',  ( 0.04750000000000064587, 6.735557395310483192E-18, 1.500000000000000222 ) ) ;
#50 = CIRCLE ( 'NONE', #77, 0.04680315000000000170 ) ;
#51 = DIRECTION ( 'NONE',  ( 0.0000000000000000000, 0.0000000000000000000, 1.000000000000000000 ) ) ;
#52 = VERTEX_POINT ( 'NONE', #208 ) ;
#53 = DIRECTION ( 'NONE',  ( 0.0000000000000000000, 0.0000000000000000000, -1.000000000000000000 ) ) ;
#54 = CARTESIAN_POINT ( 'NONE',  ( 4.592425496802576684E-17, 0.0000000000000000000, 0.3750000000000000555 ) ) ;
#55 = APPLICATION_CONTEXT ( 'automotive_design' ) ;
#56 = ORIENTED_EDGE ( 'NONE', *, *, #144, .T. ) ;
#57 = VECTOR ( 'NONE', #108, 39.37007874015748143 ) ;
#58 = EDGE_LOOP ( 'NONE', ( #135, #283, #260, #277 ) ) ;
#59 =( NAMED_UNIT ( * ) PLANE_ANGLE_UNIT ( ) SI_UNIT ( $, .RADIAN. ) );
#60 = ADVANCED_FACE ( 'NONE', ( #233 ), #210, .T. ) ;
#61 = DIRECTION ( 'NONE',  ( 0.0000000000000000000, 0.0000000000000000000, -1.000000000000000000 ) ) ;
#62 = UNCERTAINTY_MEASURE_WITH_UNIT (LENGTH_MEASURE( 1.000000000000000082E-05 ), #139, 'distance_accuracy_value', 'NONE');
#63 = EDGE_CURVE ( 'NONE', #82, #75, #23, .T. ) ;
#64 = LENGTH_MEASURE_WITH_UNIT ( LENGTH_MEASURE( 0.02539999999999999897 ), #324 );
#65 = AXIS2_PLACEMENT_3D ( 'NONE', #54, #269, #109 ) ;
#66 = ADVANCED_BREP_SHAPE_REPRESENTATION ( 'Micro_BEM-093-02', ( #325, #267 ), #36 ) ;
#67 = DIRECTION ( 'NONE',  ( 1.000000000000000000, 0.0000000000000000000, 0.0000000000000000000 ) ) ;
#68 = ORIENTED_EDGE ( 'NONE', *, *, #20, .F. ) ;
#69 = VECTOR ( 'NONE', #25, 39.37007874015748143 ) ;
#70 = DIRECTION ( 'NONE',  ( 0.7071067811865462405, 8.659560562354916834E-17, -0.7071067811865486830 ) ) ;
#71 = EDGE_CURVE ( 'NONE', #73, #268, #44, .T. ) ;
#72 = EDGE_CURVE ( 'NONE', #52, #268, #126, .T. ) ;
#73 = VERTEX_POINT ( 'NONE', #115 ) ;
#74 = DIRECTION ( 'NONE',  ( -1.000000000000000000, 0.0000000000000000000, 1.224646799147353700E-16 ) ) ;
#75 = VERTEX_POINT ( 'NONE', #29 ) ;
#76 = DIRECTION ( 'NONE',  ( 1.000000000000000000, 0.0000000000000000000, 0.0000000000000000000 ) ) ;
#77 = AXIS2_PLACEMENT_3D ( 'NONE', #134, #10, #105 ) ;
#78 = ORIENTED_EDGE ( 'NONE', *, *, #20, .T. ) ;
#79 = PRESENTATION_LAYER_ASSIGNMENT (  '', '', ( #313 ) ) ;
#80 = CARTESIAN_POINT ( 'NONE',  ( 4.592425496802576684E-17, 0.0000000000000000000, 0.3750000000000000555 ) ) ;
#81 = CARTESIAN_POINT ( 'NONE',  ( 0.04680315000000004333, 0.0000000000000000000, 0.3750000000000000555 ) ) ;
#82 = VERTEX_POINT ( 'NONE', #282 ) ;
#83 = FACE_OUTER_BOUND ( 'NONE', #15, .T. ) ;
#84 = CONICAL_SURFACE ( 'NONE', #89, 0.04750000000000064587, 0.7853981633974466137 ) ;
#85 = ADVANCED_FACE ( 'NONE', ( #125 ), #132, .T. ) ;
#86 = EDGE_CURVE ( 'NONE', #52, #239, #241, .T. ) ;
#87 = DIRECTION ( 'NONE',  ( -1.224646799147353700E-16, -0.0000000000000000000, -1.000000000000000000 ) ) ;
#88 = ADVANCED_FACE ( 'NONE', ( #99 ), #84, .T. ) ;
#89 = AXIS2_PLACEMENT_3D ( 'NONE', #159, #306, #9 ) ;
#90 = PRESENTATION_LAYER_ASSIGNMENT (  '', '', ( #143 ) ) ;
#91 = UNCERTAINTY_MEASURE_WITH_UNIT (LENGTH_MEASURE( 1.000000000000000082E-05 ), #18, 'distance_accuracy_value', 'NONE');
#92 = SURFACE_STYLE_FILL_AREA ( #174 ) ;
#93 = PRODUCT_CONTEXT ( 'NONE', #55, 'mechanical' ) ;
#94 = AXIS2_PLACEMENT_3D ( 'NONE', #8, #305, #250 ) ;
#95 = DIRECTION ( 'NONE',  ( 1.000000000000000000, 0.0000000000000000000, 0.0000000000000000000 ) ) ;
#96 = EDGE_CURVE ( 'NONE', #82, #141, #146, .T. ) ;
#97 = CIRCLE ( 'NONE', #244, 0.06250000000000002776 ) ;
#98 = VERTEX_POINT ( 'NONE', #6 ) ;
#99 = FACE_OUTER_BOUND ( 'NONE', #199, .T. ) ;
#100 = DIRECTION ( 'NONE',  ( 1.000000000000000000, 0.0000000000000000000, 0.0000000000000000000 ) ) ;
#101 = CARTESIAN_POINT ( 'NONE',  ( 8.597599175627018516E-18, 0.0000000000000000000, 0.0000000000000000000 ) ) ;
#102 = VERTEX_POINT ( 'NONE', #225 ) ;
#103 = FACE_OUTER_BOUND ( 'NONE', #58, .T. ) ;
#104 = CIRCLE ( 'NONE', #212, 0.04680315000000000170 ) ;
#105 = DIRECTION ( 'NONE',  ( -1.000000000000000000, 0.0000000000000000000, 1.824027865688703052E-16 ) ) ;
#106 = DIRECTION ( 'NONE',  ( -1.000000000000000000, 0.0000000000000000000, 0.0000000000000000000 ) ) ;
#107 = CARTESIAN_POINT ( 'NONE',  ( -0.04750000000000064587, 0.0000000000000000000, 1.500000000000000222 ) ) ;
#108 = DIRECTION ( 'NONE',  ( -0.0000000000000000000, -0.0000000000000000000, -1.000000000000000000 ) ) ;
#109 = DIRECTION ( 'NONE',  ( 1.000000000000000000, 0.0000000000000000000, 0.0000000000000000000 ) ) ;
#110 = EDGE_CURVE ( 'NONE', #239, #302, #278, .T. ) ;
#111 = CIRCLE ( 'NONE', #94, 0.04680315000000000170 ) ;
#112 = AXIS2_PLACEMENT_3D ( 'NONE', #248, #24, #76 ) ;
#113 = SURFACE_STYLE_FILL_AREA ( #165 ) ;
#114 = PLANE ( 'NONE',  #293 ) ;
#115 = CARTESIAN_POINT ( 'NONE',  ( 0.04680315000000000863, 5.731732783751344394E-18, 0.04680314999999999476 ) ) ;
#116 = ADVANCED_FACE ( 'NONE', ( #11 ), #252, .T. ) ;
#117 = PRESENTATION_STYLE_ASSIGNMENT (( #171 ) ) ;
#118 = AXIS2_PLACEMENT_3D ( 'NONE', #129, #223, #130 ) ;
#119 = EDGE_CURVE ( 'NONE', #141, #82, #235, .T. ) ;
#120 = ORIENTED_EDGE ( 'NONE', *, *, #240, .T. ) ;
#121 = LINE ( 'NONE', #209, #231 ) ;
#122 = ADVANCED_FACE ( 'NONE', ( #103 ), #206, .T. ) ;
#123 = DIMENSIONAL_EXPONENTS ( 1.000000000000000000, 0.0000000000000000000, 0.0000000000000000000, 0.0000000000000000000, 0.0000000000000000000, 0.0000000000000000000, 0.0000000000000000000 ) ;
#124 = ORIENTED_EDGE ( 'NONE', *, *, #96, .F. ) ;
#125 = FACE_OUTER_BOUND ( 'NONE', #161, .T. ) ;
#126 = LINE ( 'NONE', #285, #207 ) ;
#127 = VECTOR ( 'NONE', #4, 39.37007874015748143 ) ;
#128 = ORIENTED_EDGE ( 'NONE', *, *, #310, .F. ) ;
#129 = CARTESIAN_POINT ( 'NONE',  ( 0.0000000000000000000, 0.0000000000000000000, 1.500000000000000222 ) ) ;
#130 = DIRECTION ( 'NONE',  ( -1.000000000000000000, 0.0000000000000000000, 0.0000000000000000000 ) ) ;
#131 = DIRECTION ( 'NONE',  ( 0.0000000000000000000, 1.000000000000000000, 0.0000000000000000000 ) ) ;
#132 = CYLINDRICAL_SURFACE ( 'NONE', #118, 0.06250000000000002776 ) ;
#133 = AXIS2_PLACEMENT_3D ( 'NONE', #205, #280, #186 ) ;
#134 = CARTESIAN_POINT ( 'NONE',  ( 5.731732783751346705E-18, 0.0000000000000000000, 0.04680315000000000170 ) ) ;
#135 = ORIENTED_EDGE ( 'NONE', *, *, #144, .F. ) ;
#136 = FACE_OUTER_BOUND ( 'NONE', #167, .T. ) ;
#137 = PRODUCT_RELATED_PRODUCT_CATEGORY ( 'part', '', ( #253 ) ) ;
#138 = CIRCLE ( 'NONE', #318, 0.04680315000000000170 ) ;
#139 =( CONVERSION_BASED_UNIT ( 'INCH', #266 ) LENGTH_UNIT ( ) NAMED_UNIT ( #123 ) );
#140 = FACE_OUTER_BOUND ( 'NONE', #5, .T. ) ;
#141 = VERTEX_POINT ( 'NONE', #49 ) ;
#142 = CONICAL_SURFACE ( 'NONE', #3, 0.04750000000000064587, 0.7853981633974466137 ) ;
#143 = STYLED_ITEM ( 'NONE', ( #236 ), #325 ) ;
#144 = EDGE_CURVE ( 'NONE', #239, #73, #46, .T. ) ;
#145 = FILL_AREA_STYLE_COLOUR ( '', #32 ) ;
#146 = CIRCLE ( 'NONE', #312, 0.04750000000000064587 ) ;
#147 = MECHANICAL_DESIGN_GEOMETRIC_PRESENTATION_REPRESENTATION (  '', ( #143 ), #294 ) ;
#148 = EDGE_CURVE ( 'NONE', #239, #52, #138, .T. ) ;
#149 = CARTESIAN_POINT ( 'NONE',  ( 5.682621508323871149E-17, 0.0000000000000000000, 0.4640212600302659474 ) ) ;
#150 = DIRECTION ( 'NONE',  ( -1.224646799147353700E-16, -0.0000000000000000000, -1.000000000000000000 ) ) ;
#151 = ORIENTED_EDGE ( 'NONE', *, *, #86, .T. ) ;
#152 = CARTESIAN_POINT ( 'NONE',  ( 4.592425496802576684E-17, 0.0000000000000000000, 0.3750000000000000555 ) ) ;
#153 = DIMENSIONAL_EXPONENTS ( 1.000000000000000000, 0.0000000000000000000, 0.0000000000000000000, 0.0000000000000000000, 0.0000000000000000000, 0.0000000000000000000, 0.0000000000000000000 ) ;
#154 = VERTEX_POINT ( 'NONE', #101 ) ;
#155 = CARTESIAN_POINT ( 'NONE',  ( 5.682621508323871149E-17, 0.0000000000000000000, 0.4640212600302659474 ) ) ;
#156 = DIRECTION ( 'NONE',  ( 1.000000000000000000, 0.0000000000000000000, 0.0000000000000000000 ) ) ;
#157 = DIRECTION ( 'NONE',  ( -1.000000000000000000, 0.0000000000000000000, 1.824027865688703052E-16 ) ) ;
#158 = EDGE_LOOP ( 'NONE', ( #226, #214, #256, #120 ) ) ;
#159 = CARTESIAN_POINT ( 'NONE',  ( 0.0000000000000000000, 0.0000000000000000000, 1.500000000000000222 ) ) ;
#160 = DIRECTION ( 'NONE',  ( 0.0000000000000000000, 0.0000000000000000000, 1.000000000000000000 ) ) ;
#161 = EDGE_LOOP ( 'NONE', ( #128, #43, #265, #270 ) ) ;
#162 = CARTESIAN_POINT ( 'NONE',  ( 0.0000000000000000000, 0.0000000000000000000, 0.0000000000000000000 ) ) ;
#163 = AXIS2_PLACEMENT_3D ( 'NONE', #303, #301, #74 ) ;
#164 = EDGE_CURVE ( 'NONE', #75, #102, #322, .T. ) ;
#165 = FILL_AREA_STYLE ('',( #166 ) ) ;
#166 = FILL_AREA_STYLE_COLOUR ( '', #19 ) ;
#167 = EDGE_LOOP ( 'NONE', ( #151, #56, #47, #254 ) ) ;
#168 = AXIS2_PLACEMENT_3D ( 'NONE', #80, #229, #276 ) ;
#169 = DIRECTION ( 'NONE',  ( 0.0000000000000000000, -1.000000000000000000, 0.0000000000000000000 ) ) ;
#170 = PRODUCT_DEFINITION_FORMATION_WITH_SPECIFIED_SOURCE ( 'ANY', '', #253, .NOT_KNOWN. ) ;
#171 = SURFACE_STYLE_USAGE ( .BOTH. , #298 ) ;
#172 = AXIS2_PLACEMENT_3D ( 'NONE', #308, #275, #246 ) ;
#173 = DIRECTION ( 'NONE',  ( 0.0000000000000000000, 0.0000000000000000000, 1.000000000000000000 ) ) ;
#174 = FILL_AREA_STYLE ('',( #145 ) ) ;
#175 = ORIENTED_EDGE ( 'NONE', *, *, #71, .F. ) ;
#176 = DIMENSIONAL_EXPONENTS ( 1.000000000000000000, 0.0000000000000000000, 0.0000000000000000000, 0.0000000000000000000, 0.0000000000000000000, 0.0000000000000000000, 0.0000000000000000000 ) ;
#177 = CONICAL_SURFACE ( 'NONE', #65, 0.04680315000000000170, 0.1745329251994338082 ) ;
#178 = ORIENTED_EDGE ( 'NONE', *, *, #310, .T. ) ;
#179 = CARTESIAN_POINT ( 'NONE',  ( 5.731732783751346705E-18, 0.0000000000000000000, 0.04680315000000000170 ) ) ;
#180 = ORIENTED_EDGE ( 'NONE', *, *, #86, .F. ) ;
#181 = CARTESIAN_POINT ( 'NONE',  ( 0.0000000000000000000, 0.0000000000000000000, 1.500000000000000222 ) ) ;
#182 = EDGE_LOOP ( 'NONE', ( #68, #272, #291 ) ) ;
#183 = ORIENTED_EDGE ( 'NONE', *, *, #164, .F. ) ;
#184 = DIRECTION ( 'NONE',  ( -1.000000000000000000, 0.0000000000000000000, 0.0000000000000000000 ) ) ;
#185 = FACE_OUTER_BOUND ( 'NONE', #290, .T. ) ;
#186 = DIRECTION ( 'NONE',  ( 1.000000000000000000, 0.0000000000000000000, 0.0000000000000000000 ) ) ;
#187 = EDGE_LOOP ( 'NONE', ( #228, #39 ) ) ;
#188 = DIRECTION ( 'NONE',  ( 1.000000000000000000, 0.0000000000000000000, 0.0000000000000000000 ) ) ;
#189 = ADVANCED_FACE ( 'NONE', ( #255 ), #22, .T. ) ;
#190 =( NAMED_UNIT ( * ) SI_UNIT ( $, .STERADIAN. ) SOLID_ANGLE_UNIT ( ) );
#191 = AXIS2_PLACEMENT_3D ( 'NONE', #26, #245, #106 ) ;
#192 = ORIENTED_EDGE ( 'NONE', *, *, #13, .F. ) ;
#193 = DIRECTION ( 'NONE',  ( -1.000000000000000000, 0.0000000000000000000, 0.0000000000000000000 ) ) ;
#194 =( NAMED_UNIT ( * ) PLANE_ANGLE_UNIT ( ) SI_UNIT ( $, .RADIAN. ) );
#195 = AXIS2_PLACEMENT_3D ( 'NONE', #203, #160, #188 ) ;
#196 = DIRECTION ( 'NONE',  ( 0.0000000000000000000, 0.0000000000000000000, 1.000000000000000000 ) ) ;
#197 = EDGE_CURVE ( 'NONE', #102, #75, #97, .T. ) ;
#198 = SHAPE_DEFINITION_REPRESENTATION ( #27, #66 ) ;
#199 = EDGE_LOOP ( 'NONE', ( #314, #124, #218, #234 ) ) ;
#200 = LINE ( 'NONE', #299, #296 ) ;
#201 = AXIS2_PLACEMENT_3D ( 'NONE', #309, #87, #12 ) ;
#202 = DIRECTION ( 'NONE',  ( 1.224646799147353700E-16, 0.0000000000000000000, 1.000000000000000000 ) ) ;
#203 = CARTESIAN_POINT ( 'NONE',  ( 0.0000000000000000000, 0.0000000000000000000, 1.500000000000000222 ) ) ;
#204 = CARTESIAN_POINT ( 'NONE',  ( 5.731732783751346705E-18, 0.0000000000000000000, 0.04680315000000000170 ) ) ;
#205 = CARTESIAN_POINT ( 'NONE',  ( 0.0000000000000000000, 0.0000000000000000000, 1.485000000000000764 ) ) ;
#206 = CYLINDRICAL_SURFACE ( 'NONE', #163, 0.04680315000000000170 ) ;
#207 = VECTOR ( 'NONE', #150, 39.37007874015748143 ) ;
#208 = CARTESIAN_POINT ( 'NONE',  ( -0.04680314999999996006, 6.692887639211152895E-18, 0.3750000000000000555 ) ) ;
#209 = CARTESIAN_POINT ( 'NONE',  ( -0.04680314999999996006, 5.731732783751344394E-18, 0.3750000000000000555 ) ) ;
#210 = SPHERICAL_SURFACE ( 'NONE', #172, 0.04680315000000000170 ) ;
#211 = FACE_OUTER_BOUND ( 'NONE', #187, .T. ) ;
#212 = AXIS2_PLACEMENT_3D ( 'NONE', #179, #169, #61 ) ;
#213 = CARTESIAN_POINT ( 'NONE',  ( 0.06250000000000008327, 7.654042494670966789E-18, 0.4640212600302659474 ) ) ;
#214 = ORIENTED_EDGE ( 'NONE', *, *, #148, .F. ) ;
#215 = CARTESIAN_POINT ( 'NONE',  ( 0.06250000000000002776, 7.654042494670959086E-18, 1.500000000000000222 ) ) ;
#216 = SURFACE_STYLE_USAGE ( .BOTH. , #258 ) ;
#217 = AXIS2_PLACEMENT_3D ( 'NONE', #155, #279, #100 ) ;
#218 = ORIENTED_EDGE ( 'NONE', *, *, #63, .T. ) ;
#219 = AXIS2_PLACEMENT_3D ( 'NONE', #2, #202, #157 ) ;
#220 = APPLICATION_PROTOCOL_DEFINITION ( 'draft international standard', 'automotive_design', 1998, #323 ) ;
#221 = EDGE_CURVE ( 'NONE', #52, #98, #121, .T. ) ;
#222 = ORIENTED_EDGE ( 'NONE', *, *, #13, .T. ) ;
#223 = DIRECTION ( 'NONE',  ( -0.0000000000000000000, -0.0000000000000000000, -1.000000000000000000 ) ) ;
#224 = DIRECTION ( 'NONE',  ( -0.7071067811865462405, 0.0000000000000000000, -0.7071067811865486830 ) ) ;
#225 = CARTESIAN_POINT ( 'NONE',  ( 0.06250000000000002776, 7.654042494670959086E-18, 1.485000000000000764 ) ) ;
#226 = ORIENTED_EDGE ( 'NONE', *, *, #221, .F. ) ;
#227 = DIRECTION ( 'NONE',  ( -1.224646799147353700E-16, -0.0000000000000000000, -1.000000000000000000 ) ) ;
#228 = ORIENTED_EDGE ( 'NONE', *, *, #96, .T. ) ;
#229 = DIRECTION ( 'NONE',  ( -1.224646799147353700E-16, -0.0000000000000000000, -1.000000000000000000 ) ) ;
#230 = CARTESIAN_POINT ( 'NONE',  ( 0.04680315000000004333, 0.0000000000000000000, 0.3750000000000000555 ) ) ;
#231 = VECTOR ( 'NONE', #307, 39.37007874015747433 ) ;
#232 = MECHANICAL_DESIGN_GEOMETRIC_PRESENTATION_REPRESENTATION (  '', ( #313 ), #297 ) ;
#233 = FACE_OUTER_BOUND ( 'NONE', #182, .T. ) ;
#234 = ORIENTED_EDGE ( 'NONE', *, *, #197, .F. ) ;
#235 = CIRCLE ( 'NONE', #195, 0.04750000000000064587 ) ;
#236 = PRESENTATION_STYLE_ASSIGNMENT (( #216 ) ) ;
#237 = EDGE_LOOP ( 'NONE', ( #17, #178, #192, #37 ) ) ;
#238 = LINE ( 'NONE', #215, #259 ) ;
#239 = VERTEX_POINT ( 'NONE', #81 ) ;
#240 = EDGE_CURVE ( 'NONE', #302, #98, #40, .T. ) ;
#241 = CIRCLE ( 'NONE', #168, 0.04680315000000000170 ) ;
#242 = ORIENTED_EDGE ( 'NONE', *, *, #63, .F. ) ;
#243 =( NAMED_UNIT ( * ) SI_UNIT ( $, .STERADIAN. ) SOLID_ANGLE_UNIT ( ) );
#244 = AXIS2_PLACEMENT_3D ( 'NONE', #284, #53, #257 ) ;
#245 = DIRECTION ( 'NONE',  ( -0.0000000000000000000, -0.0000000000000000000, -1.000000000000000000 ) ) ;
#246 = DIRECTION ( 'NONE',  ( 1.000000000000000000, 0.0000000000000000000, 0.0000000000000000000 ) ) ;
#247 = EDGE_CURVE ( 'NONE', #141, #102, #200, .T. ) ;
#248 = CARTESIAN_POINT ( 'NONE',  ( 4.592425496802576684E-17, 0.0000000000000000000, 0.3750000000000000555 ) ) ;
#249 = EDGE_CURVE ( 'NONE', #154, #73, #104, .T. ) ;
#250 = DIRECTION ( 'NONE',  ( -1.000000000000000000, 1.224646799147353207E-16, 0.0000000000000000000 ) ) ;
#251 = CARTESIAN_POINT ( 'NONE',  ( 0.04680315000000000170, 5.731732783751344394E-18, -5.731732783751346705E-18 ) ) ;
#252 = CONICAL_SURFACE ( 'NONE', #112, 0.04680315000000000170, 0.1745329251994338082 ) ;
#253 = PRODUCT ( 'Micro_BEM-093-02', 'Micro_BEM-093-02', '', ( #93 ) ) ;
#254 = ORIENTED_EDGE ( 'NONE', *, *, #72, .F. ) ;
#255 = FACE_OUTER_BOUND ( 'NONE', #237, .T. ) ;
#256 = ORIENTED_EDGE ( 'NONE', *, *, #110, .T. ) ;
#257 = DIRECTION ( 'NONE',  ( 1.000000000000000000, 0.0000000000000000000, 0.0000000000000000000 ) ) ;
#258 = SURFACE_SIDE_STYLE ('',( #113 ) ) ;
#259 = VECTOR ( 'NONE', #286, 39.37007874015748143 ) ;
#260 = ORIENTED_EDGE ( 'NONE', *, *, #72, .T. ) ;
#261 = CYLINDRICAL_SURFACE ( 'NONE', #201, 0.04680315000000000170 ) ;
#262 = ORIENTED_EDGE ( 'NONE', *, *, #110, .F. ) ;
#263 =( NAMED_UNIT ( * ) SI_UNIT ( $, .STERADIAN. ) SOLID_ANGLE_UNIT ( ) );
#264 = EDGE_CURVE ( 'NONE', #75, #98, #315, .T. ) ;
#265 = ORIENTED_EDGE ( 'NONE', *, *, #264, .T. ) ;
#266 = LENGTH_MEASURE_WITH_UNIT ( LENGTH_MEASURE( 0.02539999999999999897 ), #31 );
#267 = AXIS2_PLACEMENT_3D ( 'NONE', #162, #173, #67 ) ;
#268 = VERTEX_POINT ( 'NONE', #35 ) ;
#269 = DIRECTION ( 'NONE',  ( 1.224646799147353700E-16, 0.0000000000000000000, 1.000000000000000000 ) ) ;
#270 = ORIENTED_EDGE ( 'NONE', *, *, #240, .F. ) ;
#271 = AXIS2_PLACEMENT_3D ( 'NONE', #204, #131, #45 ) ;
#272 = ORIENTED_EDGE ( 'NONE', *, *, #249, .T. ) ;
#273 = VECTOR ( 'NONE', #224, 39.37007874015748854 ) ;
#274 = ADVANCED_FACE ( 'NONE', ( #140 ), #177, .T. ) ;
#275 = DIRECTION ( 'NONE',  ( 0.0000000000000000000, 1.000000000000000000, 0.0000000000000000000 ) ) ;
#276 = DIRECTION ( 'NONE',  ( -1.000000000000000000, 0.0000000000000000000, 0.0000000000000000000 ) ) ;
#277 = ORIENTED_EDGE ( 'NONE', *, *, #48, .T. ) ;
#278 = LINE ( 'NONE', #230, #127 ) ;
#279 = DIRECTION ( 'NONE',  ( -1.224646799147353700E-16, -0.0000000000000000000, -1.000000000000000000 ) ) ;
#280 = DIRECTION ( 'NONE',  ( 0.0000000000000000000, 0.0000000000000000000, -1.000000000000000000 ) ) ;
#281 = SPHERICAL_SURFACE ( 'NONE', #271, 0.04680315000000000170 ) ;
#282 = CARTESIAN_POINT ( 'NONE',  ( -0.04750000000000064587, 0.0000000000000000000, 1.500000000000000222 ) ) ;
#283 = ORIENTED_EDGE ( 'NONE', *, *, #148, .T. ) ;
#284 = CARTESIAN_POINT ( 'NONE',  ( 0.0000000000000000000, 0.0000000000000000000, 1.485000000000000764 ) ) ;
#285 = CARTESIAN_POINT ( 'NONE',  ( -0.04680315000000000170, 0.0000000000000000000, 5.731732783751346705E-18 ) ) ;
#286 = DIRECTION ( 'NONE',  ( -0.0000000000000000000, -0.0000000000000000000, -1.000000000000000000 ) ) ;
#287 = AXIS2_PLACEMENT_3D ( 'NONE', #149, #1, #95 ) ;
#288 = ADVANCED_FACE ( 'NONE', ( #211 ), #114, .T. ) ;
#289 =( LENGTH_UNIT ( ) NAMED_UNIT ( * ) SI_UNIT ( $, .METRE. ) );
#290 = EDGE_LOOP ( 'NONE', ( #7, #78, #175 ) ) ;
#291 = ORIENTED_EDGE ( 'NONE', *, *, #48, .F. ) ;
#292 = CIRCLE ( 'NONE', #217, 0.06250000000000002776 ) ;
#293 = AXIS2_PLACEMENT_3D ( 'NONE', #311, #196, #14 ) ;
#294 =( GEOMETRIC_REPRESENTATION_CONTEXT ( 3 ) GLOBAL_UNCERTAINTY_ASSIGNED_CONTEXT ( ( #316 ) ) GLOBAL_UNIT_ASSIGNED_CONTEXT ( ( #317, #59, #263 ) ) REPRESENTATION_CONTEXT ( 'NONE', 'WORKASPACE' ) );
#295 = ORIENTED_EDGE ( 'NONE', *, *, #247, .T. ) ;
#296 = VECTOR ( 'NONE', #70, 39.37007874015748854 ) ;
#297 =( GEOMETRIC_REPRESENTATION_CONTEXT ( 3 ) GLOBAL_UNCERTAINTY_ASSIGNED_CONTEXT ( ( #91 ) ) GLOBAL_UNIT_ASSIGNED_CONTEXT ( ( #18, #41, #243 ) ) REPRESENTATION_CONTEXT ( 'NONE', 'WORKASPACE' ) );
#298 = SURFACE_SIDE_STYLE ('',( #92 ) ) ;
#299 = CARTESIAN_POINT ( 'NONE',  ( 0.04750000000000064587, 5.817072295950006528E-18, 1.500000000000000222 ) ) ;
#300 = ORIENTED_EDGE ( 'NONE', *, *, #221, .T. ) ;
#301 = DIRECTION ( 'NONE',  ( -1.224646799147353700E-16, -0.0000000000000000000, -1.000000000000000000 ) ) ;
#302 = VERTEX_POINT ( 'NONE', #213 ) ;
#303 = CARTESIAN_POINT ( 'NONE',  ( 0.0000000000000000000, 0.0000000000000000000, 0.0000000000000000000 ) ) ;
#304 = CLOSED_SHELL ( 'NONE', ( #30, #320, #274, #321, #189, #85, #288, #88, #116, #122, #60 ) ) ;
#305 = DIRECTION ( 'NONE',  ( 1.224646799147353207E-16, 1.000000000000000000, -0.0000000000000000000 ) ) ;
#306 = DIRECTION ( 'NONE',  ( 0.0000000000000000000, 0.0000000000000000000, -1.000000000000000000 ) ) ;
#307 = DIRECTION ( 'NONE',  ( -0.1736481776669311083, 2.126576849575782084E-17, 0.9848077530122080203 ) ) ;
#308 = CARTESIAN_POINT ( 'NONE',  ( 5.731732783751346705E-18, 0.0000000000000000000, 0.04680315000000000170 ) ) ;
#309 = CARTESIAN_POINT ( 'NONE',  ( 0.0000000000000000000, 0.0000000000000000000, 0.0000000000000000000 ) ) ;
#310 = EDGE_CURVE ( 'NONE', #102, #302, #238, .T. ) ;
#311 = CARTESIAN_POINT ( 'NONE',  ( 0.0000000000000000000, 0.0000000000000000000, 1.500000000000000222 ) ) ;
#312 = AXIS2_PLACEMENT_3D ( 'NONE', #181, #51, #156 ) ;
#313 = STYLED_ITEM ( 'NONE', ( #117 ), #66 ) ;
#314 = ORIENTED_EDGE ( 'NONE', *, *, #247, .F. ) ;
#315 = LINE ( 'NONE', #33, #57 ) ;
#316 = UNCERTAINTY_MEASURE_WITH_UNIT (LENGTH_MEASURE( 1.000000000000000082E-05 ), #317, 'distance_accuracy_value', 'NONE');
#317 =( CONVERSION_BASED_UNIT ( 'INCH', #34 ) LENGTH_UNIT ( ) NAMED_UNIT ( #176 ) );
#318 = AXIS2_PLACEMENT_3D ( 'NONE', #152, #227, #184 ) ;
#319 = PRODUCT_DEFINITION_CONTEXT ( 'detailed design', #323, 'design' ) ;
#320 = ADVANCED_FACE ( 'NONE', ( #136 ), #261, .T. ) ;
#321 = ADVANCED_FACE ( 'NONE', ( #83 ), #142, .T. ) ;
#322 = CIRCLE ( 'NONE', #133, 0.06250000000000002776 ) ;
#323 = APPLICATION_CONTEXT ( 'automotive_design' ) ;
#324 =( LENGTH_UNIT ( ) NAMED_UNIT ( * ) SI_UNIT ( $, .METRE. ) );
#325 = MANIFOLD_SOLID_BREP ( 'Fillet1', #304 ) ;
ENDSEC;
END-ISO-10303-21;
