ISO-10303-21;
HEADER;
FILE_DESCRIPTION (( 'STEP AP214' ),
    '1' );
FILE_NAME ('Micro_GEM-078-2.STEP',
    '2021-09-01T19:05:37',
    ( '' ),
    ( '' ),
    'SwSTEP 2.0',
    'SolidWorks 2020',
    '' );
FILE_SCHEMA (( 'AUTOMOTIVE_DESIGN' ));
ENDSEC;

DATA;
#1 = AXIS2_PLACEMENT_3D ( 'NONE', #287, #193, #259 ) ;
#2 = ORIENTED_EDGE ( 'NONE', *, *, #197, .F. ) ;
#3 = DIRECTION ( 'NONE',  ( -0.0000000000000000000, -0.0000000000000000000, -1.000000000000000000 ) ) ;
#4 = EDGE_LOOP ( 'NONE', ( #297, #10, #195, #26 ) ) ;
#5 = DIRECTION ( 'NONE',  ( -1.000000000000000000, 0.0000000000000000000, 1.224646799147353947E-16 ) ) ;
#6 = DIMENSIONAL_EXPONENTS ( 1.000000000000000000, 0.0000000000000000000, 0.0000000000000000000, 0.0000000000000000000, 0.0000000000000000000, 0.0000000000000000000, 0.0000000000000000000 ) ;
#7 = DIRECTION ( 'NONE',  ( 1.000000000000000000, 0.0000000000000000000, 0.0000000000000000000 ) ) ;
#8 = CARTESIAN_POINT ( 'NONE',  ( 0.03901095000000000257, 4.777463504919744426E-18, 0.0000000000000000000 ) ) ;
#9 = AXIS2_PLACEMENT_3D ( 'NONE', #102, #152, #192 ) ;
#10 = ORIENTED_EDGE ( 'NONE', *, *, #219, .T. ) ;
#11 = DIRECTION ( 'NONE',  ( -1.224646799147353700E-16, -0.0000000000000000000, -1.000000000000000000 ) ) ;
#12 = AXIS2_PLACEMENT_3D ( 'NONE', #243, #203, #50 ) ;
#13 = DIRECTION ( 'NONE',  ( -1.000000000000000000, 0.0000000000000000000, 0.0000000000000000000 ) ) ;
#14 = DIRECTION ( 'NONE',  ( -0.7071067811865462405, 0.0000000000000000000, -0.7071067811865486830 ) ) ;
#15 = VECTOR ( 'NONE', #31, 39.37007874015748854 ) ;
#16 = EDGE_CURVE ( 'NONE', #274, #182, #239, .T. ) ;
#17 = FACE_OUTER_BOUND ( 'NONE', #278, .T. ) ;
#18 = EDGE_LOOP ( 'NONE', ( #121, #2, #252, #63 ) ) ;
#19 = DIRECTION ( 'NONE',  ( 1.000000000000000000, 0.0000000000000000000, 0.0000000000000000000 ) ) ;
#20 = ORIENTED_EDGE ( 'NONE', *, *, #189, .T. ) ;
#21 =( NAMED_UNIT ( * ) PLANE_ANGLE_UNIT ( ) SI_UNIT ( $, .RADIAN. ) );
#22 = EDGE_LOOP ( 'NONE', ( #101, #125 ) ) ;
#23 = PRODUCT ( 'Micro_GEM-078-2', 'Micro_GEM-078-2', '', ( #56 ) ) ;
#24 = CIRCLE ( 'NONE', #196, 0.06250000000000002776 ) ;
#25 = AXIS2_PLACEMENT_3D ( 'NONE', #212, #3, #145 ) ;
#26 = ORIENTED_EDGE ( 'NONE', *, *, #257, .F. ) ;
#27 = SURFACE_SIDE_STYLE ('',( #191 ) ) ;
#28 = DIRECTION ( 'NONE',  ( 1.000000000000000000, 0.0000000000000000000, -0.0000000000000000000 ) ) ;
#29 =( LENGTH_UNIT ( ) NAMED_UNIT ( * ) SI_UNIT ( $, .METRE. ) );
#30 = ADVANCED_FACE ( 'NONE', ( #215 ), #34, .T. ) ;
#31 = DIRECTION ( 'NONE',  ( 0.7071067811865462405, 8.659560562354916834E-17, -0.7071067811865486830 ) ) ;
#32 = ADVANCED_FACE ( 'NONE', ( #198 ), #199, .T. ) ;
#33 =( GEOMETRIC_REPRESENTATION_CONTEXT ( 3 ) GLOBAL_UNCERTAINTY_ASSIGNED_CONTEXT ( ( #263 ) ) GLOBAL_UNIT_ASSIGNED_CONTEXT ( ( #59, #103, #100 ) ) REPRESENTATION_CONTEXT ( 'NONE', 'WORKASPACE' ) );
#34 = CYLINDRICAL_SURFACE ( 'NONE', #135, 0.03901095000000000257 ) ;
#35 = MECHANICAL_DESIGN_GEOMETRIC_PRESENTATION_REPRESENTATION (  '', ( #97 ), #137 ) ;
#36 = EDGE_CURVE ( 'NONE', #227, #128, #290, .T. ) ;
#37 = PRODUCT_DEFINITION_CONTEXT ( 'detailed design', #289, 'design' ) ;
#38 = CARTESIAN_POINT ( 'NONE',  ( 0.04750000000000064587, 5.817072295950006528E-18, 1.500000000000000222 ) ) ;
#39 = DIRECTION ( 'NONE',  ( -1.000000000000000000, 0.0000000000000000000, 1.224646799147353947E-16 ) ) ;
#40 = EDGE_CURVE ( 'NONE', #123, #55, #127, .T. ) ;
#41 = CIRCLE ( 'NONE', #90, 0.03901095000000000257 ) ;
#42 = COLOUR_RGB ( '',0.7921568627450980005, 0.8196078431372548767, 0.9333333333333333481 ) ;
#43 = DIRECTION ( 'NONE',  ( -1.000000000000000000, 0.0000000000000000000, 0.0000000000000000000 ) ) ;
#44 = CARTESIAN_POINT ( 'NONE',  ( -0.03901095000000000257, 0.0000000000000000000, 9.554927009839493473E-18 ) ) ;
#45 = PRODUCT_DEFINITION_SHAPE ( 'NONE', 'NONE',  #144 ) ;
#46 = ORIENTED_EDGE ( 'NONE', *, *, #36, .T. ) ;
#47 = FACE_OUTER_BOUND ( 'NONE', #206, .T. ) ;
#48 = ORIENTED_EDGE ( 'NONE', *, *, #189, .F. ) ;
#49 = AXIS2_PLACEMENT_3D ( 'NONE', #211, #280, #5 ) ;
#50 = DIRECTION ( 'NONE',  ( -1.000000000000000000, 0.0000000000000000000, 0.0000000000000000000 ) ) ;
#51 = DIMENSIONAL_EXPONENTS ( 1.000000000000000000, 0.0000000000000000000, 0.0000000000000000000, 0.0000000000000000000, 0.0000000000000000000, 0.0000000000000000000, 0.0000000000000000000 ) ;
#52 = ADVANCED_FACE ( 'NONE', ( #105 ), #112, .T. ) ;
#53 = VERTEX_POINT ( 'NONE', #217 ) ;
#54 = ORIENTED_EDGE ( 'NONE', *, *, #85, .T. ) ;
#55 = VERTEX_POINT ( 'NONE', #174 ) ;
#56 = PRODUCT_CONTEXT ( 'NONE', #207, 'mechanical' ) ;
#57 = CIRCLE ( 'NONE', #216, 0.06250000000000002776 ) ;
#58 = PLANE ( 'NONE',  #229 ) ;
#59 =( CONVERSION_BASED_UNIT ( 'INCH', #279 ) LENGTH_UNIT ( ) NAMED_UNIT ( #6 ) );
#60 = CARTESIAN_POINT ( 'NONE',  ( 2.302335982397025094E-17, 0.0000000000000000000, 0.1880000000000000282 ) ) ;
#61 = EDGE_CURVE ( 'NONE', #299, #53, #237, .T. ) ;
#62 = ORIENTED_EDGE ( 'NONE', *, *, #210, .T. ) ;
#63 = ORIENTED_EDGE ( 'NONE', *, *, #132, .T. ) ;
#64 = EDGE_CURVE ( 'NONE', #123, #128, #175, .T. ) ;
#65 = DIRECTION ( 'NONE',  ( 0.1736481776669313859, 0.0000000000000000000, 0.9848077530122077983 ) ) ;
#66 = CYLINDRICAL_SURFACE ( 'NONE', #141, 0.06250000000000002776 ) ;
#67 = DIRECTION ( 'NONE',  ( 0.0000000000000000000, 0.0000000000000000000, 1.000000000000000000 ) ) ;
#68 = CARTESIAN_POINT ( 'NONE',  ( -0.03901095000000000257, 0.0000000000000000000, 4.777463504919746737E-18 ) ) ;
#69 = VERTEX_POINT ( 'NONE', #286 ) ;
#70 = CARTESIAN_POINT ( 'NONE',  ( 3.933724995124051744E-17, 0.0000000000000000000, 0.3212130222250907940 ) ) ;
#71 = ORIENTED_EDGE ( 'NONE', *, *, #92, .T. ) ;
#72 = MECHANICAL_DESIGN_GEOMETRIC_PRESENTATION_REPRESENTATION (  '', ( #200 ), #277 ) ;
#73 = EDGE_CURVE ( 'NONE', #53, #69, #265, .T. ) ;
#74 = ORIENTED_EDGE ( 'NONE', *, *, #61, .F. ) ;
#75 = CARTESIAN_POINT ( 'NONE',  ( 0.0000000000000000000, 0.0000000000000000000, 0.0000000000000000000 ) ) ;
#76 = FACE_OUTER_BOUND ( 'NONE', #223, .T. ) ;
#77 = LINE ( 'NONE', #218, #136 ) ;
#78 = CIRCLE ( 'NONE', #160, 0.04750000000000064587 ) ;
#79 = CARTESIAN_POINT ( 'NONE',  ( 2.302335982397025094E-17, 0.0000000000000000000, 0.1880000000000000282 ) ) ;
#80 = FACE_OUTER_BOUND ( 'NONE', #22, .T. ) ;
#81 = CARTESIAN_POINT ( 'NONE',  ( 0.0000000000000000000, 0.0000000000000000000, 1.500000000000000222 ) ) ;
#82 = UNCERTAINTY_MEASURE_WITH_UNIT (LENGTH_MEASURE( 1.000000000000000082E-05 ), #167, 'distance_accuracy_value', 'NONE');
#83 = CIRCLE ( 'NONE', #9, 0.04750000000000064587 ) ;
#84 = EDGE_CURVE ( 'NONE', #128, #69, #154, .T. ) ;
#85 = EDGE_CURVE ( 'NONE', #184, #123, #77, .T. ) ;
#86 = CARTESIAN_POINT ( 'NONE',  ( 0.0000000000000000000, 0.0000000000000000000, 1.485000000000000764 ) ) ;
#87 = SURFACE_SIDE_STYLE ('',( #270 ) ) ;
#88 =( LENGTH_UNIT ( ) NAMED_UNIT ( * ) SI_UNIT ( $, .METRE. ) );
#89 = DIRECTION ( 'NONE',  ( -1.224646799147353700E-16, -0.0000000000000000000, -1.000000000000000000 ) ) ;
#90 = AXIS2_PLACEMENT_3D ( 'NONE', #190, #171, #255 ) ;
#91 = COLOUR_RGB ( '',0.7921568627450980005, 0.8196078431372548767, 0.9333333333333333481 ) ;
#92 = EDGE_CURVE ( 'NONE', #182, #274, #41, .T. ) ;
#93 = DIRECTION ( 'NONE',  ( -1.224646799147353700E-16, -0.0000000000000000000, -1.000000000000000000 ) ) ;
#94 = ORIENTED_EDGE ( 'NONE', *, *, #40, .F. ) ;
#95 = ORIENTED_EDGE ( 'NONE', *, *, #16, .F. ) ;
#96 = ADVANCED_FACE ( 'NONE', ( #80 ), #58, .T. ) ;
#97 = STYLED_ITEM ( 'NONE', ( #292 ), #238 ) ;
#98 = APPLICATION_PROTOCOL_DEFINITION ( 'draft international standard', 'automotive_design', 1998, #289 ) ;
#99 = EDGE_LOOP ( 'NONE', ( #247, #46, #164, #295 ) ) ;
#100 =( NAMED_UNIT ( * ) SI_UNIT ( $, .STERADIAN. ) SOLID_ANGLE_UNIT ( ) );
#101 = ORIENTED_EDGE ( 'NONE', *, *, #129, .T. ) ;
#102 = CARTESIAN_POINT ( 'NONE',  ( 0.0000000000000000000, 0.0000000000000000000, 1.500000000000000222 ) ) ;
#103 =( NAMED_UNIT ( * ) PLANE_ANGLE_UNIT ( ) SI_UNIT ( $, .RADIAN. ) );
#104 = ORIENTED_EDGE ( 'NONE', *, *, #73, .F. ) ;
#105 = FACE_OUTER_BOUND ( 'NONE', #99, .T. ) ;
#106 = EDGE_CURVE ( 'NONE', #227, #184, #83, .T. ) ;
#107 = CIRCLE ( 'NONE', #180, 0.03901095000000000257 ) ;
#108 = UNCERTAINTY_MEASURE_WITH_UNIT (LENGTH_MEASURE( 1.000000000000000082E-05 ), #126, 'distance_accuracy_value', 'NONE');
#109 = CARTESIAN_POINT ( 'NONE',  ( -0.06250000000000002776, 0.0000000000000000000, 1.500000000000000222 ) ) ;
#110 = ADVANCED_FACE ( 'NONE', ( #283 ), #242, .T. ) ;
#111 = FACE_OUTER_BOUND ( 'NONE', #120, .T. ) ;
#112 = CONICAL_SURFACE ( 'NONE', #261, 0.04750000000000064587, 0.7853981633974466137 ) ;
#113 = DIRECTION ( 'NONE',  ( -1.224646799147353700E-16, -0.0000000000000000000, -1.000000000000000000 ) ) ;
#114 = LINE ( 'NONE', #68, #169 ) ;
#115 = DIRECTION ( 'NONE',  ( -0.0000000000000000000, -0.0000000000000000000, -1.000000000000000000 ) ) ;
#116 = ORIENTED_EDGE ( 'NONE', *, *, #132, .F. ) ;
#117 = LINE ( 'NONE', #201, #254 ) ;
#118 = ORIENTED_EDGE ( 'NONE', *, *, #84, .T. ) ;
#119 = DIMENSIONAL_EXPONENTS ( 1.000000000000000000, 0.0000000000000000000, 0.0000000000000000000, 0.0000000000000000000, 0.0000000000000000000, 0.0000000000000000000, 0.0000000000000000000 ) ;
#120 = EDGE_LOOP ( 'NONE', ( #236, #188, #54, #276 ) ) ;
#121 = ORIENTED_EDGE ( 'NONE', *, *, #266, .F. ) ;
#122 = FACE_OUTER_BOUND ( 'NONE', #272, .T. ) ;
#123 = VERTEX_POINT ( 'NONE', #205 ) ;
#124 = PRESENTATION_STYLE_ASSIGNMENT (( #282 ) ) ;
#125 = ORIENTED_EDGE ( 'NONE', *, *, #106, .T. ) ;
#126 =( CONVERSION_BASED_UNIT ( 'INCH', #234 ) LENGTH_UNIT ( ) NAMED_UNIT ( #119 ) );
#127 = LINE ( 'NONE', #109, #176 ) ;
#128 = VERTEX_POINT ( 'NONE', #202 ) ;
#129 = EDGE_CURVE ( 'NONE', #184, #227, #78, .T. ) ;
#130 = CIRCLE ( 'NONE', #225, 0.06250000000000002776 ) ;
#131 = DIRECTION ( 'NONE',  ( -1.000000000000000000, 0.0000000000000000000, 0.0000000000000000000 ) ) ;
#132 = EDGE_CURVE ( 'NONE', #69, #55, #130, .T. ) ;
#133 = DIRECTION ( 'NONE',  ( -0.0000000000000000000, -0.0000000000000000000, -1.000000000000000000 ) ) ;
#134 = CARTESIAN_POINT ( 'NONE',  ( 0.0000000000000000000, 0.0000000000000000000, 1.485000000000000764 ) ) ;
#135 = AXIS2_PLACEMENT_3D ( 'NONE', #240, #11, #39 ) ;
#136 = VECTOR ( 'NONE', #14, 39.37007874015748854 ) ;
#137 =( GEOMETRIC_REPRESENTATION_CONTEXT ( 3 ) GLOBAL_UNCERTAINTY_ASSIGNED_CONTEXT ( ( #82 ) ) GLOBAL_UNIT_ASSIGNED_CONTEXT ( ( #167, #222, #294 ) ) REPRESENTATION_CONTEXT ( 'NONE', 'WORKASPACE' ) );
#138 = FILL_AREA_STYLE ('',( #275 ) ) ;
#139 = LINE ( 'NONE', #267, #148 ) ;
#140 = DIRECTION ( 'NONE',  ( -1.000000000000000000, 0.0000000000000000000, 0.0000000000000000000 ) ) ;
#141 = AXIS2_PLACEMENT_3D ( 'NONE', #163, #115, #140 ) ;
#142 = ORIENTED_EDGE ( 'NONE', *, *, #266, .T. ) ;
#143 = DIRECTION ( 'NONE',  ( 1.000000000000000000, 0.0000000000000000000, 0.0000000000000000000 ) ) ;
#144 = PRODUCT_DEFINITION ( 'UNKNOWN', '', #161, #37 ) ;
#145 = DIRECTION ( 'NONE',  ( -1.000000000000000000, 0.0000000000000000000, 0.0000000000000000000 ) ) ;
#146 = ORIENTED_EDGE ( 'NONE', *, *, #197, .T. ) ;
#147 = CONICAL_SURFACE ( 'NONE', #12, 0.04750000000000064587, 0.7853981633974466137 ) ;
#148 = VECTOR ( 'NONE', #179, 39.37007874015747433 ) ;
#149 = DIRECTION ( 'NONE',  ( 1.000000000000000000, 0.0000000000000000000, -0.0000000000000000000 ) ) ;
#150 = CARTESIAN_POINT ( 'NONE',  ( 0.0000000000000000000, 0.0000000000000000000, 1.500000000000000222 ) ) ;
#151 = APPLICATION_PROTOCOL_DEFINITION ( 'draft international standard', 'automotive_design', 1998, #207 ) ;
#152 = DIRECTION ( 'NONE',  ( 0.0000000000000000000, 0.0000000000000000000, 1.000000000000000000 ) ) ;
#153 =( LENGTH_UNIT ( ) NAMED_UNIT ( * ) SI_UNIT ( $, .METRE. ) );
#154 = LINE ( 'NONE', #158, #262 ) ;
#155 = AXIS2_PLACEMENT_3D ( 'NONE', #241, #256, #213 ) ;
#156 = AXIS2_PLACEMENT_3D ( 'NONE', #268, #165, #149 ) ;
#157 = ORIENTED_EDGE ( 'NONE', *, *, #40, .T. ) ;
#158 = CARTESIAN_POINT ( 'NONE',  ( 0.06250000000000002776, 7.654042494670959086E-18, 1.500000000000000222 ) ) ;
#159 = DIRECTION ( 'NONE',  ( -1.224646799147353700E-16, -0.0000000000000000000, -1.000000000000000000 ) ) ;
#160 = AXIS2_PLACEMENT_3D ( 'NONE', #246, #67, #248 ) ;
#161 = PRODUCT_DEFINITION_FORMATION_WITH_SPECIFIED_SOURCE ( 'ANY', '', #23, .NOT_KNOWN. ) ;
#162 = ADVANCED_FACE ( 'NONE', ( #47 ), #66, .T. ) ;
#163 = CARTESIAN_POINT ( 'NONE',  ( 0.0000000000000000000, 0.0000000000000000000, 1.500000000000000222 ) ) ;
#164 = ORIENTED_EDGE ( 'NONE', *, *, #64, .F. ) ;
#165 = DIRECTION ( 'NONE',  ( 0.0000000000000000000, 0.0000000000000000000, 1.000000000000000000 ) ) ;
#166 = ORIENTED_EDGE ( 'NONE', *, *, #219, .F. ) ;
#167 =( CONVERSION_BASED_UNIT ( 'INCH', #226 ) LENGTH_UNIT ( ) NAMED_UNIT ( #51 ) );
#168 = CLOSED_SHELL ( 'NONE', ( #30, #110, #52, #162, #291, #96, #194, #32, #298, #271 ) ) ;
#169 = VECTOR ( 'NONE', #181, 39.37007874015748143 ) ;
#170 = DIRECTION ( 'NONE',  ( 0.0000000000000000000, 0.0000000000000000000, 1.000000000000000000 ) ) ;
#171 = DIRECTION ( 'NONE',  ( -1.224646799147353700E-16, -0.0000000000000000000, -1.000000000000000000 ) ) ;
#172 = DIRECTION ( 'NONE',  ( 1.224646799147353700E-16, 0.0000000000000000000, 1.000000000000000000 ) ) ;
#173 = DIRECTION ( 'NONE',  ( 0.0000000000000000000, 0.0000000000000000000, -1.000000000000000000 ) ) ;
#174 = CARTESIAN_POINT ( 'NONE',  ( -0.06249999999999997918, 0.0000000000000000000, 0.3212130222250907940 ) ) ;
#175 = CIRCLE ( 'NONE', #264, 0.06250000000000002776 ) ;
#176 = VECTOR ( 'NONE', #214, 39.37007874015748143 ) ;
#177 = DIRECTION ( 'NONE',  ( 0.0000000000000000000, 0.0000000000000000000, -1.000000000000000000 ) ) ;
#178 = DIRECTION ( 'NONE',  ( 0.0000000000000000000, 0.0000000000000000000, -1.000000000000000000 ) ) ;
#179 = DIRECTION ( 'NONE',  ( -0.1736481776669311916, 2.126576849575783316E-17, 0.9848077530122080203 ) ) ;
#180 = AXIS2_PLACEMENT_3D ( 'NONE', #224, #89, #43 ) ;
#181 = DIRECTION ( 'NONE',  ( -1.224646799147353700E-16, -0.0000000000000000000, -1.000000000000000000 ) ) ;
#182 = VERTEX_POINT ( 'NONE', #44 ) ;
#183 = CARTESIAN_POINT ( 'NONE',  ( 3.933724995124051744E-17, 0.0000000000000000000, 0.3212130222250907940 ) ) ;
#184 = VERTEX_POINT ( 'NONE', #293 ) ;
#185 =( NAMED_UNIT ( * ) SI_UNIT ( $, .STERADIAN. ) SOLID_ANGLE_UNIT ( ) );
#186 = AXIS2_PLACEMENT_3D ( 'NONE', #60, #260, #13 ) ;
#187 = PRESENTATION_LAYER_ASSIGNMENT (  '', '', ( #200 ) ) ;
#188 = ORIENTED_EDGE ( 'NONE', *, *, #129, .F. ) ;
#189 = EDGE_CURVE ( 'NONE', #55, #69, #24, .T. ) ;
#190 = CARTESIAN_POINT ( 'NONE',  ( 5.850705389343265247E-34, 0.0000000000000000000, 4.777463504919746737E-18 ) ) ;
#191 = SURFACE_STYLE_FILL_AREA ( #285 ) ;
#192 = DIRECTION ( 'NONE',  ( 1.000000000000000000, 0.0000000000000000000, 0.0000000000000000000 ) ) ;
#193 = DIRECTION ( 'NONE',  ( 1.224646799147353700E-16, 0.0000000000000000000, 1.000000000000000000 ) ) ;
#194 = ADVANCED_FACE ( 'NONE', ( #111 ), #147, .T. ) ;
#195 = ORIENTED_EDGE ( 'NONE', *, *, #92, .F. ) ;
#196 = AXIS2_PLACEMENT_3D ( 'NONE', #183, #159, #143 ) ;
#197 = EDGE_CURVE ( 'NONE', #53, #299, #107, .T. ) ;
#198 = FACE_OUTER_BOUND ( 'NONE', #18, .T. ) ;
#199 = CONICAL_SURFACE ( 'NONE', #1, 0.03901095000000000257, 0.1745329251994338915 ) ;
#200 = STYLED_ITEM ( 'NONE', ( #124 ), #230 ) ;
#201 = CARTESIAN_POINT ( 'NONE',  ( 0.03901095000000000257, 4.777463504919744426E-18, -4.777463504919746737E-18 ) ) ;
#202 = CARTESIAN_POINT ( 'NONE',  ( 0.06250000000000002776, 7.654042494670959086E-18, 1.485000000000000764 ) ) ;
#203 = DIRECTION ( 'NONE',  ( 0.0000000000000000000, 0.0000000000000000000, -1.000000000000000000 ) ) ;
#204 = ORIENTED_EDGE ( 'NONE', *, *, #257, .T. ) ;
#205 = CARTESIAN_POINT ( 'NONE',  ( -0.06250000000000002776, 0.0000000000000000000, 1.485000000000000764 ) ) ;
#206 = EDGE_LOOP ( 'NONE', ( #231, #118, #48, #94 ) ) ;
#207 = APPLICATION_CONTEXT ( 'automotive_design' ) ;
#208 = AXIS2_PLACEMENT_3D ( 'NONE', #79, #172, #235 ) ;
#209 = ORIENTED_EDGE ( 'NONE', *, *, #84, .F. ) ;
#210 = EDGE_CURVE ( 'NONE', #128, #123, #57, .T. ) ;
#211 = CARTESIAN_POINT ( 'NONE',  ( 0.0000000000000000000, 0.0000000000000000000, 0.0000000000000000000 ) ) ;
#212 = CARTESIAN_POINT ( 'NONE',  ( 0.0000000000000000000, 0.0000000000000000000, 1.500000000000000222 ) ) ;
#213 = DIRECTION ( 'NONE',  ( -1.000000000000000000, 0.0000000000000000000, 1.224646799147353947E-16 ) ) ;
#214 = DIRECTION ( 'NONE',  ( -0.0000000000000000000, -0.0000000000000000000, -1.000000000000000000 ) ) ;
#215 = FACE_OUTER_BOUND ( 'NONE', #4, .T. ) ;
#216 = AXIS2_PLACEMENT_3D ( 'NONE', #134, #178, #19 ) ;
#217 = CARTESIAN_POINT ( 'NONE',  ( 0.03901095000000003032, 0.0000000000000000000, 0.1880000000000000282 ) ) ;
#218 = CARTESIAN_POINT ( 'NONE',  ( -0.04750000000000064587, 0.0000000000000000000, 1.500000000000000222 ) ) ;
#219 = EDGE_CURVE ( 'NONE', #53, #274, #117, .T. ) ;
#220 = CARTESIAN_POINT ( 'NONE',  ( 0.04750000000000064587, 6.735557395310483192E-18, 1.500000000000000222 ) ) ;
#221 = PRESENTATION_LAYER_ASSIGNMENT (  '', '', ( #97 ) ) ;
#222 =( NAMED_UNIT ( * ) PLANE_ANGLE_UNIT ( ) SI_UNIT ( $, .RADIAN. ) );
#223 = EDGE_LOOP ( 'NONE', ( #209, #62, #157, #116 ) ) ;
#224 = CARTESIAN_POINT ( 'NONE',  ( 2.302335982397025094E-17, 0.0000000000000000000, 0.1880000000000000282 ) ) ;
#225 = AXIS2_PLACEMENT_3D ( 'NONE', #70, #113, #244 ) ;
#226 = LENGTH_MEASURE_WITH_UNIT ( LENGTH_MEASURE( 0.02539999999999999897 ), #88 );
#227 = VERTEX_POINT ( 'NONE', #220 ) ;
#228 = CYLINDRICAL_SURFACE ( 'NONE', #49, 0.03901095000000000257 ) ;
#229 = AXIS2_PLACEMENT_3D ( 'NONE', #150, #233, #28 ) ;
#230 = ADVANCED_BREP_SHAPE_REPRESENTATION ( 'Micro_GEM-078-2', ( #238, #269 ), #33 ) ;
#231 = ORIENTED_EDGE ( 'NONE', *, *, #64, .T. ) ;
#232 = CARTESIAN_POINT ( 'NONE',  ( -0.03901094999999998175, 6.215752999795353296E-18, 0.1880000000000000282 ) ) ;
#233 = DIRECTION ( 'NONE',  ( 0.0000000000000000000, 0.0000000000000000000, 1.000000000000000000 ) ) ;
#234 = LENGTH_MEASURE_WITH_UNIT ( LENGTH_MEASURE( 0.02539999999999999897 ), #153 );
#235 = DIRECTION ( 'NONE',  ( 1.000000000000000000, 0.0000000000000000000, 0.0000000000000000000 ) ) ;
#236 = ORIENTED_EDGE ( 'NONE', *, *, #36, .F. ) ;
#237 = CIRCLE ( 'NONE', #186, 0.03901095000000000257 ) ;
#238 = MANIFOLD_SOLID_BREP ( 'Cut-Revolve1', #168 ) ;
#239 = CIRCLE ( 'NONE', #155, 0.03901095000000000257 ) ;
#240 = CARTESIAN_POINT ( 'NONE',  ( 0.0000000000000000000, 0.0000000000000000000, 0.0000000000000000000 ) ) ;
#241 = CARTESIAN_POINT ( 'NONE',  ( 5.850705389343265247E-34, 0.0000000000000000000, 4.777463504919746737E-18 ) ) ;
#242 = CONICAL_SURFACE ( 'NONE', #208, 0.03901095000000000257, 0.1745329251994338915 ) ;
#243 = CARTESIAN_POINT ( 'NONE',  ( 0.0000000000000000000, 0.0000000000000000000, 1.500000000000000222 ) ) ;
#244 = DIRECTION ( 'NONE',  ( 1.000000000000000000, 0.0000000000000000000, 0.0000000000000000000 ) ) ;
#245 = ORIENTED_EDGE ( 'NONE', *, *, #16, .T. ) ;
#246 = CARTESIAN_POINT ( 'NONE',  ( 0.0000000000000000000, 0.0000000000000000000, 1.500000000000000222 ) ) ;
#247 = ORIENTED_EDGE ( 'NONE', *, *, #106, .F. ) ;
#248 = DIRECTION ( 'NONE',  ( 1.000000000000000000, 0.0000000000000000000, 0.0000000000000000000 ) ) ;
#249 = DIRECTION ( 'NONE',  ( 1.000000000000000000, 0.0000000000000000000, 0.0000000000000000000 ) ) ;
#250 = EDGE_LOOP ( 'NONE', ( #74, #142, #20, #104 ) ) ;
#251 = SHAPE_DEFINITION_REPRESENTATION ( #45, #230 ) ;
#252 = ORIENTED_EDGE ( 'NONE', *, *, #73, .T. ) ;
#253 = FILL_AREA_STYLE_COLOUR ( '', #91 ) ;
#254 = VECTOR ( 'NONE', #93, 39.37007874015748143 ) ;
#255 = DIRECTION ( 'NONE',  ( -1.000000000000000000, 0.0000000000000000000, 1.224646799147353947E-16 ) ) ;
#256 = DIRECTION ( 'NONE',  ( -1.224646799147353700E-16, -0.0000000000000000000, -1.000000000000000000 ) ) ;
#257 = EDGE_CURVE ( 'NONE', #299, #182, #114, .T. ) ;
#258 = CYLINDRICAL_SURFACE ( 'NONE', #25, 0.06250000000000002776 ) ;
#259 = DIRECTION ( 'NONE',  ( 1.000000000000000000, 0.0000000000000000000, 0.0000000000000000000 ) ) ;
#260 = DIRECTION ( 'NONE',  ( -1.224646799147353700E-16, -0.0000000000000000000, -1.000000000000000000 ) ) ;
#261 = AXIS2_PLACEMENT_3D ( 'NONE', #81, #173, #131 ) ;
#262 = VECTOR ( 'NONE', #133, 39.37007874015748143 ) ;
#263 = UNCERTAINTY_MEASURE_WITH_UNIT (LENGTH_MEASURE( 1.000000000000000082E-05 ), #59, 'distance_accuracy_value', 'NONE');
#264 = AXIS2_PLACEMENT_3D ( 'NONE', #86, #177, #7 ) ;
#265 = LINE ( 'NONE', #281, #288 ) ;
#266 = EDGE_CURVE ( 'NONE', #299, #55, #139, .T. ) ;
#267 = CARTESIAN_POINT ( 'NONE',  ( -0.03901094999999998175, 4.777463504919744426E-18, 0.1880000000000000282 ) ) ;
#268 = CARTESIAN_POINT ( 'NONE',  ( 0.0000000000000000000, 0.0000000000000000000, 0.0000000000000000000 ) ) ;
#269 = AXIS2_PLACEMENT_3D ( 'NONE', #75, #170, #249 ) ;
#270 = SURFACE_STYLE_FILL_AREA ( #138 ) ;
#271 = ADVANCED_FACE ( 'NONE', ( #17 ), #273, .F. ) ;
#272 = EDGE_LOOP ( 'NONE', ( #166, #146, #204, #95 ) ) ;
#273 = PLANE ( 'NONE',  #156 ) ;
#274 = VERTEX_POINT ( 'NONE', #8 ) ;
#275 = FILL_AREA_STYLE_COLOUR ( '', #42 ) ;
#276 = ORIENTED_EDGE ( 'NONE', *, *, #210, .F. ) ;
#277 =( GEOMETRIC_REPRESENTATION_CONTEXT ( 3 ) GLOBAL_UNCERTAINTY_ASSIGNED_CONTEXT ( ( #108 ) ) GLOBAL_UNIT_ASSIGNED_CONTEXT ( ( #126, #21, #185 ) ) REPRESENTATION_CONTEXT ( 'NONE', 'WORKASPACE' ) );
#278 = EDGE_LOOP ( 'NONE', ( #71, #245 ) ) ;
#279 = LENGTH_MEASURE_WITH_UNIT ( LENGTH_MEASURE( 0.02539999999999999897 ), #29 );
#280 = DIRECTION ( 'NONE',  ( -1.224646799147353700E-16, -0.0000000000000000000, -1.000000000000000000 ) ) ;
#281 = CARTESIAN_POINT ( 'NONE',  ( 0.03901095000000003032, 0.0000000000000000000, 0.1880000000000000282 ) ) ;
#282 = SURFACE_STYLE_USAGE ( .BOTH. , #27 ) ;
#283 = FACE_OUTER_BOUND ( 'NONE', #250, .T. ) ;
#284 = PRODUCT_RELATED_PRODUCT_CATEGORY ( 'part', '', ( #23 ) ) ;
#285 = FILL_AREA_STYLE ('',( #253 ) ) ;
#286 = CARTESIAN_POINT ( 'NONE',  ( 0.06250000000000006939, 7.654042494670963708E-18, 0.3212130222250907940 ) ) ;
#287 = CARTESIAN_POINT ( 'NONE',  ( 2.302335982397025094E-17, 0.0000000000000000000, 0.1880000000000000282 ) ) ;
#288 = VECTOR ( 'NONE', #65, 39.37007874015748143 ) ;
#289 = APPLICATION_CONTEXT ( 'automotive_design' ) ;
#290 = LINE ( 'NONE', #38, #15 ) ;
#291 = ADVANCED_FACE ( 'NONE', ( #76 ), #258, .T. ) ;
#292 = PRESENTATION_STYLE_ASSIGNMENT (( #296 ) ) ;
#293 = CARTESIAN_POINT ( 'NONE',  ( -0.04750000000000064587, 0.0000000000000000000, 1.500000000000000222 ) ) ;
#294 =( NAMED_UNIT ( * ) SI_UNIT ( $, .STERADIAN. ) SOLID_ANGLE_UNIT ( ) );
#295 = ORIENTED_EDGE ( 'NONE', *, *, #85, .F. ) ;
#296 = SURFACE_STYLE_USAGE ( .BOTH. , #87 ) ;
#297 = ORIENTED_EDGE ( 'NONE', *, *, #61, .T. ) ;
#298 = ADVANCED_FACE ( 'NONE', ( #122 ), #228, .T. ) ;
#299 = VERTEX_POINT ( 'NONE', #232 ) ;
ENDSEC;
END-ISO-10303-21;
