ISO-10303-21;
HEADER;
FILE_DESCRIPTION (( 'STEP AP214' ),
    '1' );
FILE_NAME ('Micro_BMSM-020-2X.STEP',
    '2021-09-03T16:02:52',
    ( '' ),
    ( '' ),
    'SwSTEP 2.0',
    'SolidWorks 2020',
    '' );
FILE_SCHEMA (( 'AUTOMOTIVE_DESIGN' ));
ENDSEC;

DATA;
#1 = EDGE_LOOP ( 'NONE', ( #80, #281, #305, #46 ) ) ;
#2 = VERTEX_POINT ( 'NONE', #148 ) ;
#3 = EDGE_LOOP ( 'NONE', ( #302, #175, #47, #39 ) ) ;
#4 = SURFACE_SIDE_STYLE ('',( #287 ) ) ;
#5 =( NAMED_UNIT ( * ) PLANE_ANGLE_UNIT ( ) SI_UNIT ( $, .RADIAN. ) );
#6 = CARTESIAN_POINT ( 'NONE',  ( -0.03933062999999997061, 6.024382343079789657E-18, 0.1181100000000000066 ) ) ;
#7 = CARTESIAN_POINT ( 'NONE',  ( 4.816613013794885432E-18, 0.0000000000000000000, 0.03933062999999999837 ) ) ;
#8 = EDGE_CURVE ( 'NONE', #257, #197, #169, .T. ) ;
#9 =( LENGTH_UNIT ( ) NAMED_UNIT ( * ) SI_UNIT ( $, .METRE. ) );
#10 = CARTESIAN_POINT ( 'NONE',  ( 0.0000000000000000000, 0.0000000000000000000, 0.0000000000000000000 ) ) ;
#11 = CYLINDRICAL_SURFACE ( 'NONE', #172, 0.05905500000000000332 ) ;
#12 = VECTOR ( 'NONE', #286, 39.37007874015748143 ) ;
#13 =( GEOMETRIC_REPRESENTATION_CONTEXT ( 3 ) GLOBAL_UNCERTAINTY_ASSIGNED_CONTEXT ( ( #14 ) ) GLOBAL_UNIT_ASSIGNED_CONTEXT ( ( #240, #5, #15 ) ) REPRESENTATION_CONTEXT ( 'NONE', 'WORKASPACE' ) );
#14 = UNCERTAINTY_MEASURE_WITH_UNIT (LENGTH_MEASURE( 1.000000000000000082E-05 ), #240, 'distance_accuracy_value', 'NONE');
#15 =( NAMED_UNIT ( * ) SI_UNIT ( $, .STERADIAN. ) SOLID_ANGLE_UNIT ( ) );
#16 = ADVANCED_FACE ( 'NONE', ( #299 ), #78, .T. ) ;
#17 = AXIS2_PLACEMENT_3D ( 'NONE', #320, #157, #139 ) ;
#18 = VECTOR ( 'NONE', #318, 39.37007874015748143 ) ;
#19 = ORIENTED_EDGE ( 'NONE', *, *, #195, .T. ) ;
#20 = CARTESIAN_POINT ( 'NONE',  ( 0.03933063000000000531, 0.0000000000000000000, 0.1181100000000000066 ) ) ;
#21 = DIRECTION ( 'NONE',  ( 1.000000000000000000, 0.0000000000000000000, 0.0000000000000000000 ) ) ;
#22 = EDGE_CURVE ( 'NONE', #192, #2, #70, .T. ) ;
#23 = LENGTH_MEASURE_WITH_UNIT ( LENGTH_MEASURE( 0.02539999999999999897 ), #121 );
#24 = ORIENTED_EDGE ( 'NONE', *, *, #311, .F. ) ;
#25 = VECTOR ( 'NONE', #209, 39.37007874015748143 ) ;
#26 = PRESENTATION_STYLE_ASSIGNMENT (( #258 ) ) ;
#27 = ORIENTED_EDGE ( 'NONE', *, *, #132, .F. ) ;
#28 = ORIENTED_EDGE ( 'NONE', *, *, #105, .F. ) ;
#29 = LINE ( 'NONE', #210, #211 ) ;
#30 = AXIS2_PLACEMENT_3D ( 'NONE', #102, #141, #253 ) ;
#31 = PRESENTATION_STYLE_ASSIGNMENT (( #54 ) ) ;
#32 = APPLICATION_CONTEXT ( 'automotive_design' ) ;
#33 = FACE_OUTER_BOUND ( 'NONE', #271, .T. ) ;
#34 = CARTESIAN_POINT ( 'NONE',  ( 4.816613013794885432E-18, 0.0000000000000000000, 0.03933062999999999837 ) ) ;
#35 = CARTESIAN_POINT ( 'NONE',  ( 0.03933062999999999837, 4.816613013794884661E-18, 0.03933062999999998449 ) ) ;
#36 = CARTESIAN_POINT ( 'NONE',  ( 0.05905500000000000332, 7.232151672364695422E-18, 1.496062999999999921 ) ) ;
#37 = DIRECTION ( 'NONE',  ( -1.224646799147353207E-16, -0.0000000000000000000, -1.000000000000000000 ) ) ;
#38 = LINE ( 'NONE', #36, #131 ) ;
#39 = ORIENTED_EDGE ( 'NONE', *, *, #256, .F. ) ;
#40 = CARTESIAN_POINT ( 'NONE',  ( 4.816613013794885432E-18, 0.0000000000000000000, 0.03933062999999999837 ) ) ;
#41 = CARTESIAN_POINT ( 'NONE',  ( 0.0000000000000000000, 0.0000000000000000000, 0.0000000000000000000 ) ) ;
#42 = DIRECTION ( 'NONE',  ( 1.000000000000000000, 0.0000000000000000000, 0.0000000000000000000 ) ) ;
#43 = ORIENTED_EDGE ( 'NONE', *, *, #22, .F. ) ;
#44 = ORIENTED_EDGE ( 'NONE', *, *, #202, .T. ) ;
#45 = EDGE_CURVE ( 'NONE', #259, #66, #106, .T. ) ;
#46 = ORIENTED_EDGE ( 'NONE', *, *, #202, .F. ) ;
#47 = ORIENTED_EDGE ( 'NONE', *, *, #241, .T. ) ;
#48 = LINE ( 'NONE', #144, #317 ) ;
#49 = ORIENTED_EDGE ( 'NONE', *, *, #174, .T. ) ;
#50 = DIRECTION ( 'NONE',  ( -0.0000000000000000000, -0.0000000000000000000, -1.000000000000000000 ) ) ;
#51 = DIRECTION ( 'NONE',  ( 0.0000000000000000000, 0.0000000000000000000, 1.000000000000000000 ) ) ;
#52 = DIRECTION ( 'NONE',  ( -1.224646799147353207E-16, -0.0000000000000000000, -1.000000000000000000 ) ) ;
#53 = CARTESIAN_POINT ( 'NONE',  ( 0.0000000000000000000, 0.0000000000000000000, 1.496062999999999921 ) ) ;
#54 = SURFACE_STYLE_USAGE ( .BOTH. , #4 ) ;
#55 = DIRECTION ( 'NONE',  ( -1.000000000000000000, 0.0000000000000000000, 2.170579261049422841E-16 ) ) ;
#56 = FACE_OUTER_BOUND ( 'NONE', #276, .T. ) ;
#57 = PRODUCT_DEFINITION ( 'UNKNOWN', '', #142, #86 ) ;
#58 = FACE_OUTER_BOUND ( 'NONE', #304, .T. ) ;
#59 = CARTESIAN_POINT ( 'NONE',  ( 0.0000000000000000000, 0.0000000000000000000, 1.496062999999999921 ) ) ;
#60 = CIRCLE ( 'NONE', #244, 0.03933062999999999837 ) ;
#61 = DIRECTION ( 'NONE',  ( -1.224646799147353207E-16, -0.0000000000000000000, -1.000000000000000000 ) ) ;
#62 = EDGE_LOOP ( 'NONE', ( #64, #216, #206, #19 ) ) ;
#63 =( NAMED_UNIT ( * ) PLANE_ANGLE_UNIT ( ) SI_UNIT ( $, .RADIAN. ) );
#64 = ORIENTED_EDGE ( 'NONE', *, *, #45, .F. ) ;
#65 = CIRCLE ( 'NONE', #114, 0.03933062999999998449 ) ;
#66 = VERTEX_POINT ( 'NONE', #35 ) ;
#67 = VERTEX_POINT ( 'NONE', #213 ) ;
#68 = ADVANCED_BREP_SHAPE_REPRESENTATION ( 'Micro_BMSM-020-2X', ( #180, #134 ), #165 ) ;
#69 = EDGE_LOOP ( 'NONE', ( #203, #168, #323, #199 ) ) ;
#70 = CIRCLE ( 'NONE', #74, 0.05905500000000000332 ) ;
#71 = DIRECTION ( 'NONE',  ( -1.000000000000000000, 0.0000000000000000000, 0.0000000000000000000 ) ) ;
#72 =( GEOMETRIC_REPRESENTATION_CONTEXT ( 3 ) GLOBAL_UNCERTAINTY_ASSIGNED_CONTEXT ( ( #178 ) ) GLOBAL_UNIT_ASSIGNED_CONTEXT ( ( #91, #171, #118 ) ) REPRESENTATION_CONTEXT ( 'NONE', 'WORKASPACE' ) );
#73 = DIRECTION ( 'NONE',  ( 0.0000000000000000000, -1.000000000000000000, 0.0000000000000000000 ) ) ;
#74 = AXIS2_PLACEMENT_3D ( 'NONE', #143, #255, #119 ) ;
#75 = DIRECTION ( 'NONE',  ( 1.224646799147353207E-16, 0.0000000000000000000, 1.000000000000000000 ) ) ;
#76 = DIRECTION ( 'NONE',  ( 0.0000000000000000000, 0.0000000000000000000, -1.000000000000000000 ) ) ;
#77 = LINE ( 'NONE', #250, #18 ) ;
#78 = CONICAL_SURFACE ( 'NONE', #224, 0.03933062999999998449, 0.1745329251994338915 ) ;
#79 = LINE ( 'NONE', #270, #153 ) ;
#80 = ORIENTED_EDGE ( 'NONE', *, *, #8, .T. ) ;
#81 = STYLED_ITEM ( 'NONE', ( #31 ), #180 ) ;
#82 = DIRECTION ( 'NONE',  ( 1.000000000000000000, 0.0000000000000000000, 0.0000000000000000000 ) ) ;
#83 = DIRECTION ( 'NONE',  ( -0.0000000000000000000, -0.0000000000000000000, -1.000000000000000000 ) ) ;
#84 = ORIENTED_EDGE ( 'NONE', *, *, #105, .T. ) ;
#85 = EDGE_CURVE ( 'NONE', #259, #98, #111, .T. ) ;
#86 = PRODUCT_DEFINITION_CONTEXT ( 'detailed design', #193, 'design' ) ;
#87 = DIRECTION ( 'NONE',  ( 1.000000000000000000, 0.0000000000000000000, 0.0000000000000000000 ) ) ;
#88 = CIRCLE ( 'NONE', #17, 0.03933062999999998449 ) ;
#89 =( LENGTH_UNIT ( ) NAMED_UNIT ( * ) SI_UNIT ( $, .METRE. ) );
#90 = ORIENTED_EDGE ( 'NONE', *, *, #181, .T. ) ;
#91 =( CONVERSION_BASED_UNIT ( 'INCH', #23 ) LENGTH_UNIT ( ) NAMED_UNIT ( #235 ) );
#92 = EDGE_CURVE ( 'NONE', #297, #233, #217, .T. ) ;
#93 = AXIS2_PLACEMENT_3D ( 'NONE', #185, #313, #82 ) ;
#94 = ORIENTED_EDGE ( 'NONE', *, *, #132, .T. ) ;
#95 = EDGE_CURVE ( 'NONE', #67, #197, #29, .T. ) ;
#96 = APPLICATION_PROTOCOL_DEFINITION ( 'draft international standard', 'automotive_design', 1998, #32 ) ;
#97 = AXIS2_PLACEMENT_3D ( 'NONE', #126, #75, #242 ) ;
#98 = VERTEX_POINT ( 'NONE', #6 ) ;
#99 = STYLED_ITEM ( 'NONE', ( #26 ), #68 ) ;
#100 = FILL_AREA_STYLE ('',( #298 ) ) ;
#101 = EDGE_LOOP ( 'NONE', ( #125, #275, #94, #120 ) ) ;
#102 = CARTESIAN_POINT ( 'NONE',  ( 0.0000000000000000000, 0.0000000000000000000, 1.481062999999999574 ) ) ;
#103 = CIRCLE ( 'NONE', #147, 0.05905500000000000332 ) ;
#104 = LENGTH_MEASURE_WITH_UNIT ( LENGTH_MEASURE( 0.02539999999999999897 ), #9 );
#105 = EDGE_CURVE ( 'NONE', #67, #205, #266, .T. ) ;
#106 = LINE ( 'NONE', #130, #25 ) ;
#107 = CARTESIAN_POINT ( 'NONE',  ( -0.04405499999999973326, 0.0000000000000000000, 1.496062999999999921 ) ) ;
#108 = CONICAL_SURFACE ( 'NONE', #164, 0.04405499999999973326, 0.7853981633974491672 ) ;
#109 = FILL_AREA_STYLE_COLOUR ( '', #188 ) ;
#110 = DIRECTION ( 'NONE',  ( -1.000000000000000000, 0.0000000000000000000, 1.224646799147353207E-16 ) ) ;
#111 = CIRCLE ( 'NONE', #300, 0.03933062999999998449 ) ;
#112 = CARTESIAN_POINT ( 'NONE',  ( 7.224919520692328148E-18, 0.0000000000000000000, 0.0000000000000000000 ) ) ;
#113 = DIRECTION ( 'NONE',  ( 0.0000000000000000000, 0.0000000000000000000, 1.000000000000000000 ) ) ;
#114 = AXIS2_PLACEMENT_3D ( 'NONE', #273, #194, #221 ) ;
#115 = DIRECTION ( 'NONE',  ( -1.000000000000000000, 0.0000000000000000000, 0.0000000000000000000 ) ) ;
#116 = ORIENTED_EDGE ( 'NONE', *, *, #174, .F. ) ;
#117 = ADVANCED_FACE ( 'NONE', ( #33 ), #156, .T. ) ;
#118 =( NAMED_UNIT ( * ) SI_UNIT ( $, .STERADIAN. ) SOLID_ANGLE_UNIT ( ) );
#119 = DIRECTION ( 'NONE',  ( 1.000000000000000000, 0.0000000000000000000, 0.0000000000000000000 ) ) ;
#120 = ORIENTED_EDGE ( 'NONE', *, *, #181, .F. ) ;
#121 =( LENGTH_UNIT ( ) NAMED_UNIT ( * ) SI_UNIT ( $, .METRE. ) );
#122 = AXIS2_PLACEMENT_3D ( 'NONE', #149, #50, #283 ) ;
#123 = ORIENTED_EDGE ( 'NONE', *, *, #212, .T. ) ;
#124 = AXIS2_PLACEMENT_3D ( 'NONE', #10, #61, #110 ) ;
#125 = ORIENTED_EDGE ( 'NONE', *, *, #95, .F. ) ;
#126 = CARTESIAN_POINT ( 'NONE',  ( 1.446430334472939084E-17, 0.0000000000000000000, 0.1181100000000000066 ) ) ;
#127 = CONICAL_SURFACE ( 'NONE', #97, 0.03933062999999998449, 0.1745329251994338915 ) ;
#128 = DIRECTION ( 'NONE',  ( 0.0000000000000000000, 0.0000000000000000000, 1.000000000000000000 ) ) ;
#129 = DIRECTION ( 'NONE',  ( 0.7071067811865482389, 8.659560562354941486E-17, -0.7071067811865469066 ) ) ;
#130 = CARTESIAN_POINT ( 'NONE',  ( 0.03933062999999998449, 4.816613013794884661E-18, -4.816613013794884661E-18 ) ) ;
#131 = VECTOR ( 'NONE', #83, 39.37007874015748143 ) ;
#132 = EDGE_CURVE ( 'NONE', #205, #257, #154, .T. ) ;
#133 = ADVANCED_FACE ( 'NONE', ( #262 ), #127, .T. ) ;
#134 = AXIS2_PLACEMENT_3D ( 'NONE', #301, #274, #42 ) ;
#135 = FACE_OUTER_BOUND ( 'NONE', #324, .T. ) ;
#136 = CARTESIAN_POINT ( 'NONE',  ( -0.03933062999999997755, 0.0000000000000000000, 0.03933063000000000531 ) ) ;
#137 = CARTESIAN_POINT ( 'NONE',  ( 4.816613013794885432E-18, 0.0000000000000000000, 0.03933062999999999837 ) ) ;
#138 = FACE_OUTER_BOUND ( 'NONE', #3, .T. ) ;
#139 = DIRECTION ( 'NONE',  ( -1.000000000000000000, 0.0000000000000000000, 2.170579261049422841E-16 ) ) ;
#140 = SURFACE_STYLE_FILL_AREA ( #100 ) ;
#141 = DIRECTION ( 'NONE',  ( 0.0000000000000000000, 0.0000000000000000000, -1.000000000000000000 ) ) ;
#142 = PRODUCT_DEFINITION_FORMATION_WITH_SPECIFIED_SOURCE ( 'ANY', '', #228, .NOT_KNOWN. ) ;
#143 = CARTESIAN_POINT ( 'NONE',  ( 2.816350382366003081E-17, 0.0000000000000000000, 0.2299724609844124579 ) ) ;
#144 = CARTESIAN_POINT ( 'NONE',  ( -0.03933062999999997061, 4.816613013794884661E-18, 0.1181100000000000066 ) ) ;
#145 = ORIENTED_EDGE ( 'NONE', *, *, #85, .F. ) ;
#146 = ORIENTED_EDGE ( 'NONE', *, *, #22, .T. ) ;
#147 = AXIS2_PLACEMENT_3D ( 'NONE', #182, #179, #150 ) ;
#148 = CARTESIAN_POINT ( 'NONE',  ( -0.05905499999999998251, 0.0000000000000000000, 0.2299724609844124579 ) ) ;
#149 = CARTESIAN_POINT ( 'NONE',  ( 0.0000000000000000000, 0.0000000000000000000, 1.496062999999999921 ) ) ;
#150 = DIRECTION ( 'NONE',  ( 1.000000000000000000, 0.0000000000000000000, 0.0000000000000000000 ) ) ;
#151 = AXIS2_PLACEMENT_3D ( 'NONE', #34, #307, #243 ) ;
#152 = ADVANCED_FACE ( 'NONE', ( #184 ), #245, .T. ) ;
#153 = VECTOR ( 'NONE', #163, 39.37007874015748143 ) ;
#154 = LINE ( 'NONE', #107, #12 ) ;
#155 = FILL_AREA_STYLE ('',( #109 ) ) ;
#156 = PLANE ( 'NONE',  #200 ) ;
#157 = DIRECTION ( 'NONE',  ( 1.224646799147353207E-16, 0.0000000000000000000, 1.000000000000000000 ) ) ;
#158 = AXIS2_PLACEMENT_3D ( 'NONE', #295, #249, #55 ) ;
#159 = DIRECTION ( 'NONE',  ( 0.0000000000000000000, 1.000000000000000000, 0.0000000000000000000 ) ) ;
#160 = ADVANCED_FACE ( 'NONE', ( #265 ), #108, .T. ) ;
#161 = CARTESIAN_POINT ( 'NONE',  ( 0.03933063000000000531, 0.0000000000000000000, 0.1181100000000000066 ) ) ;
#162 = CLOSED_SHELL ( 'NONE', ( #289, #284, #133, #247, #152, #308, #117, #160, #16, #280, #282 ) ) ;
#163 = DIRECTION ( 'NONE',  ( -0.0000000000000000000, -0.0000000000000000000, -1.000000000000000000 ) ) ;
#164 = AXIS2_PLACEMENT_3D ( 'NONE', #53, #76, #285 ) ;
#165 =( GEOMETRIC_REPRESENTATION_CONTEXT ( 3 ) GLOBAL_UNCERTAINTY_ASSIGNED_CONTEXT ( ( #232 ) ) GLOBAL_UNIT_ASSIGNED_CONTEXT ( ( #260, #63, #198 ) ) REPRESENTATION_CONTEXT ( 'NONE', 'WORKASPACE' ) );
#166 = DIRECTION ( 'NONE',  ( 0.0000000000000000000, 1.000000000000000000, 0.0000000000000000000 ) ) ;
#167 = EDGE_CURVE ( 'NONE', #2, #192, #103, .T. ) ;
#168 = ORIENTED_EDGE ( 'NONE', *, *, #311, .T. ) ;
#169 = CIRCLE ( 'NONE', #30, 0.05905500000000000332 ) ;
#170 = CARTESIAN_POINT ( 'NONE',  ( 1.446430334472939084E-17, 0.0000000000000000000, 0.1181100000000000066 ) ) ;
#171 =( NAMED_UNIT ( * ) PLANE_ANGLE_UNIT ( ) SI_UNIT ( $, .RADIAN. ) );
#172 = AXIS2_PLACEMENT_3D ( 'NONE', #219, #190, #115 ) ;
#173 = ORIENTED_EDGE ( 'NONE', *, *, #312, .T. ) ;
#174 = EDGE_CURVE ( 'NONE', #297, #66, #60, .T. ) ;
#175 = ORIENTED_EDGE ( 'NONE', *, *, #45, .T. ) ;
#176 = DIMENSIONAL_EXPONENTS ( 1.000000000000000000, 0.0000000000000000000, 0.0000000000000000000, 0.0000000000000000000, 0.0000000000000000000, 0.0000000000000000000, 0.0000000000000000000 ) ;
#177 = ORIENTED_EDGE ( 'NONE', *, *, #92, .F. ) ;
#178 = UNCERTAINTY_MEASURE_WITH_UNIT (LENGTH_MEASURE( 1.000000000000000082E-05 ), #91, 'distance_accuracy_value', 'NONE');
#179 = DIRECTION ( 'NONE',  ( -1.224646799147353207E-16, -0.0000000000000000000, -1.000000000000000000 ) ) ;
#180 = MANIFOLD_SOLID_BREP ( 'Fillet1', #162 ) ;
#181 = EDGE_CURVE ( 'NONE', #197, #257, #237, .T. ) ;
#182 = CARTESIAN_POINT ( 'NONE',  ( 2.816350382366003081E-17, 0.0000000000000000000, 0.2299724609844124579 ) ) ;
#183 = CARTESIAN_POINT ( 'NONE',  ( 0.0000000000000000000, 0.0000000000000000000, 1.496062999999999921 ) ) ;
#184 = FACE_OUTER_BOUND ( 'NONE', #1, .T. ) ;
#185 = CARTESIAN_POINT ( 'NONE',  ( 0.0000000000000000000, 0.0000000000000000000, 1.481062999999999574 ) ) ;
#186 = CARTESIAN_POINT ( 'NONE',  ( -0.05905500000000000332, 0.0000000000000000000, 1.481062999999999574 ) ) ;
#187 = CIRCLE ( 'NONE', #158, 0.03933062999999998449 ) ;
#188 = COLOUR_RGB ( '',0.7921568627450980005, 0.8196078431372548767, 0.9333333333333333481 ) ;
#189 = MECHANICAL_DESIGN_GEOMETRIC_PRESENTATION_REPRESENTATION (  '', ( #99 ), #72 ) ;
#190 = DIRECTION ( 'NONE',  ( -0.0000000000000000000, -0.0000000000000000000, -1.000000000000000000 ) ) ;
#191 = CARTESIAN_POINT ( 'NONE',  ( 0.05905500000000000332, 7.232151672364695422E-18, 1.481062999999999574 ) ) ;
#192 = VERTEX_POINT ( 'NONE', #222 ) ;
#193 = APPLICATION_CONTEXT ( 'automotive_design' ) ;
#194 = DIRECTION ( 'NONE',  ( -1.224646799147353207E-16, -0.0000000000000000000, -1.000000000000000000 ) ) ;
#195 = EDGE_CURVE ( 'NONE', #233, #66, #88, .T. ) ;
#196 = DIRECTION ( 'NONE',  ( -0.1736481776669311916, 2.126576849575783316E-17, 0.9848077530122080203 ) ) ;
#197 = VERTEX_POINT ( 'NONE', #191 ) ;
#198 =( NAMED_UNIT ( * ) SI_UNIT ( $, .STERADIAN. ) SOLID_ANGLE_UNIT ( ) );
#199 = ORIENTED_EDGE ( 'NONE', *, *, #312, .F. ) ;
#200 = AXIS2_PLACEMENT_3D ( 'NONE', #183, #51, #309 ) ;
#201 = PRODUCT_DEFINITION_SHAPE ( 'NONE', 'NONE',  #57 ) ;
#202 = EDGE_CURVE ( 'NONE', #257, #2, #79, .T. ) ;
#203 = ORIENTED_EDGE ( 'NONE', *, *, #234, .F. ) ;
#204 = PRODUCT_CONTEXT ( 'NONE', #32, 'mechanical' ) ;
#205 = VERTEX_POINT ( 'NONE', #246 ) ;
#206 = ORIENTED_EDGE ( 'NONE', *, *, #256, .T. ) ;
#207 = ORIENTED_EDGE ( 'NONE', *, *, #8, .F. ) ;
#208 = AXIS2_PLACEMENT_3D ( 'NONE', #41, #37, #316 ) ;
#209 = DIRECTION ( 'NONE',  ( -1.224646799147353207E-16, -0.0000000000000000000, -1.000000000000000000 ) ) ;
#210 = CARTESIAN_POINT ( 'NONE',  ( 0.04405499999999973326, 5.395181473643630390E-18, 1.496062999999999921 ) ) ;
#211 = VECTOR ( 'NONE', #129, 39.37007874015748143 ) ;
#212 = EDGE_CURVE ( 'NONE', #205, #67, #218, .T. ) ;
#213 = CARTESIAN_POINT ( 'NONE',  ( 0.04405499999999973326, 6.313666573004162521E-18, 1.496062999999999921 ) ) ;
#214 = DIRECTION ( 'NONE',  ( -1.000000000000000000, 0.0000000000000000000, 0.0000000000000000000 ) ) ;
#215 = CYLINDRICAL_SURFACE ( 'NONE', #208, 0.03933062999999998449 ) ;
#216 = ORIENTED_EDGE ( 'NONE', *, *, #85, .T. ) ;
#217 = CIRCLE ( 'NONE', #151, 0.03933062999999999837 ) ;
#218 = CIRCLE ( 'NONE', #267, 0.04405499999999973326 ) ;
#219 = CARTESIAN_POINT ( 'NONE',  ( 0.0000000000000000000, 0.0000000000000000000, 1.496062999999999921 ) ) ;
#220 = PRESENTATION_LAYER_ASSIGNMENT (  '', '', ( #99 ) ) ;
#221 = DIRECTION ( 'NONE',  ( -1.000000000000000000, 0.0000000000000000000, 0.0000000000000000000 ) ) ;
#222 = CARTESIAN_POINT ( 'NONE',  ( 0.05905500000000003108, 7.232151672364698504E-18, 0.2299724609844124579 ) ) ;
#223 = PRODUCT_RELATED_PRODUCT_CATEGORY ( 'part', '', ( #228 ) ) ;
#224 = AXIS2_PLACEMENT_3D ( 'NONE', #170, #226, #21 ) ;
#225 = EDGE_LOOP ( 'NONE', ( #24, #145, #173, #146 ) ) ;
#226 = DIRECTION ( 'NONE',  ( 1.224646799147353207E-16, 0.0000000000000000000, 1.000000000000000000 ) ) ;
#227 = LENGTH_MEASURE_WITH_UNIT ( LENGTH_MEASURE( 0.02539999999999999897 ), #89 );
#228 = PRODUCT ( 'Micro_BMSM-020-2X', 'Micro_BMSM-020-2X', '', ( #204 ) ) ;
#229 = ORIENTED_EDGE ( 'NONE', *, *, #248, .F. ) ;
#230 = AXIS2_PLACEMENT_3D ( 'NONE', #40, #166, #314 ) ;
#231 = ORIENTED_EDGE ( 'NONE', *, *, #195, .F. ) ;
#232 = UNCERTAINTY_MEASURE_WITH_UNIT (LENGTH_MEASURE( 1.000000000000000082E-05 ), #260, 'distance_accuracy_value', 'NONE');
#233 = VERTEX_POINT ( 'NONE', #136 ) ;
#234 = EDGE_CURVE ( 'NONE', #98, #259, #65, .T. ) ;
#235 = DIMENSIONAL_EXPONENTS ( 1.000000000000000000, 0.0000000000000000000, 0.0000000000000000000, 0.0000000000000000000, 0.0000000000000000000, 0.0000000000000000000, 0.0000000000000000000 ) ;
#236 = DIRECTION ( 'NONE',  ( 0.0000000000000000000, 0.0000000000000000000, -1.000000000000000000 ) ) ;
#237 = CIRCLE ( 'NONE', #93, 0.05905500000000000332 ) ;
#238 = DIMENSIONAL_EXPONENTS ( 1.000000000000000000, 0.0000000000000000000, 0.0000000000000000000, 0.0000000000000000000, 0.0000000000000000000, 0.0000000000000000000, 0.0000000000000000000 ) ;
#239 = COLOUR_RGB ( '',0.7921568627450980005, 0.8196078431372548767, 0.9333333333333333481 ) ;
#240 =( CONVERSION_BASED_UNIT ( 'INCH', #104 ) LENGTH_UNIT ( ) NAMED_UNIT ( #238 ) );
#241 = EDGE_CURVE ( 'NONE', #66, #233, #187, .T. ) ;
#242 = DIRECTION ( 'NONE',  ( 1.000000000000000000, 0.0000000000000000000, 0.0000000000000000000 ) ) ;
#243 = DIRECTION ( 'NONE',  ( -1.000000000000000000, 1.224646799147352961E-16, 0.0000000000000000000 ) ) ;
#244 = AXIS2_PLACEMENT_3D ( 'NONE', #7, #73, #236 ) ;
#245 = CYLINDRICAL_SURFACE ( 'NONE', #122, 0.05905500000000000332 ) ;
#246 = CARTESIAN_POINT ( 'NONE',  ( -0.04405499999999973326, 0.0000000000000000000, 1.496062999999999921 ) ) ;
#247 = ADVANCED_FACE ( 'NONE', ( #135 ), #290, .T. ) ;
#248 = EDGE_CURVE ( 'NONE', #197, #192, #38, .T. ) ;
#249 = DIRECTION ( 'NONE',  ( 1.224646799147353207E-16, 0.0000000000000000000, 1.000000000000000000 ) ) ;
#250 = CARTESIAN_POINT ( 'NONE',  ( -0.03933062999999998449, 0.0000000000000000000, 4.816613013794884661E-18 ) ) ;
#251 = FACE_OUTER_BOUND ( 'NONE', #279, .T. ) ;
#252 = APPLICATION_PROTOCOL_DEFINITION ( 'draft international standard', 'automotive_design', 1998, #193 ) ;
#253 = DIRECTION ( 'NONE',  ( 1.000000000000000000, 0.0000000000000000000, 0.0000000000000000000 ) ) ;
#254 = AXIS2_PLACEMENT_3D ( 'NONE', #137, #159, #269 ) ;
#255 = DIRECTION ( 'NONE',  ( -1.224646799147353207E-16, -0.0000000000000000000, -1.000000000000000000 ) ) ;
#256 = EDGE_CURVE ( 'NONE', #98, #233, #77, .T. ) ;
#257 = VERTEX_POINT ( 'NONE', #186 ) ;
#258 = SURFACE_STYLE_USAGE ( .BOTH. , #296 ) ;
#259 = VERTEX_POINT ( 'NONE', #161 ) ;
#260 =( CONVERSION_BASED_UNIT ( 'INCH', #227 ) LENGTH_UNIT ( ) NAMED_UNIT ( #176 ) );
#261 = ORIENTED_EDGE ( 'NONE', *, *, #92, .T. ) ;
#262 = FACE_OUTER_BOUND ( 'NONE', #69, .T. ) ;
#263 = CARTESIAN_POINT ( 'NONE',  ( 0.0000000000000000000, 0.0000000000000000000, 1.496062999999999921 ) ) ;
#264 = CARTESIAN_POINT ( 'NONE',  ( 1.446430334472939084E-17, 0.0000000000000000000, 0.1181100000000000066 ) ) ;
#265 = FACE_OUTER_BOUND ( 'NONE', #101, .T. ) ;
#266 = CIRCLE ( 'NONE', #294, 0.04405499999999973326 ) ;
#267 = AXIS2_PLACEMENT_3D ( 'NONE', #293, #113, #87 ) ;
#268 = DIRECTION ( 'NONE',  ( 0.0000000000000000000, 0.0000000000000000000, -1.000000000000000000 ) ) ;
#269 = DIRECTION ( 'NONE',  ( 1.000000000000000000, 0.0000000000000000000, 0.0000000000000000000 ) ) ;
#270 = CARTESIAN_POINT ( 'NONE',  ( -0.05905500000000000332, 0.0000000000000000000, 1.496062999999999921 ) ) ;
#271 = EDGE_LOOP ( 'NONE', ( #123, #84 ) ) ;
#272 = FACE_OUTER_BOUND ( 'NONE', #62, .T. ) ;
#273 = CARTESIAN_POINT ( 'NONE',  ( 1.446430334472939084E-17, 0.0000000000000000000, 0.1181100000000000066 ) ) ;
#274 = DIRECTION ( 'NONE',  ( 0.0000000000000000000, 0.0000000000000000000, 1.000000000000000000 ) ) ;
#275 = ORIENTED_EDGE ( 'NONE', *, *, #212, .F. ) ;
#276 = EDGE_LOOP ( 'NONE', ( #116, #261, #278 ) ) ;
#277 = LINE ( 'NONE', #20, #306 ) ;
#278 = ORIENTED_EDGE ( 'NONE', *, *, #241, .F. ) ;
#279 = EDGE_LOOP ( 'NONE', ( #229, #90, #44, #43 ) ) ;
#280 = ADVANCED_FACE ( 'NONE', ( #272 ), #292, .T. ) ;
#281 = ORIENTED_EDGE ( 'NONE', *, *, #248, .T. ) ;
#282 = ADVANCED_FACE ( 'NONE', ( #58 ), #291, .T. ) ;
#283 = DIRECTION ( 'NONE',  ( -1.000000000000000000, 0.0000000000000000000, 0.0000000000000000000 ) ) ;
#284 = ADVANCED_FACE ( 'NONE', ( #138 ), #215, .T. ) ;
#285 = DIRECTION ( 'NONE',  ( -1.000000000000000000, 0.0000000000000000000, 0.0000000000000000000 ) ) ;
#286 = DIRECTION ( 'NONE',  ( -0.7071067811865482389, 0.0000000000000000000, -0.7071067811865469066 ) ) ;
#287 = SURFACE_STYLE_FILL_AREA ( #155 ) ;
#288 = SPHERICAL_SURFACE ( 'NONE', #254, 0.03933062999999999837 ) ;
#289 = ADVANCED_FACE ( 'NONE', ( #56 ), #288, .T. ) ;
#290 = CONICAL_SURFACE ( 'NONE', #325, 0.04405499999999973326, 0.7853981633974491672 ) ;
#291 = SPHERICAL_SURFACE ( 'NONE', #230, 0.03933062999999999837 ) ;
#292 = CYLINDRICAL_SURFACE ( 'NONE', #124, 0.03933062999999998449 ) ;
#293 = CARTESIAN_POINT ( 'NONE',  ( 0.0000000000000000000, 0.0000000000000000000, 1.496062999999999921 ) ) ;
#294 = AXIS2_PLACEMENT_3D ( 'NONE', #263, #128, #310 ) ;
#295 = CARTESIAN_POINT ( 'NONE',  ( 4.816613013794885432E-18, 0.0000000000000000000, 0.03933062999999999837 ) ) ;
#296 = SURFACE_SIDE_STYLE ('',( #140 ) ) ;
#297 = VERTEX_POINT ( 'NONE', #112 ) ;
#298 = FILL_AREA_STYLE_COLOUR ( '', #239 ) ;
#299 = FACE_OUTER_BOUND ( 'NONE', #225, .T. ) ;
#300 = AXIS2_PLACEMENT_3D ( 'NONE', #264, #52, #71 ) ;
#301 = CARTESIAN_POINT ( 'NONE',  ( 0.0000000000000000000, 0.0000000000000000000, 0.0000000000000000000 ) ) ;
#302 = ORIENTED_EDGE ( 'NONE', *, *, #234, .T. ) ;
#303 = PRESENTATION_LAYER_ASSIGNMENT (  '', '', ( #81 ) ) ;
#304 = EDGE_LOOP ( 'NONE', ( #177, #49, #231 ) ) ;
#305 = ORIENTED_EDGE ( 'NONE', *, *, #167, .F. ) ;
#306 = VECTOR ( 'NONE', #322, 39.37007874015748143 ) ;
#307 = DIRECTION ( 'NONE',  ( 1.224646799147353207E-16, 1.000000000000000000, -0.0000000000000000000 ) ) ;
#308 = ADVANCED_FACE ( 'NONE', ( #251 ), #11, .T. ) ;
#309 = DIRECTION ( 'NONE',  ( 1.000000000000000000, 0.0000000000000000000, -0.0000000000000000000 ) ) ;
#310 = DIRECTION ( 'NONE',  ( 1.000000000000000000, 0.0000000000000000000, 0.0000000000000000000 ) ) ;
#311 = EDGE_CURVE ( 'NONE', #98, #2, #48, .T. ) ;
#312 = EDGE_CURVE ( 'NONE', #259, #192, #277, .T. ) ;
#313 = DIRECTION ( 'NONE',  ( 0.0000000000000000000, 0.0000000000000000000, -1.000000000000000000 ) ) ;
#314 = DIRECTION ( 'NONE',  ( 1.000000000000000000, 0.0000000000000000000, 0.0000000000000000000 ) ) ;
#315 = MECHANICAL_DESIGN_GEOMETRIC_PRESENTATION_REPRESENTATION (  '', ( #81 ), #13 ) ;
#316 = DIRECTION ( 'NONE',  ( -1.000000000000000000, 0.0000000000000000000, 1.224646799147353207E-16 ) ) ;
#317 = VECTOR ( 'NONE', #196, 39.37007874015747433 ) ;
#318 = DIRECTION ( 'NONE',  ( -1.224646799147353207E-16, -0.0000000000000000000, -1.000000000000000000 ) ) ;
#319 = ORIENTED_EDGE ( 'NONE', *, *, #95, .T. ) ;
#320 = CARTESIAN_POINT ( 'NONE',  ( 4.816613013794885432E-18, 0.0000000000000000000, 0.03933062999999999837 ) ) ;
#321 = SHAPE_DEFINITION_REPRESENTATION ( #201, #68 ) ;
#322 = DIRECTION ( 'NONE',  ( 0.1736481776669313859, 0.0000000000000000000, 0.9848077530122077983 ) ) ;
#323 = ORIENTED_EDGE ( 'NONE', *, *, #167, .T. ) ;
#324 = EDGE_LOOP ( 'NONE', ( #28, #319, #207, #27 ) ) ;
#325 = AXIS2_PLACEMENT_3D ( 'NONE', #59, #268, #214 ) ;
ENDSEC;
END-ISO-10303-21;
