ISO-10303-21;
HEADER;
FILE_DESCRIPTION (( 'STEP AP214' ),
    '1' );
FILE_NAME ('86085.STEP',
    '2023-07-01T00:07:20',
    ( '' ),
    ( '' ),
    'SwSTEP 2.0',
    'SolidWorks 2023',
    '' );
FILE_SCHEMA (( 'AUTOMOTIVE_DESIGN' ));
ENDSEC;

DATA;
#1 = ORIENTED_EDGE ( 'NONE', *, *, #168, .F. ) ;
#2 = FILL_AREA_STYLE ('',( #184 ) ) ;
#3 = FILL_AREA_STYLE_COLOUR ( '', #325 ) ;
#4 = ORIENTED_EDGE ( 'NONE', *, *, #148, .T. ) ;
#5 = FILL_AREA_STYLE ('',( #256 ) ) ;
#6 = DIRECTION ( 'NONE',  ( -0.000000000000000000, -1.000000000000000000, -0.000000000000000000 ) ) ;
#7 = UNCERTAINTY_MEASURE_WITH_UNIT (LENGTH_MEASURE( 1.000000000000000082E-05 ), #308, 'distance_accuracy_value', 'NONE');
#8 = CIRCLE ( 'NONE', #224, 0.3750000000000000555 ) ;
#9 = CIRCLE ( 'NONE', #271, 0.3750000000000000555 ) ;
#10 = MANIFOLD_SOLID_BREP ( 'Revolve - Cutting Edge', #100 ) ;
#11 =( NAMED_UNIT ( * ) PLANE_ANGLE_UNIT ( ) SI_UNIT ( $, .RADIAN. ) );
#12 = SURFACE_STYLE_FILL_AREA ( #284 ) ;
#13 = ORIENTED_EDGE ( 'NONE', *, *, #168, .T. ) ;
#14 = CYLINDRICAL_SURFACE ( 'NONE', #103, 0.3749999999999998335 ) ;
#15 = CARTESIAN_POINT ( 'NONE',  ( 0.3749999999999996114, 3.250000000000000000, 4.592425496802569905E-17 ) ) ;
#16 = STYLED_ITEM ( 'NONE', ( #67 ), #94 ) ;
#17 = AXIS2_PLACEMENT_3D ( 'NONE', #321, #6, #47 ) ;
#18 = APPLICATION_PROTOCOL_DEFINITION ( 'draft international standard', 'automotive_design', 1998, #146 ) ;
#19 = SURFACE_STYLE_FILL_AREA ( #144 ) ;
#20 = CARTESIAN_POINT ( 'NONE',  ( 0.3749999999999996114, 6.000000000000000888, 4.592425496802569905E-17 ) ) ;
#21 = PRESENTATION_LAYER_ASSIGNMENT (  '', '', ( #265 ) ) ;
#22 = CARTESIAN_POINT ( 'NONE',  ( 0.000000000000000000, 0.3750000000000000555, 0.000000000000000000 ) ) ;
#23 =( GEOMETRIC_REPRESENTATION_CONTEXT ( 3 ) GLOBAL_UNCERTAINTY_ASSIGNED_CONTEXT ( ( #261 ) ) GLOBAL_UNIT_ASSIGNED_CONTEXT ( ( #202, #233, #93 ) ) REPRESENTATION_CONTEXT ( 'NONE', 'WORKASPACE' ) );
#24 = CARTESIAN_POINT ( 'NONE',  ( -4.592425496802573602E-17, 0.3749999999999999445, 0.000000000000000000 ) ) ;
#25 = LENGTH_MEASURE_WITH_UNIT ( LENGTH_MEASURE( 0.02539999999999999897 ), #71 );
#26 = DIRECTION ( 'NONE',  ( -1.166302553557088328E-16, 1.000000000000000000, -0.000000000000000000 ) ) ;
#27 = EDGE_CURVE ( 'NONE', #64, #230, #28, .T. ) ;
#28 = CIRCLE ( 'NONE', #288, 0.3749999999999996114 ) ;
#29 = AXIS2_PLACEMENT_3D ( 'NONE', #124, #26, #154 ) ;
#30 = CARTESIAN_POINT ( 'NONE',  ( 4.592425496802571754E-17, 3.250000000000000000, 0.3749999999999996114 ) ) ;
#31 =( NAMED_UNIT ( * ) PLANE_ANGLE_UNIT ( ) SI_UNIT ( $, .RADIAN. ) );
#32 = CARTESIAN_POINT ( 'NONE',  ( 0.000000000000000000, 0.3750000000000000555, 0.000000000000000000 ) ) ;
#33 = DIRECTION ( 'NONE',  ( -0.000000000000000000, -1.000000000000000000, -0.000000000000000000 ) ) ;
#34 = SURFACE_STYLE_USAGE ( .BOTH. , #192 ) ;
#35 = DIRECTION ( 'NONE',  ( -1.000000000000000000, 0.000000000000000000, 0.000000000000000000 ) ) ;
#36 = CARTESIAN_POINT ( 'NONE',  ( 1.982685223134639388E-16, 3.250000000000000000, 0.000000000000000000 ) ) ;
#37 = ORIENTED_EDGE ( 'NONE', *, *, #160, .T. ) ;
#38 = EDGE_CURVE ( 'NONE', #349, #345, #142, .T. ) ;
#39 = FACE_OUTER_BOUND ( 'NONE', #178, .T. ) ;
#40 = EDGE_LOOP ( 'NONE', ( #193, #13, #86, #4 ) ) ;
#41 =( NAMED_UNIT ( * ) PLANE_ANGLE_UNIT ( ) SI_UNIT ( $, .RADIAN. ) );
#42 = DIRECTION ( 'NONE',  ( 1.000000000000000000, 1.166302553557088328E-16, 0.000000000000000000 ) ) ;
#43 = ORIENTED_EDGE ( 'NONE', *, *, #296, .F. ) ;
#44 =( LENGTH_UNIT ( ) NAMED_UNIT ( * ) SI_UNIT ( $, .METRE. ) );
#45 = EDGE_LOOP ( 'NONE', ( #226, #216, #315, #1, #188 ) ) ;
#46 = FILL_AREA_STYLE ('',( #164 ) ) ;
#47 = DIRECTION ( 'NONE',  ( 0.000000000000000000, 0.000000000000000000, -1.000000000000000000 ) ) ;
#48 = CARTESIAN_POINT ( 'NONE',  ( -0.3750000000000001110, 0.3750000000000000555, 4.592425496802575451E-17 ) ) ;
#49 = SURFACE_SIDE_STYLE ('',( #314 ) ) ;
#50 = DIRECTION ( 'NONE',  ( 0.000000000000000000, 1.000000000000000000, 0.000000000000000000 ) ) ;
#51 = PRESENTATION_LAYER_ASSIGNMENT (  '', '', ( #232 ) ) ;
#52 =( NAMED_UNIT ( * ) SI_UNIT ( $, .STERADIAN. ) SOLID_ANGLE_UNIT ( ) );
#53 =( CONVERSION_BASED_UNIT ( 'INCH', #149 ) LENGTH_UNIT ( ) NAMED_UNIT ( #76 ) );
#54 = CIRCLE ( 'NONE', #369, 0.3749999999999996114 ) ;
#55 = SURFACE_SIDE_STYLE ('',( #182 ) ) ;
#56 = PLANE ( 'NONE',  #362 ) ;
#57 = CARTESIAN_POINT ( 'NONE',  ( -1.224646799147354440E-16, 6.000000000000000888, 0.000000000000000000 ) ) ;
#58 = AXIS2_PLACEMENT_3D ( 'NONE', #171, #115, #363 ) ;
#59 = UNCERTAINTY_MEASURE_WITH_UNIT (LENGTH_MEASURE( 1.000000000000000082E-05 ), #53, 'distance_accuracy_value', 'NONE');
#60 = LINE ( 'NONE', #223, #219 ) ;
#61 = AXIS2_PLACEMENT_3D ( 'NONE', #340, #336, #268 ) ;
#62 = SPHERICAL_SURFACE ( 'NONE', #209, 0.3750000000000000555 ) ;
#63 = ORIENTED_EDGE ( 'NONE', *, *, #176, .F. ) ;
#64 = VERTEX_POINT ( 'NONE', #114 ) ;
#65 = APPLICATION_PROTOCOL_DEFINITION ( 'draft international standard', 'automotive_design', 1998, #172 ) ;
#66 = UNCERTAINTY_MEASURE_WITH_UNIT (LENGTH_MEASURE( 1.000000000000000082E-05 ), #225, 'distance_accuracy_value', 'NONE');
#67 = PRESENTATION_STYLE_ASSIGNMENT (( #322 ) ) ;
#68 = DIRECTION ( 'NONE',  ( -1.000000000000000000, 0.000000000000000000, 0.000000000000000000 ) ) ;
#69 = CIRCLE ( 'NONE', #260, 0.3750000000000000555 ) ;
#70 = CIRCLE ( 'NONE', #331, 0.3749999999999997780 ) ;
#71 =( LENGTH_UNIT ( ) NAMED_UNIT ( * ) SI_UNIT ( $, .METRE. ) );
#72 = CIRCLE ( 'NONE', #125, 0.3750000000000000555 ) ;
#73 = DIRECTION ( 'NONE',  ( 0.000000000000000000, -0.000000000000000000, 1.000000000000000000 ) ) ;
#74 =( NAMED_UNIT ( * ) PLANE_ANGLE_UNIT ( ) SI_UNIT ( $, .RADIAN. ) );
#75 = DIRECTION ( 'NONE',  ( -1.000000000000000000, 0.000000000000000000, 0.000000000000000000 ) ) ;
#76 = DIMENSIONAL_EXPONENTS ( 1.000000000000000000, 0.000000000000000000, 0.000000000000000000, 0.000000000000000000, 0.000000000000000000, 0.000000000000000000, 0.000000000000000000 ) ;
#77 = CYLINDRICAL_SURFACE ( 'NONE', #330, 0.3749999999999995559 ) ;
#78 = DIRECTION ( 'NONE',  ( 0.000000000000000000, 0.000000000000000000, -1.000000000000000000 ) ) ;
#79 = DIRECTION ( 'NONE',  ( 0.000000000000000000, 0.000000000000000000, -1.000000000000000000 ) ) ;
#80 = SURFACE_STYLE_FILL_AREA ( #285 ) ;
#81 = DIRECTION ( 'NONE',  ( -1.166302553557088328E-16, 1.000000000000000000, -0.000000000000000000 ) ) ;
#82 = PLANE ( 'NONE',  #198 ) ;
#83 = EDGE_LOOP ( 'NONE', ( #90, #337, #134, #279 ) ) ;
#84 = CARTESIAN_POINT ( 'NONE',  ( -0.3749999999999998890, 6.000000000000000888, 0.000000000000000000 ) ) ;
#85 = DIRECTION ( 'NONE',  ( -0.000000000000000000, -1.000000000000000000, -0.000000000000000000 ) ) ;
#86 = ORIENTED_EDGE ( 'NONE', *, *, #296, .T. ) ;
#87 = EDGE_CURVE ( 'NONE', #230, #234, #290, .T. ) ;
#88 = CARTESIAN_POINT ( 'NONE',  ( -0.3749999999999992228, 3.250000000000000000, 0.000000000000000000 ) ) ;
#89 = COLOUR_RGB ( '',1.000000000000000000, 0.000000000000000000, 0.000000000000000000 ) ;
#90 = ORIENTED_EDGE ( 'NONE', *, *, #38, .T. ) ;
#91 = PRODUCT_RELATED_PRODUCT_CATEGORY ( 'part', '', ( #328 ) ) ;
#92 = DIRECTION ( 'NONE',  ( -0.000000000000000000, -1.000000000000000000, -0.000000000000000000 ) ) ;
#93 =( NAMED_UNIT ( * ) SI_UNIT ( $, .STERADIAN. ) SOLID_ANGLE_UNIT ( ) );
#94 = ADVANCED_FACE ( 'NONE', ( #263 ), #14, .T. ) ;
#95 = COLOUR_RGB ( '',1.000000000000000000, 0.000000000000000000, 0.000000000000000000 ) ;
#96 = COLOUR_RGB ( '',1.000000000000000000, 0.000000000000000000, 0.000000000000000000 ) ;
#97 = ADVANCED_BREP_SHAPE_REPRESENTATION ( '86085', ( #10, #248, #58 ), #152 ) ;
#98 = SPHERICAL_SURFACE ( 'NONE', #169, 0.3750000000000000555 ) ;
#99 =( NAMED_UNIT ( * ) PLANE_ANGLE_UNIT ( ) SI_UNIT ( $, .RADIAN. ) );
#100 = CLOSED_SHELL ( 'NONE', ( #143, #327, #163, #94, #304 ) ) ;
#101 = CYLINDRICAL_SURFACE ( 'NONE', #317, 0.3749999999999995559 ) ;
#102 = EDGE_CURVE ( 'NONE', #354, #286, #239, .T. ) ;
#103 = AXIS2_PLACEMENT_3D ( 'NONE', #215, #147, #127 ) ;
#104 = DIRECTION ( 'NONE',  ( -1.000000000000000000, -1.166302553557088328E-16, 0.000000000000000000 ) ) ;
#105 = LINE ( 'NONE', #253, #347 ) ;
#106 =( LENGTH_UNIT ( ) NAMED_UNIT ( * ) SI_UNIT ( $, .METRE. ) );
#107 =( NAMED_UNIT ( * ) SI_UNIT ( $, .STERADIAN. ) SOLID_ANGLE_UNIT ( ) );
#108 = ORIENTED_EDGE ( 'NONE', *, *, #236, .F. ) ;
#109 = ORIENTED_EDGE ( 'NONE', *, *, #252, .T. ) ;
#110 = UNCERTAINTY_MEASURE_WITH_UNIT (LENGTH_MEASURE( 1.000000000000000082E-05 ), #208, 'distance_accuracy_value', 'NONE');
#111 = ORIENTED_EDGE ( 'NONE', *, *, #148, .F. ) ;
#112 = PRESENTATION_LAYER_ASSIGNMENT (  '', '', ( #131 ) ) ;
#113 = ORIENTED_EDGE ( 'NONE', *, *, #102, .T. ) ;
#114 = CARTESIAN_POINT ( 'NONE',  ( 0.000000000000000000, 3.250000000000000000, -0.3749999999999996114 ) ) ;
#115 = DIRECTION ( 'NONE',  ( 0.000000000000000000, 0.000000000000000000, 1.000000000000000000 ) ) ;
#116 = AXIS2_PLACEMENT_3D ( 'NONE', #358, #335, #329 ) ;
#117 = SURFACE_STYLE_USAGE ( .BOTH. , #49 ) ;
#118 = ADVANCED_FACE ( 'NONE', ( #301 ), #77, .T. ) ;
#119 = LENGTH_MEASURE_WITH_UNIT ( LENGTH_MEASURE( 0.02539999999999999897 ), #44 );
#120 =( GEOMETRIC_REPRESENTATION_CONTEXT ( 3 ) GLOBAL_UNCERTAINTY_ASSIGNED_CONTEXT ( ( #110 ) ) GLOBAL_UNIT_ASSIGNED_CONTEXT ( ( #208, #74, #240 ) ) REPRESENTATION_CONTEXT ( 'NONE', 'WORKASPACE' ) );
#121 = DIRECTION ( 'NONE',  ( 0.000000000000000000, 0.000000000000000000, 1.000000000000000000 ) ) ;
#122 =( NAMED_UNIT ( * ) SI_UNIT ( $, .STERADIAN. ) SOLID_ANGLE_UNIT ( ) );
#123 = PRODUCT_DEFINITION ( 'UNKNOWN', '', #210, #213 ) ;
#124 = CARTESIAN_POINT ( 'NONE',  ( -1.224646799147354440E-16, 6.000000000000000888, 0.000000000000000000 ) ) ;
#125 = AXIS2_PLACEMENT_3D ( 'NONE', #189, #341, #78 ) ;
#126 = CARTESIAN_POINT ( 'NONE',  ( 0.3749999999999999445, 0.3750000000000000555, 0.000000000000000000 ) ) ;
#127 = DIRECTION ( 'NONE',  ( 0.000000000000000000, 0.000000000000000000, -1.000000000000000000 ) ) ;
#128 = PRESENTATION_STYLE_ASSIGNMENT (( #272 ) ) ;
#129 = DIRECTION ( 'NONE',  ( -0.000000000000000000, -1.000000000000000000, -0.000000000000000000 ) ) ;
#130 = VERTEX_POINT ( 'NONE', #270 ) ;
#131 = STYLED_ITEM ( 'NONE', ( #217 ), #304 ) ;
#132 = ORIENTED_EDGE ( 'NONE', *, *, #257, .F. ) ;
#133 = DIRECTION ( 'NONE',  ( 1.000000000000000000, 0.000000000000000000, 0.000000000000000000 ) ) ;
#134 = ORIENTED_EDGE ( 'NONE', *, *, #338, .F. ) ;
#135 = PRESENTATION_LAYER_ASSIGNMENT (  '', '', ( #309 ) ) ;
#136 = CIRCLE ( 'NONE', #116, 0.3749999999999993894 ) ;
#137 = EDGE_LOOP ( 'NONE', ( #167, #228 ) ) ;
#138 = SURFACE_STYLE_FILL_AREA ( #46 ) ;
#139 = PRESENTATION_STYLE_ASSIGNMENT (( #291 ) ) ;
#140 = CLOSED_SHELL ( 'NONE', ( #118, #221, #244, #264 ) ) ;
#141 = AXIS2_PLACEMENT_3D ( 'NONE', #22, #364, #212 ) ;
#142 = CIRCLE ( 'NONE', #316, 0.3749999999999993894 ) ;
#143 = ADVANCED_FACE ( 'NONE', ( #247 ), #62, .T. ) ;
#144 = FILL_AREA_STYLE ('',( #267 ) ) ;
#145 = DIMENSIONAL_EXPONENTS ( 1.000000000000000000, 0.000000000000000000, 0.000000000000000000, 0.000000000000000000, 0.000000000000000000, 0.000000000000000000, 0.000000000000000000 ) ;
#146 = APPLICATION_CONTEXT ( 'automotive_design' ) ;
#147 = DIRECTION ( 'NONE',  ( -0.000000000000000000, -1.000000000000000000, -0.000000000000000000 ) ) ;
#148 = EDGE_CURVE ( 'NONE', #200, #286, #8, .T. ) ;
#149 = LENGTH_MEASURE_WITH_UNIT ( LENGTH_MEASURE( 0.02539999999999999897 ), #297 );
#150 = CARTESIAN_POINT ( 'NONE',  ( 0.3749999999999996114, 6.000000000000000888, 0.000000000000000000 ) ) ;
#151 =( GEOMETRIC_REPRESENTATION_CONTEXT ( 3 ) GLOBAL_UNCERTAINTY_ASSIGNED_CONTEXT ( ( #59 ) ) GLOBAL_UNIT_ASSIGNED_CONTEXT ( ( #53, #366, #122 ) ) REPRESENTATION_CONTEXT ( 'NONE', 'WORKASPACE' ) );
#152 =( GEOMETRIC_REPRESENTATION_CONTEXT ( 3 ) GLOBAL_UNCERTAINTY_ASSIGNED_CONTEXT ( ( #196 ) ) GLOBAL_UNIT_ASSIGNED_CONTEXT ( ( #287, #41, #205 ) ) REPRESENTATION_CONTEXT ( 'NONE', 'WORKASPACE' ) );
#153 = DIRECTION ( 'NONE',  ( -1.166302553557088328E-16, 1.000000000000000000, -0.000000000000000000 ) ) ;
#154 = DIRECTION ( 'NONE',  ( -1.000000000000000000, 0.000000000000000000, 0.000000000000000000 ) ) ;
#155 = FACE_OUTER_BOUND ( 'NONE', #159, .T. ) ;
#156 = LENGTH_MEASURE_WITH_UNIT ( LENGTH_MEASURE( 0.02539999999999999897 ), #190 );
#157 = LINE ( 'NONE', #343, #246 ) ;
#158 = COLOUR_RGB ( '',1.000000000000000000, 0.000000000000000000, 0.000000000000000000 ) ;
#159 = EDGE_LOOP ( 'NONE', ( #262, #204, #132, #43, #162 ) ) ;
#160 = EDGE_CURVE ( 'NONE', #234, #354, #69, .T. ) ;
#161 = CARTESIAN_POINT ( 'NONE',  ( -2.296212748401286185E-17, -6.829619984160658046E-17, 0.000000000000000000 ) ) ;
#162 = ORIENTED_EDGE ( 'NONE', *, *, #211, .F. ) ;
#163 = ADVANCED_FACE ( 'NONE', ( #39 ), #82, .T. ) ;
#164 = FILL_AREA_STYLE_COLOUR ( '', #158 ) ;
#165 =( GEOMETRIC_REPRESENTATION_CONTEXT ( 3 ) GLOBAL_UNCERTAINTY_ASSIGNED_CONTEXT ( ( #7 ) ) GLOBAL_UNIT_ASSIGNED_CONTEXT ( ( #308, #31, #177 ) ) REPRESENTATION_CONTEXT ( 'NONE', 'WORKASPACE' ) );
#166 = COLOUR_RGB ( '',0.7921568627450980005, 0.8196078431372548767, 0.9333333333333333481 ) ;
#167 = ORIENTED_EDGE ( 'NONE', *, *, #338, .T. ) ;
#168 = EDGE_CURVE ( 'NONE', #354, #130, #206, .T. ) ;
#169 = AXIS2_PLACEMENT_3D ( 'NONE', #24, #121, #365 ) ;
#170 = MECHANICAL_DESIGN_GEOMETRIC_PRESENTATION_REPRESENTATION (  '', ( #16 ), #165 ) ;
#171 = CARTESIAN_POINT ( 'NONE',  ( 0.000000000000000000, 0.000000000000000000, 0.000000000000000000 ) ) ;
#172 = APPLICATION_CONTEXT ( 'automotive_design' ) ;
#173 = PRODUCT_CONTEXT ( 'NONE', #172, 'mechanical' ) ;
#174 = CARTESIAN_POINT ( 'NONE',  ( -4.592425496802573602E-17, 0.3749999999999999445, 0.000000000000000000 ) ) ;
#175 = DIMENSIONAL_EXPONENTS ( 1.000000000000000000, 0.000000000000000000, 0.000000000000000000, 0.000000000000000000, 0.000000000000000000, 0.000000000000000000, 0.000000000000000000 ) ;
#176 = EDGE_CURVE ( 'NONE', #345, #349, #136, .T. ) ;
#177 =( NAMED_UNIT ( * ) SI_UNIT ( $, .STERADIAN. ) SOLID_ANGLE_UNIT ( ) );
#178 = EDGE_LOOP ( 'NONE', ( #302, #283 ) ) ;
#179 = AXIS2_PLACEMENT_3D ( 'NONE', #371, #273, #104 ) ;
#180 = FACE_OUTER_BOUND ( 'NONE', #137, .T. ) ;
#181 = FACE_OUTER_BOUND ( 'NONE', #276, .T. ) ;
#182 = SURFACE_STYLE_FILL_AREA ( #344 ) ;
#183 = MECHANICAL_DESIGN_GEOMETRIC_PRESENTATION_REPRESENTATION (  '', ( #309 ), #370 ) ;
#184 = FILL_AREA_STYLE_COLOUR ( '', #166 ) ;
#185 =( NAMED_UNIT ( * ) SI_UNIT ( $, .STERADIAN. ) SOLID_ANGLE_UNIT ( ) );
#186 = SURFACE_SIDE_STYLE ('',( #348 ) ) ;
#187 = PRESENTATION_STYLE_ASSIGNMENT (( #34 ) ) ;
#188 = ORIENTED_EDGE ( 'NONE', *, *, #160, .F. ) ;
#189 = CARTESIAN_POINT ( 'NONE',  ( 0.000000000000000000, 0.3750000000000000555, 0.000000000000000000 ) ) ;
#190 =( LENGTH_UNIT ( ) NAMED_UNIT ( * ) SI_UNIT ( $, .METRE. ) );
#191 = EDGE_CURVE ( 'NONE', #318, #254, #235, .T. ) ;
#192 = SURFACE_SIDE_STYLE ('',( #80 ) ) ;
#193 = ORIENTED_EDGE ( 'NONE', *, *, #102, .F. ) ;
#194 = LENGTH_MEASURE_WITH_UNIT ( LENGTH_MEASURE( 0.02539999999999999897 ), #229 );
#195 = MECHANICAL_DESIGN_GEOMETRIC_PRESENTATION_REPRESENTATION (  '', ( #265 ), #151 ) ;
#196 = UNCERTAINTY_MEASURE_WITH_UNIT (LENGTH_MEASURE( 1.000000000000000082E-05 ), #287, 'distance_accuracy_value', 'NONE');
#197 = MECHANICAL_DESIGN_GEOMETRIC_PRESENTATION_REPRESENTATION (  '', ( #339 ), #293 ) ;
#198 = AXIS2_PLACEMENT_3D ( 'NONE', #334, #50, #73 ) ;
#199 = CARTESIAN_POINT ( 'NONE',  ( -4.592425496802573602E-17, 0.3749999999999999445, 0.000000000000000000 ) ) ;
#200 = VERTEX_POINT ( 'NONE', #126 ) ;
#201 = ORIENTED_EDGE ( 'NONE', *, *, #191, .F. ) ;
#202 =( CONVERSION_BASED_UNIT ( 'INCH', #324 ) LENGTH_UNIT ( ) NAMED_UNIT ( #361 ) );
#203 = SURFACE_SIDE_STYLE ('',( #138 ) ) ;
#204 = ORIENTED_EDGE ( 'NONE', *, *, #87, .T. ) ;
#205 =( NAMED_UNIT ( * ) SI_UNIT ( $, .STERADIAN. ) SOLID_ANGLE_UNIT ( ) );
#206 = CIRCLE ( 'NONE', #141, 0.3750000000000000555 ) ;
#207 = DIRECTION ( 'NONE',  ( -1.166302553557088328E-16, 1.000000000000000000, -0.000000000000000000 ) ) ;
#208 =( CONVERSION_BASED_UNIT ( 'INCH', #25 ) LENGTH_UNIT ( ) NAMED_UNIT ( #145 ) );
#209 = AXIS2_PLACEMENT_3D ( 'NONE', #199, #281, #133 ) ;
#210 = PRODUCT_DEFINITION_FORMATION_WITH_SPECIFIED_SOURCE ( 'ANY', '', #328, .NOT_KNOWN. ) ;
#211 = EDGE_CURVE ( 'NONE', #64, #130, #60, .T. ) ;
#212 = DIRECTION ( 'NONE',  ( 0.000000000000000000, 0.000000000000000000, -1.000000000000000000 ) ) ;
#213 = PRODUCT_DEFINITION_CONTEXT ( 'detailed design', #146, 'design' ) ;
#214 = FACE_OUTER_BOUND ( 'NONE', #40, .T. ) ;
#215 = CARTESIAN_POINT ( 'NONE',  ( 0.000000000000000000, 0.000000000000000000, 0.000000000000000000 ) ) ;
#216 = ORIENTED_EDGE ( 'NONE', *, *, #241, .T. ) ;
#217 = PRESENTATION_STYLE_ASSIGNMENT (( #238 ) ) ;
#218 = PRESENTATION_LAYER_ASSIGNMENT (  '', '', ( #16 ) ) ;
#219 = VECTOR ( 'NONE', #307, 39.37007874015748143 ) ;
#220 =( NAMED_UNIT ( * ) PLANE_ANGLE_UNIT ( ) SI_UNIT ( $, .RADIAN. ) );
#221 = ADVANCED_FACE ( 'NONE', ( #346 ), #367, .F. ) ;
#222 = CARTESIAN_POINT ( 'NONE',  ( 4.592425496802574219E-17, 0.3750000000000000555, 0.3749999999999999445 ) ) ;
#223 = CARTESIAN_POINT ( 'NONE',  ( 0.000000000000000000, 0.000000000000000000, -0.3749999999999998335 ) ) ;
#224 = AXIS2_PLACEMENT_3D ( 'NONE', #174, #275, #320 ) ;
#225 =( CONVERSION_BASED_UNIT ( 'INCH', #156 ) LENGTH_UNIT ( ) NAMED_UNIT ( #295 ) );
#226 = ORIENTED_EDGE ( 'NONE', *, *, #87, .F. ) ;
#227 = DIRECTION ( 'NONE',  ( -1.166302553557088328E-16, 1.000000000000000000, -0.000000000000000000 ) ) ;
#228 = ORIENTED_EDGE ( 'NONE', *, *, #191, .T. ) ;
#229 =( LENGTH_UNIT ( ) NAMED_UNIT ( * ) SI_UNIT ( $, .METRE. ) );
#230 = VERTEX_POINT ( 'NONE', #30 ) ;
#231 = PRESENTATION_LAYER_ASSIGNMENT (  '', '', ( #326 ) ) ;
#232 = STYLED_ITEM ( 'NONE', ( #294 ), #10 ) ;
#233 =( NAMED_UNIT ( * ) PLANE_ANGLE_UNIT ( ) SI_UNIT ( $, .RADIAN. ) );
#234 = VERTEX_POINT ( 'NONE', #222 ) ;
#235 = CIRCLE ( 'NONE', #29, 0.3749999999999997780 ) ;
#236 = EDGE_CURVE ( 'NONE', #345, #318, #157, .T. ) ;
#237 = DIMENSIONAL_EXPONENTS ( 1.000000000000000000, 0.000000000000000000, 0.000000000000000000, 0.000000000000000000, 0.000000000000000000, 0.000000000000000000, 0.000000000000000000 ) ;
#238 = SURFACE_STYLE_USAGE ( .BOTH. , #300 ) ;
#239 = CIRCLE ( 'NONE', #61, 0.3750000000000000555 ) ;
#240 =( NAMED_UNIT ( * ) SI_UNIT ( $, .STERADIAN. ) SOLID_ANGLE_UNIT ( ) );
#241 = EDGE_CURVE ( 'NONE', #230, #64, #54, .T. ) ;
#242 = DIRECTION ( 'NONE',  ( -1.166302553557088328E-16, 1.000000000000000000, -0.000000000000000000 ) ) ;
#243 = PRESENTATION_STYLE_ASSIGNMENT (( #303 ) ) ;
#244 = ADVANCED_FACE ( 'NONE', ( #181 ), #101, .T. ) ;
#245 = COLOUR_RGB ( '',0.7921568627450980005, 0.8196078431372548767, 0.9333333333333333481 ) ;
#246 = VECTOR ( 'NONE', #81, 39.37007874015748143 ) ;
#247 = FACE_OUTER_BOUND ( 'NONE', #259, .T. ) ;
#248 = MANIFOLD_SOLID_BREP ( 'Revolve - Tool Body (Straight Shanked)', #140 ) ;
#249 = DIRECTION ( 'NONE',  ( 0.000000000000000000, 0.000000000000000000, -1.000000000000000000 ) ) ;
#250 =( CONVERSION_BASED_UNIT ( 'INCH', #311 ) LENGTH_UNIT ( ) NAMED_UNIT ( #237 ) );
#251 = ORIENTED_EDGE ( 'NONE', *, *, #38, .F. ) ;
#252 = EDGE_CURVE ( 'NONE', #349, #254, #105, .T. ) ;
#253 = CARTESIAN_POINT ( 'NONE',  ( -0.3749999999999996669, 6.000000000000000888, 0.000000000000000000 ) ) ;
#254 = VERTEX_POINT ( 'NONE', #84 ) ;
#255 = FILL_AREA_STYLE_COLOUR ( '', #95 ) ;
#256 = FILL_AREA_STYLE_COLOUR ( '', #245 ) ;
#257 = EDGE_CURVE ( 'NONE', #200, #234, #72, .T. ) ;
#258 = DIRECTION ( 'NONE',  ( 0.000000000000000000, 0.000000000000000000, -1.000000000000000000 ) ) ;
#259 = EDGE_LOOP ( 'NONE', ( #37, #113, #111, #282 ) ) ;
#260 = AXIS2_PLACEMENT_3D ( 'NONE', #352, #85, #258 ) ;
#261 = UNCERTAINTY_MEASURE_WITH_UNIT (LENGTH_MEASURE( 1.000000000000000082E-05 ), #202, 'distance_accuracy_value', 'NONE');
#262 = ORIENTED_EDGE ( 'NONE', *, *, #27, .T. ) ;
#263 = FACE_OUTER_BOUND ( 'NONE', #45, .T. ) ;
#264 = ADVANCED_FACE ( 'NONE', ( #180 ), #56, .F. ) ;
#265 = STYLED_ITEM ( 'NONE', ( #243 ), #143 ) ;
#266 = PRODUCT_DEFINITION_SHAPE ( 'NONE', 'NONE',  #123 ) ;
#267 = FILL_AREA_STYLE_COLOUR ( '', #96 ) ;
#268 = DIRECTION ( 'NONE',  ( 1.000000000000000000, 0.000000000000000000, -1.224646799147353207E-16 ) ) ;
#269 = DIMENSIONAL_EXPONENTS ( 1.000000000000000000, 0.000000000000000000, 0.000000000000000000, 0.000000000000000000, 0.000000000000000000, 0.000000000000000000, 0.000000000000000000 ) ;
#270 = CARTESIAN_POINT ( 'NONE',  ( 0.000000000000000000, 0.3750000000000000555, -0.3750000000000000555 ) ) ;
#271 = AXIS2_PLACEMENT_3D ( 'NONE', #32, #129, #249 ) ;
#272 = SURFACE_STYLE_USAGE ( .BOTH. , #186 ) ;
#273 = DIRECTION ( 'NONE',  ( -1.166302553557088328E-16, 1.000000000000000000, 0.000000000000000000 ) ) ;
#274 = CYLINDRICAL_SURFACE ( 'NONE', #17, 0.3749999999999998335 ) ;
#275 = DIRECTION ( 'NONE',  ( 0.000000000000000000, 0.000000000000000000, -1.000000000000000000 ) ) ;
#276 = EDGE_LOOP ( 'NONE', ( #108, #353, #109, #201 ) ) ;
#277 = UNCERTAINTY_MEASURE_WITH_UNIT (LENGTH_MEASURE( 1.000000000000000082E-05 ), #250, 'distance_accuracy_value', 'NONE');
#278 = DIRECTION ( 'NONE',  ( -0.000000000000000000, -1.000000000000000000, -0.000000000000000000 ) ) ;
#279 = ORIENTED_EDGE ( 'NONE', *, *, #252, .F. ) ;
#280 =( LENGTH_UNIT ( ) NAMED_UNIT ( * ) SI_UNIT ( $, .METRE. ) );
#281 = DIRECTION ( 'NONE',  ( 0.000000000000000000, 0.000000000000000000, 1.000000000000000000 ) ) ;
#282 = ORIENTED_EDGE ( 'NONE', *, *, #257, .T. ) ;
#283 = ORIENTED_EDGE ( 'NONE', *, *, #241, .F. ) ;
#284 = FILL_AREA_STYLE ('',( #3 ) ) ;
#285 = FILL_AREA_STYLE ('',( #255 ) ) ;
#286 = VERTEX_POINT ( 'NONE', #161 ) ;
#287 =( CONVERSION_BASED_UNIT ( 'INCH', #194 ) LENGTH_UNIT ( ) NAMED_UNIT ( #305 ) );
#288 = AXIS2_PLACEMENT_3D ( 'NONE', #323, #278, #313 ) ;
#289 = PRESENTATION_LAYER_ASSIGNMENT (  '', '', ( #339 ) ) ;
#290 = LINE ( 'NONE', #357, #368 ) ;
#291 = SURFACE_STYLE_USAGE ( .BOTH. , #292 ) ;
#292 = SURFACE_SIDE_STYLE ('',( #12 ) ) ;
#293 =( GEOMETRIC_REPRESENTATION_CONTEXT ( 3 ) GLOBAL_UNCERTAINTY_ASSIGNED_CONTEXT ( ( #277 ) ) GLOBAL_UNIT_ASSIGNED_CONTEXT ( ( #250, #220, #107 ) ) REPRESENTATION_CONTEXT ( 'NONE', 'WORKASPACE' ) );
#294 = PRESENTATION_STYLE_ASSIGNMENT (( #117 ) ) ;
#295 = DIMENSIONAL_EXPONENTS ( 1.000000000000000000, 0.000000000000000000, 0.000000000000000000, 0.000000000000000000, 0.000000000000000000, 0.000000000000000000, 0.000000000000000000 ) ;
#296 = EDGE_CURVE ( 'NONE', #130, #200, #9, .T. ) ;
#297 =( LENGTH_UNIT ( ) NAMED_UNIT ( * ) SI_UNIT ( $, .METRE. ) );
#298 = DIRECTION ( 'NONE',  ( 1.166302553557088328E-16, -1.000000000000000000, 0.000000000000000000 ) ) ;
#299 = UNCERTAINTY_MEASURE_WITH_UNIT (LENGTH_MEASURE( 1.000000000000000082E-05 ), #360, 'distance_accuracy_value', 'NONE');
#300 = SURFACE_SIDE_STYLE ('',( #19 ) ) ;
#301 = FACE_OUTER_BOUND ( 'NONE', #83, .T. ) ;
#302 = ORIENTED_EDGE ( 'NONE', *, *, #27, .F. ) ;
#303 = SURFACE_STYLE_USAGE ( .BOTH. , #55 ) ;
#304 = ADVANCED_FACE ( 'NONE', ( #214 ), #98, .T. ) ;
#305 = DIMENSIONAL_EXPONENTS ( 1.000000000000000000, 0.000000000000000000, 0.000000000000000000, 0.000000000000000000, 0.000000000000000000, 0.000000000000000000, 0.000000000000000000 ) ;
#306 = CARTESIAN_POINT ( 'NONE',  ( 0.000000000000000000, 3.250000000000000000, 0.000000000000000000 ) ) ;
#307 = DIRECTION ( 'NONE',  ( -0.000000000000000000, -1.000000000000000000, -0.000000000000000000 ) ) ;
#308 =( CONVERSION_BASED_UNIT ( 'INCH', #373 ) LENGTH_UNIT ( ) NAMED_UNIT ( #175 ) );
#309 = STYLED_ITEM ( 'NONE', ( #187 ), #163 ) ;
#310 = MECHANICAL_DESIGN_GEOMETRIC_PRESENTATION_REPRESENTATION (  '', ( #326 ), #23 ) ;
#311 = LENGTH_MEASURE_WITH_UNIT ( LENGTH_MEASURE( 0.02539999999999999897 ), #312 );
#312 =( LENGTH_UNIT ( ) NAMED_UNIT ( * ) SI_UNIT ( $, .METRE. ) );
#313 = DIRECTION ( 'NONE',  ( 0.000000000000000000, 0.000000000000000000, -1.000000000000000000 ) ) ;
#314 = SURFACE_STYLE_FILL_AREA ( #5 ) ;
#315 = ORIENTED_EDGE ( 'NONE', *, *, #211, .T. ) ;
#316 = AXIS2_PLACEMENT_3D ( 'NONE', #36, #227, #351 ) ;
#317 = AXIS2_PLACEMENT_3D ( 'NONE', #57, #153, #35 ) ;
#318 = VERTEX_POINT ( 'NONE', #20 ) ;
#319 = CARTESIAN_POINT ( 'NONE',  ( -1.224646799147354440E-16, 6.000000000000000888, 0.000000000000000000 ) ) ;
#320 = DIRECTION ( 'NONE',  ( -1.000000000000000000, 0.000000000000000000, 0.000000000000000000 ) ) ;
#321 = CARTESIAN_POINT ( 'NONE',  ( 0.000000000000000000, 0.000000000000000000, 0.000000000000000000 ) ) ;
#322 = SURFACE_STYLE_USAGE ( .BOTH. , #203 ) ;
#323 = CARTESIAN_POINT ( 'NONE',  ( 0.000000000000000000, 3.250000000000000000, 0.000000000000000000 ) ) ;
#324 = LENGTH_MEASURE_WITH_UNIT ( LENGTH_MEASURE( 0.02539999999999999897 ), #280 );
#325 = COLOUR_RGB ( '',1.000000000000000000, 0.000000000000000000, 0.000000000000000000 ) ;
#326 = STYLED_ITEM ( 'NONE', ( #139 ), #327 ) ;
#327 = ADVANCED_FACE ( 'NONE', ( #155 ), #274, .T. ) ;
#328 = PRODUCT ( '86085', '86085', '', ( #173 ) ) ;
#329 = DIRECTION ( 'NONE',  ( -1.000000000000000000, 0.000000000000000000, 0.000000000000000000 ) ) ;
#330 = AXIS2_PLACEMENT_3D ( 'NONE', #342, #242, #75 ) ;
#331 = AXIS2_PLACEMENT_3D ( 'NONE', #319, #207, #68 ) ;
#332 = SHAPE_DEFINITION_REPRESENTATION ( #266, #97 ) ;
#333 = MECHANICAL_DESIGN_GEOMETRIC_PRESENTATION_REPRESENTATION (  '', ( #232 ), #356 ) ;
#334 = CARTESIAN_POINT ( 'NONE',  ( 0.000000000000000000, 3.250000000000000000, 0.000000000000000000 ) ) ;
#335 = DIRECTION ( 'NONE',  ( -1.166302553557088328E-16, 1.000000000000000000, -0.000000000000000000 ) ) ;
#336 = DIRECTION ( 'NONE',  ( 1.224646799147353207E-16, -0.000000000000000000, 1.000000000000000000 ) ) ;
#337 = ORIENTED_EDGE ( 'NONE', *, *, #236, .T. ) ;
#338 = EDGE_CURVE ( 'NONE', #254, #318, #70, .T. ) ;
#339 = STYLED_ITEM ( 'NONE', ( #128 ), #248 ) ;
#340 = CARTESIAN_POINT ( 'NONE',  ( -4.592425496802573602E-17, 0.3749999999999999445, 0.000000000000000000 ) ) ;
#341 = DIRECTION ( 'NONE',  ( -0.000000000000000000, -1.000000000000000000, -0.000000000000000000 ) ) ;
#342 = CARTESIAN_POINT ( 'NONE',  ( -1.224646799147354440E-16, 6.000000000000000888, 0.000000000000000000 ) ) ;
#343 = CARTESIAN_POINT ( 'NONE',  ( 0.3749999999999993894, 6.000000000000000888, 4.592425496802569288E-17 ) ) ;
#344 = FILL_AREA_STYLE ('',( #372 ) ) ;
#345 = VERTEX_POINT ( 'NONE', #15 ) ;
#346 = FACE_OUTER_BOUND ( 'NONE', #359, .T. ) ;
#347 = VECTOR ( 'NONE', #350, 39.37007874015748143 ) ;
#348 = SURFACE_STYLE_FILL_AREA ( #2 ) ;
#349 = VERTEX_POINT ( 'NONE', #88 ) ;
#350 = DIRECTION ( 'NONE',  ( -1.166302553557088328E-16, 1.000000000000000000, -0.000000000000000000 ) ) ;
#351 = DIRECTION ( 'NONE',  ( -1.000000000000000000, 0.000000000000000000, 0.000000000000000000 ) ) ;
#352 = CARTESIAN_POINT ( 'NONE',  ( 0.000000000000000000, 0.3750000000000000555, 0.000000000000000000 ) ) ;
#353 = ORIENTED_EDGE ( 'NONE', *, *, #176, .T. ) ;
#354 = VERTEX_POINT ( 'NONE', #48 ) ;
#355 = MECHANICAL_DESIGN_GEOMETRIC_PRESENTATION_REPRESENTATION (  '', ( #131 ), #120 ) ;
#356 =( GEOMETRIC_REPRESENTATION_CONTEXT ( 3 ) GLOBAL_UNCERTAINTY_ASSIGNED_CONTEXT ( ( #66 ) ) GLOBAL_UNIT_ASSIGNED_CONTEXT ( ( #225, #11, #185 ) ) REPRESENTATION_CONTEXT ( 'NONE', 'WORKASPACE' ) );
#357 = CARTESIAN_POINT ( 'NONE',  ( 4.592425496802572370E-17, 0.000000000000000000, 0.3749999999999998335 ) ) ;
#358 = CARTESIAN_POINT ( 'NONE',  ( 1.982685223134639388E-16, 3.250000000000000000, 0.000000000000000000 ) ) ;
#359 = EDGE_LOOP ( 'NONE', ( #251, #63 ) ) ;
#360 =( CONVERSION_BASED_UNIT ( 'INCH', #119 ) LENGTH_UNIT ( ) NAMED_UNIT ( #269 ) );
#361 = DIMENSIONAL_EXPONENTS ( 1.000000000000000000, 0.000000000000000000, 0.000000000000000000, 0.000000000000000000, 0.000000000000000000, 0.000000000000000000, 0.000000000000000000 ) ;
#362 = AXIS2_PLACEMENT_3D ( 'NONE', #150, #298, #42 ) ;
#363 = DIRECTION ( 'NONE',  ( 1.000000000000000000, 0.000000000000000000, 0.000000000000000000 ) ) ;
#364 = DIRECTION ( 'NONE',  ( -0.000000000000000000, -1.000000000000000000, -0.000000000000000000 ) ) ;
#365 = DIRECTION ( 'NONE',  ( 1.000000000000000000, 0.000000000000000000, 0.000000000000000000 ) ) ;
#366 =( NAMED_UNIT ( * ) PLANE_ANGLE_UNIT ( ) SI_UNIT ( $, .RADIAN. ) );
#367 = PLANE ( 'NONE',  #179 ) ;
#368 = VECTOR ( 'NONE', #92, 39.37007874015748143 ) ;
#369 = AXIS2_PLACEMENT_3D ( 'NONE', #306, #33, #79 ) ;
#370 =( GEOMETRIC_REPRESENTATION_CONTEXT ( 3 ) GLOBAL_UNCERTAINTY_ASSIGNED_CONTEXT ( ( #299 ) ) GLOBAL_UNIT_ASSIGNED_CONTEXT ( ( #360, #99, #52 ) ) REPRESENTATION_CONTEXT ( 'NONE', 'WORKASPACE' ) );
#371 = CARTESIAN_POINT ( 'NONE',  ( 1.982685223134639388E-16, 3.250000000000000000, 0.000000000000000000 ) ) ;
#372 = FILL_AREA_STYLE_COLOUR ( '', #89 ) ;
#373 = LENGTH_MEASURE_WITH_UNIT ( LENGTH_MEASURE( 0.02539999999999999897 ), #106 );
ENDSEC;
END-ISO-10303-21;
