ISO-10303-21;
HEADER;
FILE_DESCRIPTION (( 'STEP AP214' ),
    '1' );
FILE_NAME ('59831.STEP',
    '2023-07-12T13:07:04',
    ( '' ),
    ( '' ),
    'SwSTEP 2.0',
    'SolidWorks 2023',
    '' );
FILE_SCHEMA (( 'AUTOMOTIVE_DESIGN' ));
ENDSEC;

DATA;
#1 = PRESENTATION_LAYER_ASSIGNMENT (  '', '', ( #178 ) ) ;
#2 = ORIENTED_EDGE ( 'NONE', *, *, #302, .T. ) ;
#3 = VERTEX_POINT ( 'NONE', #238 ) ;
#4 = LENGTH_MEASURE_WITH_UNIT ( LENGTH_MEASURE( 0.02539999999999999897 ), #163 );
#5 = PRESENTATION_LAYER_ASSIGNMENT (  '', '', ( #263 ) ) ;
#6 = FACE_OUTER_BOUND ( 'NONE', #63, .T. ) ;
#7 = PRESENTATION_STYLE_ASSIGNMENT (( #120 ) ) ;
#8 = VERTEX_POINT ( 'NONE', #187 ) ;
#9 = PRODUCT_DEFINITION_SHAPE ( 'NONE', 'NONE',  #186 ) ;
#10 = CARTESIAN_POINT ( 'NONE',  ( -6.123233995736772199E-17, 3.000000000000000444, 0.000000000000000000 ) ) ;
#11 = EDGE_CURVE ( 'NONE', #309, #296, #293, .T. ) ;
#12 = DIRECTION ( 'NONE',  ( 1.000000000000000000, 0.000000000000000000, 0.000000000000000000 ) ) ;
#13 = STYLED_ITEM ( 'NONE', ( #94 ), #148 ) ;
#14 = DIRECTION ( 'NONE',  ( -1.436814388651614027E-16, 1.000000000000000000, -0.000000000000000000 ) ) ;
#15 = FILL_AREA_STYLE_COLOUR ( '', #216 ) ;
#16 = CARTESIAN_POINT ( 'NONE',  ( -0.04499999999999999833, 8.449690532456936238E-19, 0.000000000000000000 ) ) ;
#17 = AXIS2_PLACEMENT_3D ( 'NONE', #10, #279, #151 ) ;
#18 = SURFACE_STYLE_USAGE ( .BOTH. , #88 ) ;
#19 = ORIENTED_EDGE ( 'NONE', *, *, #20, .T. ) ;
#20 = EDGE_CURVE ( 'NONE', #167, #296, #32, .T. ) ;
#21 = CARTESIAN_POINT ( 'NONE',  ( 3.476216432319169970E-16, 0.1544411970082240904, 0.000000000000000000 ) ) ;
#22 =( LENGTH_UNIT ( ) NAMED_UNIT ( * ) SI_UNIT ( $, .METRE. ) );
#23 = ADVANCED_FACE ( 'NONE', ( #235 ), #26, .T. ) ;
#24 = PRESENTATION_STYLE_ASSIGNMENT (( #211 ) ) ;
#25 = PRESENTATION_LAYER_ASSIGNMENT (  '', '', ( #13 ) ) ;
#26 = PLANE ( 'NONE',  #142 ) ;
#27 = VECTOR ( 'NONE', #14, 39.37007874015748143 ) ;
#28 = ORIENTED_EDGE ( 'NONE', *, *, #273, .T. ) ;
#29 = DIRECTION ( 'NONE',  ( 0.000000000000000000, 0.000000000000000000, 1.000000000000000000 ) ) ;
#30 = CIRCLE ( 'NONE', #153, 0.04499999999999999833 ) ;
#31 = FILL_AREA_STYLE ('',( #244 ) ) ;
#32 = CIRCLE ( 'NONE', #272, 0.3125000000000000555 ) ;
#33 =( CONVERSION_BASED_UNIT ( 'INCH', #80 ) LENGTH_UNIT ( ) NAMED_UNIT ( #130 ) );
#34 = VECTOR ( 'NONE', #234, 39.37007874015748854 ) ;
#35 =( GEOMETRIC_REPRESENTATION_CONTEXT ( 3 ) GLOBAL_UNCERTAINTY_ASSIGNED_CONTEXT ( ( #160 ) ) GLOBAL_UNIT_ASSIGNED_CONTEXT ( ( #199, #76, #222 ) ) REPRESENTATION_CONTEXT ( 'NONE', 'WORKASPACE' ) );
#36 = FACE_OUTER_BOUND ( 'NONE', #108, .T. ) ;
#37 = ORIENTED_EDGE ( 'NONE', *, *, #149, .F. ) ;
#38 =( NAMED_UNIT ( * ) SI_UNIT ( $, .STERADIAN. ) SOLID_ANGLE_UNIT ( ) );
#39 = SURFACE_STYLE_USAGE ( .BOTH. , #161 ) ;
#40 = FILL_AREA_STYLE_COLOUR ( '', #183 ) ;
#41 = AXIS2_PLACEMENT_3D ( 'NONE', #264, #180, #182 ) ;
#42 = CARTESIAN_POINT ( 'NONE',  ( 1.449978133535230669E-18, 0.1544411970082240904, 0.000000000000000000 ) ) ;
#43 = MECHANICAL_DESIGN_GEOMETRIC_PRESENTATION_REPRESENTATION (  '', ( #178 ), #197 ) ;
#44 = EDGE_CURVE ( 'NONE', #3, #167, #218, .T. ) ;
#45 = EDGE_LOOP ( 'NONE', ( #269, #96, #98, #2 ) ) ;
#46 = ORIENTED_EDGE ( 'NONE', *, *, #116, .T. ) ;
#47 = DIRECTION ( 'NONE',  ( -1.436814388651614027E-16, 1.000000000000000000, -0.000000000000000000 ) ) ;
#48 = COLOUR_RGB ( '',0.7921568627450980005, 0.8196078431372548767, 0.9333333333333333481 ) ;
#49 = MECHANICAL_DESIGN_GEOMETRIC_PRESENTATION_REPRESENTATION (  '', ( #139 ), #208 ) ;
#50 = UNCERTAINTY_MEASURE_WITH_UNIT (LENGTH_MEASURE( 1.000000000000000082E-05 ), #154, 'distance_accuracy_value', 'NONE');
#51 = CARTESIAN_POINT ( 'NONE',  ( 0.000000000000000000, 0.000000000000000000, 0.000000000000000000 ) ) ;
#52 = DIRECTION ( 'NONE',  ( -9.388545036063263300E-18, -1.000000000000000000, -0.000000000000000000 ) ) ;
#53 = VERTEX_POINT ( 'NONE', #205 ) ;
#54 = CARTESIAN_POINT ( 'NONE',  ( 3.966515005238466176E-36, 4.224845266228468119E-19, 0.000000000000000000 ) ) ;
#55 = APPLICATION_PROTOCOL_DEFINITION ( 'draft international standard', 'automotive_design', 1998, #194 ) ;
#56 =( NAMED_UNIT ( * ) PLANE_ANGLE_UNIT ( ) SI_UNIT ( $, .RADIAN. ) );
#57 = EDGE_LOOP ( 'NONE', ( #115, #118, #46, #271 ) ) ;
#58 = SURFACE_SIDE_STYLE ('',( #204 ) ) ;
#59 = DIRECTION ( 'NONE',  ( 9.388545036063263300E-18, 1.000000000000000000, 0.000000000000000000 ) ) ;
#60 =( LENGTH_UNIT ( ) NAMED_UNIT ( * ) SI_UNIT ( $, .METRE. ) );
#61 = MECHANICAL_DESIGN_GEOMETRIC_PRESENTATION_REPRESENTATION (  '', ( #107 ), #114 ) ;
#62 = ORIENTED_EDGE ( 'NONE', *, *, #116, .F. ) ;
#63 = EDGE_LOOP ( 'NONE', ( #255, #192, #193, #195 ) ) ;
#64 = FILL_AREA_STYLE ('',( #40 ) ) ;
#65 = PRESENTATION_LAYER_ASSIGNMENT (  '', '', ( #139 ) ) ;
#66 = FILL_AREA_STYLE ('',( #304 ) ) ;
#67 = DIMENSIONAL_EXPONENTS ( 1.000000000000000000, 0.000000000000000000, 0.000000000000000000, 0.000000000000000000, 0.000000000000000000, 0.000000000000000000, 0.000000000000000000 ) ;
#68 = SURFACE_STYLE_FILL_AREA ( #291 ) ;
#69 = AXIS2_PLACEMENT_3D ( 'NONE', #136, #134, #179 ) ;
#70 = ORIENTED_EDGE ( 'NONE', *, *, #273, .F. ) ;
#71 = EDGE_CURVE ( 'NONE', #207, #295, #30, .T. ) ;
#72 = DIRECTION ( 'NONE',  ( -1.436814388651614027E-16, 1.000000000000000000, -0.000000000000000000 ) ) ;
#73 = ADVANCED_FACE ( 'NONE', ( #6 ), #84, .T. ) ;
#74 = ORIENTED_EDGE ( 'NONE', *, *, #302, .F. ) ;
#75 = STYLED_ITEM ( 'NONE', ( #230 ), #214 ) ;
#76 =( NAMED_UNIT ( * ) PLANE_ANGLE_UNIT ( ) SI_UNIT ( $, .RADIAN. ) );
#77 = FACE_OUTER_BOUND ( 'NONE', #262, .T. ) ;
#78 = ORIENTED_EDGE ( 'NONE', *, *, #11, .F. ) ;
#79 = SHAPE_DEFINITION_REPRESENTATION ( #9, #141 ) ;
#80 = LENGTH_MEASURE_WITH_UNIT ( LENGTH_MEASURE( 0.02539999999999999897 ), #251 );
#81 = AXIS2_PLACEMENT_3D ( 'NONE', #21, #284, #129 ) ;
#82 = CARTESIAN_POINT ( 'NONE',  ( 0.3124999999999998335, 3.000000000000000444, 3.827021247335477078E-17 ) ) ;
#83 = EDGE_LOOP ( 'NONE', ( #292, #242, #70, #78 ) ) ;
#84 = CYLINDRICAL_SURFACE ( 'NONE', #17, 0.3124999999999998890 ) ;
#85 = PRESENTATION_STYLE_ASSIGNMENT (( #221 ) ) ;
#86 = LENGTH_MEASURE_WITH_UNIT ( LENGTH_MEASURE( 0.02539999999999999897 ), #266 );
#87 = PLANE ( 'NONE',  #277 ) ;
#88 = SURFACE_SIDE_STYLE ('',( #307 ) ) ;
#89 = CARTESIAN_POINT ( 'NONE',  ( 3.966515005238466176E-36, 4.224845266228468119E-19, 0.000000000000000000 ) ) ;
#90 = DIRECTION ( 'NONE',  ( -1.436814388651614027E-16, 1.000000000000000000, -0.000000000000000000 ) ) ;
#91 = CARTESIAN_POINT ( 'NONE',  ( 3.476216432319169970E-16, 0.1544411970082242846, 0.000000000000000000 ) ) ;
#92 = MECHANICAL_DESIGN_GEOMETRIC_PRESENTATION_REPRESENTATION (  '', ( #75 ), #111 ) ;
#93 = DIMENSIONAL_EXPONENTS ( 1.000000000000000000, 0.000000000000000000, 0.000000000000000000, 0.000000000000000000, 0.000000000000000000, 0.000000000000000000, 0.000000000000000000 ) ;
#94 = PRESENTATION_STYLE_ASSIGNMENT (( #18 ) ) ;
#95 = AXIS2_PLACEMENT_3D ( 'NONE', #175, #59, #280 ) ;
#96 = ORIENTED_EDGE ( 'NONE', *, *, #215, .F. ) ;
#97 = CARTESIAN_POINT ( 'NONE',  ( -0.3124999999999999445, 3.000000000000000444, 0.000000000000000000 ) ) ;
#98 = ORIENTED_EDGE ( 'NONE', *, *, #155, .T. ) ;
#99 = LINE ( 'NONE', #198, #127 ) ;
#100 = FILL_AREA_STYLE_COLOUR ( '', #306 ) ;
#101 = DIRECTION ( 'NONE',  ( 9.388545036063263300E-18, 1.000000000000000000, 0.000000000000000000 ) ) ;
#102 = AXIS2_PLACEMENT_3D ( 'NONE', #91, #90, #232 ) ;
#103 =( CONVERSION_BASED_UNIT ( 'INCH', #241 ) LENGTH_UNIT ( ) NAMED_UNIT ( #254 ) );
#104 = FILL_AREA_STYLE ('',( #15 ) ) ;
#105 = SURFACE_STYLE_FILL_AREA ( #104 ) ;
#106 =( NAMED_UNIT ( * ) PLANE_ANGLE_UNIT ( ) SI_UNIT ( $, .RADIAN. ) );
#107 = STYLED_ITEM ( 'NONE', ( #140 ), #23 ) ;
#108 = EDGE_LOOP ( 'NONE', ( #28, #19 ) ) ;
#109 = CARTESIAN_POINT ( 'NONE',  ( 0.04499999999999999833, 0.000000000000000000, 2.189056153475893941E-17 ) ) ;
#110 =( NAMED_UNIT ( * ) PLANE_ANGLE_UNIT ( ) SI_UNIT ( $, .RADIAN. ) );
#111 =( GEOMETRIC_REPRESENTATION_CONTEXT ( 3 ) GLOBAL_UNCERTAINTY_ASSIGNED_CONTEXT ( ( #294 ) ) GLOBAL_UNIT_ASSIGNED_CONTEXT ( ( #283, #106, #150 ) ) REPRESENTATION_CONTEXT ( 'NONE', 'WORKASPACE' ) );
#112 =( CONVERSION_BASED_UNIT ( 'INCH', #285 ) LENGTH_UNIT ( ) NAMED_UNIT ( #93 ) );
#113 = ORIENTED_EDGE ( 'NONE', *, *, #71, .T. ) ;
#114 =( GEOMETRIC_REPRESENTATION_CONTEXT ( 3 ) GLOBAL_UNCERTAINTY_ASSIGNED_CONTEXT ( ( #236 ) ) GLOBAL_UNIT_ASSIGNED_CONTEXT ( ( #103, #299, #176 ) ) REPRESENTATION_CONTEXT ( 'NONE', 'WORKASPACE' ) );
#115 = ORIENTED_EDGE ( 'NONE', *, *, #71, .F. ) ;
#116 = EDGE_CURVE ( 'NONE', #8, #53, #303, .T. ) ;
#117 = PRODUCT_DEFINITION_CONTEXT ( 'detailed design', #209, 'design' ) ;
#118 = ORIENTED_EDGE ( 'NONE', *, *, #123, .T. ) ;
#119 = MECHANICAL_DESIGN_GEOMETRIC_PRESENTATION_REPRESENTATION (  '', ( #13 ), #164 ) ;
#120 = SURFACE_STYLE_USAGE ( .BOTH. , #58 ) ;
#121 = DIRECTION ( 'NONE',  ( 1.000000000000000000, -9.388545036063263300E-18, 0.000000000000000000 ) ) ;
#122 =( NAMED_UNIT ( * ) SI_UNIT ( $, .STERADIAN. ) SOLID_ANGLE_UNIT ( ) );
#123 = EDGE_CURVE ( 'NONE', #207, #8, #99, .T. ) ;
#124 = DIRECTION ( 'NONE',  ( -9.388545036063263300E-18, -1.000000000000000000, 0.000000000000000000 ) ) ;
#125 = CARTESIAN_POINT ( 'NONE',  ( 3.966515005238466176E-36, 4.224845266228468119E-19, 0.000000000000000000 ) ) ;
#126 = ADVANCED_FACE ( 'NONE', ( #77 ), #172, .T. ) ;
#127 = VECTOR ( 'NONE', #147, 39.37007874015748854 ) ;
#128 = PRODUCT_RELATED_PRODUCT_CATEGORY ( 'part', '', ( #144 ) ) ;
#129 = DIRECTION ( 'NONE',  ( -1.000000000000000000, -1.436814388651614027E-16, 0.000000000000000000 ) ) ;
#130 = DIMENSIONAL_EXPONENTS ( 1.000000000000000000, 0.000000000000000000, 0.000000000000000000, 0.000000000000000000, 0.000000000000000000, 0.000000000000000000, 0.000000000000000000 ) ;
#131 = DIRECTION ( 'NONE',  ( -1.000000000000000000, 0.000000000000000000, 0.000000000000000000 ) ) ;
#132 = EDGE_CURVE ( 'NONE', #3, #309, #173, .T. ) ;
#133 = CIRCLE ( 'NONE', #138, 0.3125000000000000555 ) ;
#134 = DIRECTION ( 'NONE',  ( -1.436814388651614027E-16, 1.000000000000000000, -0.000000000000000000 ) ) ;
#135 = DIRECTION ( 'NONE',  ( 9.388545036063263300E-18, 1.000000000000000000, 0.000000000000000000 ) ) ;
#136 = CARTESIAN_POINT ( 'NONE',  ( -6.123233995736772199E-17, 3.000000000000000444, 0.000000000000000000 ) ) ;
#137 = DIRECTION ( 'NONE',  ( -9.388545036063263300E-18, -1.000000000000000000, -0.000000000000000000 ) ) ;
#138 = AXIS2_PLACEMENT_3D ( 'NONE', #228, #225, #131 ) ;
#139 = STYLED_ITEM ( 'NONE', ( #24 ), #278 ) ;
#140 = PRESENTATION_STYLE_ASSIGNMENT (( #268 ) ) ;
#141 = ADVANCED_BREP_SHAPE_REPRESENTATION ( '59831', ( #148, #275, #227 ), #35 ) ;
#142 = AXIS2_PLACEMENT_3D ( 'NONE', #276, #101, #300 ) ;
#143 = EDGE_LOOP ( 'NONE', ( #37, #274 ) ) ;
#144 = PRODUCT ( '59831', '59831', '', ( #226 ) ) ;
#145 = DIRECTION ( 'NONE',  ( 1.436814388651614027E-16, -1.000000000000000000, 0.000000000000000000 ) ) ;
#146 = AXIS2_PLACEMENT_3D ( 'NONE', #42, #137, #308 ) ;
#147 = DIRECTION ( 'NONE',  ( 0.8660254037844397068, 0.4999999999999979461, 1.060575238724908024E-16 ) ) ;
#148 = MANIFOLD_SOLID_BREP ( 'Revolve - Cutting Edge', #237 ) ;
#149 = EDGE_CURVE ( 'NONE', #309, #3, #224, .T. ) ;
#150 =( NAMED_UNIT ( * ) SI_UNIT ( $, .STERADIAN. ) SOLID_ANGLE_UNIT ( ) );
#151 = DIRECTION ( 'NONE',  ( -1.000000000000000000, 0.000000000000000000, 0.000000000000000000 ) ) ;
#152 = ADVANCED_FACE ( 'NONE', ( #256 ), #258, .F. ) ;
#153 = AXIS2_PLACEMENT_3D ( 'NONE', #54, #217, #201 ) ;
#154 =( CONVERSION_BASED_UNIT ( 'INCH', #203 ) LENGTH_UNIT ( ) NAMED_UNIT ( #265 ) );
#155 = EDGE_CURVE ( 'NONE', #295, #53, #229, .T. ) ;
#156 = CARTESIAN_POINT ( 'NONE',  ( 0.3125000000000000000, 3.000000000000000444, 3.827021247335478926E-17 ) ) ;
#157 =( CONVERSION_BASED_UNIT ( 'INCH', #212 ) LENGTH_UNIT ( ) NAMED_UNIT ( #305 ) );
#158 =( NAMED_UNIT ( * ) PLANE_ANGLE_UNIT ( ) SI_UNIT ( $, .RADIAN. ) );
#159 = AXIS2_PLACEMENT_3D ( 'NONE', #250, #124, #223 ) ;
#160 = UNCERTAINTY_MEASURE_WITH_UNIT (LENGTH_MEASURE( 1.000000000000000082E-05 ), #199, 'distance_accuracy_value', 'NONE');
#161 = SURFACE_SIDE_STYLE ('',( #206 ) ) ;
#162 = CARTESIAN_POINT ( 'NONE',  ( -0.04499999999999999833, 8.449690532456936238E-19, 0.000000000000000000 ) ) ;
#163 =( LENGTH_UNIT ( ) NAMED_UNIT ( * ) SI_UNIT ( $, .METRE. ) );
#164 =( GEOMETRIC_REPRESENTATION_CONTEXT ( 3 ) GLOBAL_UNCERTAINTY_ASSIGNED_CONTEXT ( ( #287 ) ) GLOBAL_UNIT_ASSIGNED_CONTEXT ( ( #157, #110, #38 ) ) REPRESENTATION_CONTEXT ( 'NONE', 'WORKASPACE' ) );
#165 = SURFACE_SIDE_STYLE ('',( #68 ) ) ;
#166 = AXIS2_PLACEMENT_3D ( 'NONE', #89, #135, #289 ) ;
#167 = VERTEX_POINT ( 'NONE', #156 ) ;
#168 = CARTESIAN_POINT ( 'NONE',  ( -6.123233995736770966E-17, 3.000000000000000444, 0.000000000000000000 ) ) ;
#169 = FILL_AREA_STYLE_COLOUR ( '', #246 ) ;
#170 =( GEOMETRIC_REPRESENTATION_CONTEXT ( 3 ) GLOBAL_UNCERTAINTY_ASSIGNED_CONTEXT ( ( #188 ) ) GLOBAL_UNIT_ASSIGNED_CONTEXT ( ( #33, #56, #122 ) ) REPRESENTATION_CONTEXT ( 'NONE', 'WORKASPACE' ) );
#171 = DIRECTION ( 'NONE',  ( -1.000000000000000000, 0.000000000000000000, 0.000000000000000000 ) ) ;
#172 = PLANE ( 'NONE',  #159 ) ;
#173 = CIRCLE ( 'NONE', #102, 0.3124999999999996669 ) ;
#174 =( NAMED_UNIT ( * ) PLANE_ANGLE_UNIT ( ) SI_UNIT ( $, .RADIAN. ) );
#175 = CARTESIAN_POINT ( 'NONE',  ( 3.966515005238466176E-36, 4.224845266228468119E-19, 0.000000000000000000 ) ) ;
#176 =( NAMED_UNIT ( * ) SI_UNIT ( $, .STERADIAN. ) SOLID_ANGLE_UNIT ( ) );
#177 = CARTESIAN_POINT ( 'NONE',  ( 1.449978133535230669E-18, 0.1544411970082240904, 0.000000000000000000 ) ) ;
#178 = STYLED_ITEM ( 'NONE', ( #85 ), #275 ) ;
#179 = DIRECTION ( 'NONE',  ( -1.000000000000000000, 0.000000000000000000, 0.000000000000000000 ) ) ;
#180 = DIRECTION ( 'NONE',  ( -1.436814388651614027E-16, 1.000000000000000000, -0.000000000000000000 ) ) ;
#181 = FILL_AREA_STYLE ('',( #100 ) ) ;
#182 = DIRECTION ( 'NONE',  ( -1.000000000000000000, -1.092739197465706397E-16, 0.000000000000000000 ) ) ;
#183 = COLOUR_RGB ( '',1.000000000000000000, 0.000000000000000000, 0.000000000000000000 ) ;
#184 = ADVANCED_FACE ( 'NONE', ( #185 ), #286, .T. ) ;
#185 = FACE_OUTER_BOUND ( 'NONE', #83, .T. ) ;
#186 = PRODUCT_DEFINITION ( 'UNKNOWN', '', #213, #117 ) ;
#187 = CARTESIAN_POINT ( 'NONE',  ( 0.3125000000000000000, 0.1544411970082240904, 3.827021247335478926E-17 ) ) ;
#188 = UNCERTAINTY_MEASURE_WITH_UNIT (LENGTH_MEASURE( 1.000000000000000082E-05 ), #33, 'distance_accuracy_value', 'NONE');
#189 = SURFACE_STYLE_FILL_AREA ( #181 ) ;
#190 = PRESENTATION_LAYER_ASSIGNMENT (  '', '', ( #75 ) ) ;
#191 = CIRCLE ( 'NONE', #146, 0.3125000000000000000 ) ;
#192 = ORIENTED_EDGE ( 'NONE', *, *, #132, .T. ) ;
#193 = ORIENTED_EDGE ( 'NONE', *, *, #11, .T. ) ;
#194 = APPLICATION_CONTEXT ( 'automotive_design' ) ;
#195 = ORIENTED_EDGE ( 'NONE', *, *, #20, .F. ) ;
#196 = CONICAL_SURFACE ( 'NONE', #95, 0.04499999999999999833, 1.047197551196600074 ) ;
#197 =( GEOMETRIC_REPRESENTATION_CONTEXT ( 3 ) GLOBAL_UNCERTAINTY_ASSIGNED_CONTEXT ( ( #50 ) ) GLOBAL_UNIT_ASSIGNED_CONTEXT ( ( #154, #174, #257 ) ) REPRESENTATION_CONTEXT ( 'NONE', 'WORKASPACE' ) );
#198 = CARTESIAN_POINT ( 'NONE',  ( 0.04499999999999999833, 0.000000000000000000, 5.510910596163089556E-18 ) ) ;
#199 =( CONVERSION_BASED_UNIT ( 'INCH', #4 ) LENGTH_UNIT ( ) NAMED_UNIT ( #260 ) );
#200 =( LENGTH_UNIT ( ) NAMED_UNIT ( * ) SI_UNIT ( $, .METRE. ) );
#201 = DIRECTION ( 'NONE',  ( 1.000000000000000000, -9.388545036063263300E-18, 0.000000000000000000 ) ) ;
#202 = AXIS2_PLACEMENT_3D ( 'NONE', #177, #52, #281 ) ;
#203 = LENGTH_MEASURE_WITH_UNIT ( LENGTH_MEASURE( 0.02539999999999999897 ), #200 );
#204 = SURFACE_STYLE_FILL_AREA ( #31 ) ;
#205 = CARTESIAN_POINT ( 'NONE',  ( -0.3125000000000000000, 0.1544411970082240904, 0.000000000000000000 ) ) ;
#206 = SURFACE_STYLE_FILL_AREA ( #64 ) ;
#207 = VERTEX_POINT ( 'NONE', #109 ) ;
#208 =( GEOMETRIC_REPRESENTATION_CONTEXT ( 3 ) GLOBAL_UNCERTAINTY_ASSIGNED_CONTEXT ( ( #240 ) ) GLOBAL_UNIT_ASSIGNED_CONTEXT ( ( #112, #158, #261 ) ) REPRESENTATION_CONTEXT ( 'NONE', 'WORKASPACE' ) );
#209 = APPLICATION_CONTEXT ( 'automotive_design' ) ;
#210 = SURFACE_SIDE_STYLE ('',( #189 ) ) ;
#211 = SURFACE_STYLE_USAGE ( .BOTH. , #210 ) ;
#212 = LENGTH_MEASURE_WITH_UNIT ( LENGTH_MEASURE( 0.02539999999999999897 ), #60 );
#213 = PRODUCT_DEFINITION_FORMATION_WITH_SPECIFIED_SOURCE ( 'ANY', '', #144, .NOT_KNOWN. ) ;
#214 = ADVANCED_FACE ( 'NONE', ( #259 ), #196, .T. ) ;
#215 = EDGE_CURVE ( 'NONE', #295, #207, #231, .T. ) ;
#216 = COLOUR_RGB ( '',0.7921568627450980005, 0.8196078431372548767, 0.9333333333333333481 ) ;
#217 = DIRECTION ( 'NONE',  ( -9.388545036063263300E-18, -1.000000000000000000, -0.000000000000000000 ) ) ;
#218 = LINE ( 'NONE', #82, #27 ) ;
#219 = VECTOR ( 'NONE', #72, 39.37007874015748143 ) ;
#220 =( LENGTH_UNIT ( ) NAMED_UNIT ( * ) SI_UNIT ( $, .METRE. ) );
#221 = SURFACE_STYLE_USAGE ( .BOTH. , #301 ) ;
#222 =( NAMED_UNIT ( * ) SI_UNIT ( $, .STERADIAN. ) SOLID_ANGLE_UNIT ( ) );
#223 = DIRECTION ( 'NONE',  ( 1.000000000000000000, -9.388545036063263300E-18, 0.000000000000000000 ) ) ;
#224 = CIRCLE ( 'NONE', #41, 0.3124999999999996669 ) ;
#225 = DIRECTION ( 'NONE',  ( -1.436814388651614027E-16, 1.000000000000000000, -0.000000000000000000 ) ) ;
#226 = PRODUCT_CONTEXT ( 'NONE', #194, 'mechanical' ) ;
#227 = AXIS2_PLACEMENT_3D ( 'NONE', #51, #29, #12 ) ;
#228 = CARTESIAN_POINT ( 'NONE',  ( -6.123233995736770966E-17, 3.000000000000000444, 0.000000000000000000 ) ) ;
#229 = LINE ( 'NONE', #16, #34 ) ;
#230 = PRESENTATION_STYLE_ASSIGNMENT (( #39 ) ) ;
#231 = CIRCLE ( 'NONE', #282, 0.04499999999999999833 ) ;
#232 = DIRECTION ( 'NONE',  ( -1.000000000000000000, -1.092739197465706397E-16, 0.000000000000000000 ) ) ;
#233 = ORIENTED_EDGE ( 'NONE', *, *, #215, .T. ) ;
#234 = DIRECTION ( 'NONE',  ( -0.8660254037844397068, 0.4999999999999979461, 0.000000000000000000 ) ) ;
#235 = FACE_OUTER_BOUND ( 'NONE', #239, .T. ) ;
#236 = UNCERTAINTY_MEASURE_WITH_UNIT (LENGTH_MEASURE( 1.000000000000000082E-05 ), #103, 'distance_accuracy_value', 'NONE');
#237 = CLOSED_SHELL ( 'NONE', ( #278, #23, #214, #126 ) ) ;
#238 = CARTESIAN_POINT ( 'NONE',  ( 0.3125000000000000000, 0.1544411970082243124, 3.827021247335478926E-17 ) ) ;
#239 = EDGE_LOOP ( 'NONE', ( #74, #62 ) ) ;
#240 = UNCERTAINTY_MEASURE_WITH_UNIT (LENGTH_MEASURE( 1.000000000000000082E-05 ), #112, 'distance_accuracy_value', 'NONE');
#241 = LENGTH_MEASURE_WITH_UNIT ( LENGTH_MEASURE( 0.02539999999999999897 ), #220 );
#242 = ORIENTED_EDGE ( 'NONE', *, *, #44, .T. ) ;
#243 = ADVANCED_FACE ( 'NONE', ( #36 ), #87, .F. ) ;
#244 = FILL_AREA_STYLE_COLOUR ( '', #298 ) ;
#245 = MECHANICAL_DESIGN_GEOMETRIC_PRESENTATION_REPRESENTATION (  '', ( #263 ), #170 ) ;
#246 = COLOUR_RGB ( '',1.000000000000000000, 0.000000000000000000, 0.000000000000000000 ) ;
#247 = CONICAL_SURFACE ( 'NONE', #166, 0.04499999999999999833, 1.047197551196600074 ) ;
#248 = DIRECTION ( 'NONE',  ( 1.000000000000000000, 1.436814388651614027E-16, 0.000000000000000000 ) ) ;
#249 = CARTESIAN_POINT ( 'NONE',  ( 0.3125000000000000000, 3.000000000000000444, 0.000000000000000000 ) ) ;
#250 = CARTESIAN_POINT ( 'NONE',  ( 1.983257502619233088E-36, 2.112422633114234060E-19, 0.000000000000000000 ) ) ;
#251 =( LENGTH_UNIT ( ) NAMED_UNIT ( * ) SI_UNIT ( $, .METRE. ) );
#252 = PRESENTATION_LAYER_ASSIGNMENT (  '', '', ( #107 ) ) ;
#253 = DIRECTION ( 'NONE',  ( -9.388545036063263300E-18, -1.000000000000000000, -0.000000000000000000 ) ) ;
#254 = DIMENSIONAL_EXPONENTS ( 1.000000000000000000, 0.000000000000000000, 0.000000000000000000, 0.000000000000000000, 0.000000000000000000, 0.000000000000000000, 0.000000000000000000 ) ;
#255 = ORIENTED_EDGE ( 'NONE', *, *, #44, .F. ) ;
#256 = FACE_OUTER_BOUND ( 'NONE', #143, .T. ) ;
#257 =( NAMED_UNIT ( * ) SI_UNIT ( $, .STERADIAN. ) SOLID_ANGLE_UNIT ( ) );
#258 = PLANE ( 'NONE',  #81 ) ;
#259 = FACE_OUTER_BOUND ( 'NONE', #45, .T. ) ;
#260 = DIMENSIONAL_EXPONENTS ( 1.000000000000000000, 0.000000000000000000, 0.000000000000000000, 0.000000000000000000, 0.000000000000000000, 0.000000000000000000, 0.000000000000000000 ) ;
#261 =( NAMED_UNIT ( * ) SI_UNIT ( $, .STERADIAN. ) SOLID_ANGLE_UNIT ( ) );
#262 = EDGE_LOOP ( 'NONE', ( #233, #113 ) ) ;
#263 = STYLED_ITEM ( 'NONE', ( #7 ), #126 ) ;
#264 = CARTESIAN_POINT ( 'NONE',  ( 3.476216432319169970E-16, 0.1544411970082242846, 0.000000000000000000 ) ) ;
#265 = DIMENSIONAL_EXPONENTS ( 1.000000000000000000, 0.000000000000000000, 0.000000000000000000, 0.000000000000000000, 0.000000000000000000, 0.000000000000000000, 0.000000000000000000 ) ;
#266 =( LENGTH_UNIT ( ) NAMED_UNIT ( * ) SI_UNIT ( $, .METRE. ) );
#267 = CARTESIAN_POINT ( 'NONE',  ( -0.3125000000000001665, 3.000000000000000444, 0.000000000000000000 ) ) ;
#268 = SURFACE_STYLE_USAGE ( .BOTH. , #165 ) ;
#269 = ORIENTED_EDGE ( 'NONE', *, *, #123, .F. ) ;
#270 = CLOSED_SHELL ( 'NONE', ( #184, #152, #73, #243 ) ) ;
#271 = ORIENTED_EDGE ( 'NONE', *, *, #155, .F. ) ;
#272 = AXIS2_PLACEMENT_3D ( 'NONE', #168, #47, #171 ) ;
#273 = EDGE_CURVE ( 'NONE', #296, #167, #133, .T. ) ;
#274 = ORIENTED_EDGE ( 'NONE', *, *, #132, .F. ) ;
#275 = MANIFOLD_SOLID_BREP ( 'Revolve - Tool Body (Tipped Off)', #270 ) ;
#276 = CARTESIAN_POINT ( 'NONE',  ( 1.449978133535230861E-18, 0.1544411970082241181, 0.000000000000000000 ) ) ;
#277 = AXIS2_PLACEMENT_3D ( 'NONE', #249, #145, #248 ) ;
#278 = ADVANCED_FACE ( 'NONE', ( #288 ), #247, .T. ) ;
#279 = DIRECTION ( 'NONE',  ( -1.436814388651614027E-16, 1.000000000000000000, -0.000000000000000000 ) ) ;
#280 = DIRECTION ( 'NONE',  ( -1.000000000000000000, 9.388545036063263300E-18, 0.000000000000000000 ) ) ;
#281 = DIRECTION ( 'NONE',  ( 1.000000000000000000, 0.000000000000000000, 0.000000000000000000 ) ) ;
#282 = AXIS2_PLACEMENT_3D ( 'NONE', #125, #253, #121 ) ;
#283 =( CONVERSION_BASED_UNIT ( 'INCH', #86 ) LENGTH_UNIT ( ) NAMED_UNIT ( #67 ) );
#284 = DIRECTION ( 'NONE',  ( -1.436814388651614027E-16, 1.000000000000000000, 0.000000000000000000 ) ) ;
#285 = LENGTH_MEASURE_WITH_UNIT ( LENGTH_MEASURE( 0.02539999999999999897 ), #22 );
#286 = CYLINDRICAL_SURFACE ( 'NONE', #69, 0.3124999999999998890 ) ;
#287 = UNCERTAINTY_MEASURE_WITH_UNIT (LENGTH_MEASURE( 1.000000000000000082E-05 ), #157, 'distance_accuracy_value', 'NONE');
#288 = FACE_OUTER_BOUND ( 'NONE', #57, .T. ) ;
#289 = DIRECTION ( 'NONE',  ( -1.000000000000000000, 9.388545036063263300E-18, 0.000000000000000000 ) ) ;
#290 = CARTESIAN_POINT ( 'NONE',  ( -0.3124999999999993339, 0.1544411970082242569, 0.000000000000000000 ) ) ;
#291 = FILL_AREA_STYLE ('',( #169 ) ) ;
#292 = ORIENTED_EDGE ( 'NONE', *, *, #149, .T. ) ;
#293 = LINE ( 'NONE', #97, #219 ) ;
#294 = UNCERTAINTY_MEASURE_WITH_UNIT (LENGTH_MEASURE( 1.000000000000000082E-05 ), #283, 'distance_accuracy_value', 'NONE');
#295 = VERTEX_POINT ( 'NONE', #162 ) ;
#296 = VERTEX_POINT ( 'NONE', #267 ) ;
#297 = APPLICATION_PROTOCOL_DEFINITION ( 'draft international standard', 'automotive_design', 1998, #209 ) ;
#298 = COLOUR_RGB ( '',1.000000000000000000, 0.000000000000000000, 0.000000000000000000 ) ;
#299 =( NAMED_UNIT ( * ) PLANE_ANGLE_UNIT ( ) SI_UNIT ( $, .RADIAN. ) );
#300 = DIRECTION ( 'NONE',  ( -1.000000000000000000, 9.388545036063263300E-18, 0.000000000000000000 ) ) ;
#301 = SURFACE_SIDE_STYLE ('',( #105 ) ) ;
#302 = EDGE_CURVE ( 'NONE', #53, #8, #191, .T. ) ;
#303 = CIRCLE ( 'NONE', #202, 0.3125000000000000000 ) ;
#304 = FILL_AREA_STYLE_COLOUR ( '', #48 ) ;
#305 = DIMENSIONAL_EXPONENTS ( 1.000000000000000000, 0.000000000000000000, 0.000000000000000000, 0.000000000000000000, 0.000000000000000000, 0.000000000000000000, 0.000000000000000000 ) ;
#306 = COLOUR_RGB ( '',1.000000000000000000, 0.000000000000000000, 0.000000000000000000 ) ;
#307 = SURFACE_STYLE_FILL_AREA ( #66 ) ;
#308 = DIRECTION ( 'NONE',  ( 1.000000000000000000, 0.000000000000000000, 0.000000000000000000 ) ) ;
#309 = VERTEX_POINT ( 'NONE', #290 ) ;
ENDSEC;
END-ISO-10303-21;
