ISO-10303-21;
HEADER;
FILE_DESCRIPTION (( 'STEP AP214' ),
    '1' );
FILE_NAME ('17157.STEP',
    '2023-06-30T21:52:46',
    ( '' ),
    ( '' ),
    'SwSTEP 2.0',
    'SolidWorks 2023',
    '' );
FILE_SCHEMA (( 'AUTOMOTIVE_DESIGN' ));
ENDSEC;

DATA;
#1 = ORIENTED_EDGE ( 'NONE', *, *, #89, .F. ) ;
#2 = DIRECTION ( 'NONE',  ( -1.224646799147352961E-16, 1.000000000000000000, -0.000000000000000000 ) ) ;
#3 = AXIS2_PLACEMENT_3D ( 'NONE', #145, #17, #80 ) ;
#4 = DIRECTION ( 'NONE',  ( 1.000000000000000000, 0.000000000000000000, -1.224646799147353207E-16 ) ) ;
#5 = DIMENSIONAL_EXPONENTS ( 1.000000000000000000, 0.000000000000000000, 0.000000000000000000, 0.000000000000000000, 0.000000000000000000, 0.000000000000000000, 0.000000000000000000 ) ;
#6 = ORIENTED_EDGE ( 'NONE', *, *, #111, .T. ) ;
#7 =( NAMED_UNIT ( * ) SI_UNIT ( $, .STERADIAN. ) SOLID_ANGLE_UNIT ( ) );
#8 = LENGTH_MEASURE_WITH_UNIT ( LENGTH_MEASURE( 0.02539999999999999897 ), #60 );
#9 = DIRECTION ( 'NONE',  ( -1.000000000000000000, 0.000000000000000000, 0.000000000000000000 ) ) ;
#10 = CIRCLE ( 'NONE', #130, 0.1250000000000000000 ) ;
#11 = VERTEX_POINT ( 'NONE', #293 ) ;
#12 =( NAMED_UNIT ( * ) SI_UNIT ( $, .STERADIAN. ) SOLID_ANGLE_UNIT ( ) );
#13 = EDGE_LOOP ( 'NONE', ( #29, #240, #153, #283, #237 ) ) ;
#14 = EDGE_CURVE ( 'NONE', #123, #328, #332, .T. ) ;
#15 = DIRECTION ( 'NONE',  ( -1.224646799147352961E-16, 1.000000000000000000, -0.000000000000000000 ) ) ;
#16 = VERTEX_POINT ( 'NONE', #121 ) ;
#17 = DIRECTION ( 'NONE',  ( -0.000000000000000000, -1.000000000000000000, -0.000000000000000000 ) ) ;
#18 = AXIS2_PLACEMENT_3D ( 'NONE', #333, #74, #119 ) ;
#19 = SURFACE_STYLE_FILL_AREA ( #175 ) ;
#20 = CARTESIAN_POINT ( 'NONE',  ( 0.1250000000000000000, 0.1250000000000000278, 0.000000000000000000 ) ) ;
#21 = SURFACE_STYLE_USAGE ( .BOTH. , #308 ) ;
#22 = UNCERTAINTY_MEASURE_WITH_UNIT (LENGTH_MEASURE( 1.000000000000000082E-05 ), #272, 'distance_accuracy_value', 'NONE');
#23 =( NAMED_UNIT ( * ) PLANE_ANGLE_UNIT ( ) SI_UNIT ( $, .RADIAN. ) );
#24 = AXIS2_PLACEMENT_3D ( 'NONE', #41, #149, #9 ) ;
#25 = MECHANICAL_DESIGN_GEOMETRIC_PRESENTATION_REPRESENTATION (  '', ( #365 ), #104 ) ;
#26 = ADVANCED_FACE ( 'NONE', ( #214 ), #207, .F. ) ;
#27 = CYLINDRICAL_SURFACE ( 'NONE', #172, 0.1249999999999999584 ) ;
#28 = CIRCLE ( 'NONE', #227, 0.1249999999999997641 ) ;
#29 = ORIENTED_EDGE ( 'NONE', *, *, #171, .F. ) ;
#30 = MECHANICAL_DESIGN_GEOMETRIC_PRESENTATION_REPRESENTATION (  '', ( #138 ), #90 ) ;
#31 = ORIENTED_EDGE ( 'NONE', *, *, #184, .T. ) ;
#32 =( NAMED_UNIT ( * ) SI_UNIT ( $, .STERADIAN. ) SOLID_ANGLE_UNIT ( ) );
#33 =( GEOMETRIC_REPRESENTATION_CONTEXT ( 3 ) GLOBAL_UNCERTAINTY_ASSIGNED_CONTEXT ( ( #279 ) ) GLOBAL_UNIT_ASSIGNED_CONTEXT ( ( #263, #300, #12 ) ) REPRESENTATION_CONTEXT ( 'NONE', 'WORKASPACE' ) );
#34 = COLOUR_RGB ( '',1.000000000000000000, 0.000000000000000000, 0.000000000000000000 ) ;
#35 = SURFACE_SIDE_STYLE ('',( #115 ) ) ;
#36 = FACE_OUTER_BOUND ( 'NONE', #358, .T. ) ;
#37 = ORIENTED_EDGE ( 'NONE', *, *, #244, .F. ) ;
#38 = SURFACE_STYLE_USAGE ( .BOTH. , #68 ) ;
#39 = CYLINDRICAL_SURFACE ( 'NONE', #24, 0.1249999999999998612 ) ;
#40 = CARTESIAN_POINT ( 'NONE',  ( 0.000000000000000000, 0.5000000000000000000, 0.000000000000000000 ) ) ;
#41 = CARTESIAN_POINT ( 'NONE',  ( -6.123233995736766036E-17, 2.500000000000000000, 0.000000000000000000 ) ) ;
#42 = AXIS2_PLACEMENT_3D ( 'NONE', #354, #95, #297 ) ;
#43 = ORIENTED_EDGE ( 'NONE', *, *, #47, .T. ) ;
#44 =( LENGTH_UNIT ( ) NAMED_UNIT ( * ) SI_UNIT ( $, .METRE. ) );
#45 = DIRECTION ( 'NONE',  ( -1.224646799147352961E-16, 1.000000000000000000, -0.000000000000000000 ) ) ;
#46 = ORIENTED_EDGE ( 'NONE', *, *, #202, .T. ) ;
#47 = EDGE_CURVE ( 'NONE', #259, #372, #125, .T. ) ;
#48 = DIRECTION ( 'NONE',  ( 0.000000000000000000, -0.000000000000000000, 1.000000000000000000 ) ) ;
#49 = PRESENTATION_LAYER_ASSIGNMENT (  '', '', ( #365 ) ) ;
#50 = VECTOR ( 'NONE', #142, 39.37007874015748143 ) ;
#51 = CARTESIAN_POINT ( 'NONE',  ( -7.654042494670957545E-18, 0.000000000000000000, 0.000000000000000000 ) ) ;
#52 = AXIS2_PLACEMENT_3D ( 'NONE', #71, #181, #232 ) ;
#53 = AXIS2_PLACEMENT_3D ( 'NONE', #40, #70, #77 ) ;
#54 = VERTEX_POINT ( 'NONE', #326 ) ;
#55 = ORIENTED_EDGE ( 'NONE', *, *, #89, .T. ) ;
#56 =( GEOMETRIC_REPRESENTATION_CONTEXT ( 3 ) GLOBAL_UNCERTAINTY_ASSIGNED_CONTEXT ( ( #140 ) ) GLOBAL_UNIT_ASSIGNED_CONTEXT ( ( #364, #23, #219 ) ) REPRESENTATION_CONTEXT ( 'NONE', 'WORKASPACE' ) );
#57 = CARTESIAN_POINT ( 'NONE',  ( -6.123233995736766036E-17, 2.500000000000000000, 0.000000000000000000 ) ) ;
#58 = EDGE_CURVE ( 'NONE', #54, #259, #250, .T. ) ;
#59 =( NAMED_UNIT ( * ) SI_UNIT ( $, .STERADIAN. ) SOLID_ANGLE_UNIT ( ) );
#60 =( LENGTH_UNIT ( ) NAMED_UNIT ( * ) SI_UNIT ( $, .METRE. ) );
#61 = CARTESIAN_POINT ( 'NONE',  ( 0.000000000000000000, 0.1250000000000000278, 0.000000000000000000 ) ) ;
#62 = STYLED_ITEM ( 'NONE', ( #226 ), #302 ) ;
#63 = MECHANICAL_DESIGN_GEOMETRIC_PRESENTATION_REPRESENTATION (  '', ( #73 ), #33 ) ;
#64 = FILL_AREA_STYLE_COLOUR ( '', #223 ) ;
#65 = DIRECTION ( 'NONE',  ( -0.000000000000000000, -1.000000000000000000, -0.000000000000000000 ) ) ;
#66 = CARTESIAN_POINT ( 'NONE',  ( -0.1250000000000000555, 2.500000000000000000, 0.000000000000000000 ) ) ;
#67 = DIMENSIONAL_EXPONENTS ( 1.000000000000000000, 0.000000000000000000, 0.000000000000000000, 0.000000000000000000, 0.000000000000000000, 0.000000000000000000, 0.000000000000000000 ) ;
#68 = SURFACE_SIDE_STYLE ('',( #209 ) ) ;
#69 = FILL_AREA_STYLE_COLOUR ( '', #353 ) ;
#70 = DIRECTION ( 'NONE',  ( -0.000000000000000000, -1.000000000000000000, -0.000000000000000000 ) ) ;
#71 = CARTESIAN_POINT ( 'NONE',  ( 0.000000000000000000, 0.5000000000000000000, 0.000000000000000000 ) ) ;
#72 = CIRCLE ( 'NONE', #53, 0.1249999999999999306 ) ;
#73 = STYLED_ITEM ( 'NONE', ( #292 ), #124 ) ;
#74 = DIRECTION ( 'NONE',  ( 1.224646799147352961E-16, -1.000000000000000000, 0.000000000000000000 ) ) ;
#75 = CARTESIAN_POINT ( 'NONE',  ( 1.836970198721029194E-16, 0.5000000000000001110, 0.000000000000000000 ) ) ;
#76 = PRODUCT_RELATED_PRODUCT_CATEGORY ( 'part', '', ( #366 ) ) ;
#77 = DIRECTION ( 'NONE',  ( 0.000000000000000000, 0.000000000000000000, -1.000000000000000000 ) ) ;
#78 = PRESENTATION_STYLE_ASSIGNMENT (( #133 ) ) ;
#79 = PRESENTATION_LAYER_ASSIGNMENT (  '', '', ( #73 ) ) ;
#80 = DIRECTION ( 'NONE',  ( 0.000000000000000000, 0.000000000000000000, -1.000000000000000000 ) ) ;
#81 = CARTESIAN_POINT ( 'NONE',  ( 0.000000000000000000, 0.000000000000000000, -0.1249999999999999584 ) ) ;
#82 = PRODUCT_DEFINITION_CONTEXT ( 'detailed design', #336, 'design' ) ;
#83 = CARTESIAN_POINT ( 'NONE',  ( 1.836970198721029194E-16, 0.5000000000000001110, 0.000000000000000000 ) ) ;
#84 = CARTESIAN_POINT ( 'NONE',  ( -1.530808498934191509E-17, 0.1250000000000000000, 0.000000000000000000 ) ) ;
#85 = FACE_OUTER_BOUND ( 'NONE', #91, .T. ) ;
#86 = AXIS2_PLACEMENT_3D ( 'NONE', #334, #128, #355 ) ;
#87 = FILL_AREA_STYLE_COLOUR ( '', #182 ) ;
#88 =( CONVERSION_BASED_UNIT ( 'INCH', #201 ) LENGTH_UNIT ( ) NAMED_UNIT ( #150 ) );
#89 = EDGE_CURVE ( 'NONE', #16, #249, #10, .T. ) ;
#90 =( GEOMETRIC_REPRESENTATION_CONTEXT ( 3 ) GLOBAL_UNCERTAINTY_ASSIGNED_CONTEXT ( ( #275 ) ) GLOBAL_UNIT_ASSIGNED_CONTEXT ( ( #319, #289, #287 ) ) REPRESENTATION_CONTEXT ( 'NONE', 'WORKASPACE' ) );
#91 = EDGE_LOOP ( 'NONE', ( #157, #168, #148, #1, #96 ) ) ;
#92 = ORIENTED_EDGE ( 'NONE', *, *, #253, .F. ) ;
#93 = MECHANICAL_DESIGN_GEOMETRIC_PRESENTATION_REPRESENTATION (  '', ( #62 ), #281 ) ;
#94 = COLOUR_RGB ( '',1.000000000000000000, 0.000000000000000000, 0.000000000000000000 ) ;
#95 = DIRECTION ( 'NONE',  ( -0.000000000000000000, -1.000000000000000000, -0.000000000000000000 ) ) ;
#96 = ORIENTED_EDGE ( 'NONE', *, *, #155, .F. ) ;
#97 = APPLICATION_PROTOCOL_DEFINITION ( 'draft international standard', 'automotive_design', 1998, #309 ) ;
#98 = EDGE_LOOP ( 'NONE', ( #203, #43, #270, #92 ) ) ;
#99 = CARTESIAN_POINT ( 'NONE',  ( 1.530808498934190893E-17, 0.5000000000000000000, 0.1249999999999999306 ) ) ;
#100 = SPHERICAL_SURFACE ( 'NONE', #284, 0.1250000000000000000 ) ;
#101 = VERTEX_POINT ( 'NONE', #66 ) ;
#102 = CIRCLE ( 'NONE', #216, 0.1250000000000000000 ) ;
#103 = COLOUR_RGB ( '',0.7921568627450980005, 0.8196078431372548767, 0.9333333333333333481 ) ;
#104 =( GEOMETRIC_REPRESENTATION_CONTEXT ( 3 ) GLOBAL_UNCERTAINTY_ASSIGNED_CONTEXT ( ( #22 ) ) GLOBAL_UNIT_ASSIGNED_CONTEXT ( ( #272, #118, #59 ) ) REPRESENTATION_CONTEXT ( 'NONE', 'WORKASPACE' ) );
#105 = SPHERICAL_SURFACE ( 'NONE', #280, 0.1250000000000000000 ) ;
#106 = DIRECTION ( 'NONE',  ( -1.224646799147352961E-16, 1.000000000000000000, -0.000000000000000000 ) ) ;
#107 = PRODUCT_DEFINITION_SHAPE ( 'NONE', 'NONE',  #350 ) ;
#108 = ADVANCED_FACE ( 'NONE', ( #295 ), #39, .T. ) ;
#109 = ADVANCED_FACE ( 'NONE', ( #122 ), #210, .T. ) ;
#110 = CARTESIAN_POINT ( 'NONE',  ( -0.1249999999999999306, 2.500000000000000000, 0.000000000000000000 ) ) ;
#111 = EDGE_CURVE ( 'NONE', #372, #101, #215, .T. ) ;
#112 =( NAMED_UNIT ( * ) PLANE_ANGLE_UNIT ( ) SI_UNIT ( $, .RADIAN. ) );
#113 =( NAMED_UNIT ( * ) PLANE_ANGLE_UNIT ( ) SI_UNIT ( $, .RADIAN. ) );
#114 = ORIENTED_EDGE ( 'NONE', *, *, #244, .T. ) ;
#115 = SURFACE_STYLE_FILL_AREA ( #224 ) ;
#116 = AXIS2_PLACEMENT_3D ( 'NONE', #248, #285, #4 ) ;
#117 = AXIS2_PLACEMENT_3D ( 'NONE', #57, #2, #286 ) ;
#118 =( NAMED_UNIT ( * ) PLANE_ANGLE_UNIT ( ) SI_UNIT ( $, .RADIAN. ) );
#119 = DIRECTION ( 'NONE',  ( 1.000000000000000000, 1.224646799147352961E-16, 0.000000000000000000 ) ) ;
#120 = FILL_AREA_STYLE ('',( #256 ) ) ;
#121 = CARTESIAN_POINT ( 'NONE',  ( 0.000000000000000000, 0.1250000000000000278, -0.1250000000000000000 ) ) ;
#122 = FACE_OUTER_BOUND ( 'NONE', #13, .T. ) ;
#123 = VERTEX_POINT ( 'NONE', #176 ) ;
#124 = ADVANCED_FACE ( 'NONE', ( #258 ), #100, .T. ) ;
#125 = LINE ( 'NONE', #239, #233 ) ;
#126 =( NAMED_UNIT ( * ) SI_UNIT ( $, .STERADIAN. ) SOLID_ANGLE_UNIT ( ) );
#127 = LINE ( 'NONE', #81, #323 ) ;
#128 = DIRECTION ( 'NONE',  ( -1.224646799147352961E-16, 1.000000000000000000, 0.000000000000000000 ) ) ;
#129 = CIRCLE ( 'NONE', #213, 0.1250000000000000000 ) ;
#130 = AXIS2_PLACEMENT_3D ( 'NONE', #61, #304, #174 ) ;
#131 = ADVANCED_FACE ( 'NONE', ( #325 ), #360, .F. ) ;
#132 = EDGE_CURVE ( 'NONE', #249, #11, #188, .T. ) ;
#133 = SURFACE_STYLE_USAGE ( .BOTH. , #335 ) ;
#134 = DIRECTION ( 'NONE',  ( -1.224646799147352961E-16, 1.000000000000000000, -0.000000000000000000 ) ) ;
#135 = CARTESIAN_POINT ( 'NONE',  ( -6.123233995736766036E-17, 2.500000000000000000, 0.000000000000000000 ) ) ;
#136 = SURFACE_STYLE_FILL_AREA ( #367 ) ;
#137 = DIRECTION ( 'NONE',  ( -1.224646799147352961E-16, 1.000000000000000000, -0.000000000000000000 ) ) ;
#138 = STYLED_ITEM ( 'NONE', ( #161 ), #180 ) ;
#139 = CARTESIAN_POINT ( 'NONE',  ( -1.530808498934191509E-17, 0.1250000000000000000, 0.000000000000000000 ) ) ;
#140 = UNCERTAINTY_MEASURE_WITH_UNIT (LENGTH_MEASURE( 1.000000000000000082E-05 ), #364, 'distance_accuracy_value', 'NONE');
#141 = ADVANCED_FACE ( 'NONE', ( #36 ), #105, .T. ) ;
#142 = DIRECTION ( 'NONE',  ( -0.000000000000000000, -1.000000000000000000, -0.000000000000000000 ) ) ;
#143 = VERTEX_POINT ( 'NONE', #147 ) ;
#144 = AXIS2_PLACEMENT_3D ( 'NONE', #152, #45, #206 ) ;
#145 = CARTESIAN_POINT ( 'NONE',  ( 0.000000000000000000, 0.1250000000000000278, 0.000000000000000000 ) ) ;
#146 = SURFACE_SIDE_STYLE ('',( #196 ) ) ;
#147 = CARTESIAN_POINT ( 'NONE',  ( -0.1250000000000000000, 0.1250000000000000278, 1.530808498934191201E-17 ) ) ;
#148 = ORIENTED_EDGE ( 'NONE', *, *, #132, .F. ) ;
#149 = DIRECTION ( 'NONE',  ( -1.224646799147352961E-16, 1.000000000000000000, -0.000000000000000000 ) ) ;
#150 = DIMENSIONAL_EXPONENTS ( 1.000000000000000000, 0.000000000000000000, 0.000000000000000000, 0.000000000000000000, 0.000000000000000000, 0.000000000000000000, 0.000000000000000000 ) ;
#151 = ADVANCED_FACE ( 'NONE', ( #156 ), #274, .T. ) ;
#152 = CARTESIAN_POINT ( 'NONE',  ( -6.123233995736766036E-17, 2.500000000000000000, 0.000000000000000000 ) ) ;
#153 = ORIENTED_EDGE ( 'NONE', *, *, #155, .T. ) ;
#154 = EDGE_LOOP ( 'NONE', ( #183, #252, #55, #361 ) ) ;
#155 = EDGE_CURVE ( 'NONE', #123, #16, #127, .T. ) ;
#156 = FACE_OUTER_BOUND ( 'NONE', #98, .T. ) ;
#157 = ORIENTED_EDGE ( 'NONE', *, *, #14, .T. ) ;
#158 = UNCERTAINTY_MEASURE_WITH_UNIT (LENGTH_MEASURE( 1.000000000000000082E-05 ), #322, 'distance_accuracy_value', 'NONE');
#159 = SURFACE_STYLE_FILL_AREA ( #192 ) ;
#160 = DIRECTION ( 'NONE',  ( 1.000000000000000000, 0.000000000000000000, 0.000000000000000000 ) ) ;
#161 = PRESENTATION_STYLE_ASSIGNMENT (( #242 ) ) ;
#162 = FILL_AREA_STYLE_COLOUR ( '', #34 ) ;
#163 = LENGTH_MEASURE_WITH_UNIT ( LENGTH_MEASURE( 0.02539999999999999897 ), #278 );
#164 = PRESENTATION_LAYER_ASSIGNMENT (  '', '', ( #62 ) ) ;
#165 = MECHANICAL_DESIGN_GEOMETRIC_PRESENTATION_REPRESENTATION (  '', ( #346 ), #373 ) ;
#166 = DIRECTION ( 'NONE',  ( 0.000000000000000000, 0.000000000000000000, -1.000000000000000000 ) ) ;
#167 =( LENGTH_UNIT ( ) NAMED_UNIT ( * ) SI_UNIT ( $, .METRE. ) );
#168 = ORIENTED_EDGE ( 'NONE', *, *, #171, .T. ) ;
#169 = DIMENSIONAL_EXPONENTS ( 1.000000000000000000, 0.000000000000000000, 0.000000000000000000, 0.000000000000000000, 0.000000000000000000, 0.000000000000000000, 0.000000000000000000 ) ;
#170 = PRESENTATION_LAYER_ASSIGNMENT (  '', '', ( #138 ) ) ;
#171 = EDGE_CURVE ( 'NONE', #328, #11, #190, .T. ) ;
#172 = AXIS2_PLACEMENT_3D ( 'NONE', #296, #331, #261 ) ;
#173 = DIRECTION ( 'NONE',  ( 0.000000000000000000, 0.000000000000000000, 1.000000000000000000 ) ) ;
#174 = DIRECTION ( 'NONE',  ( 0.000000000000000000, 0.000000000000000000, -1.000000000000000000 ) ) ;
#175 = FILL_AREA_STYLE ('',( #64 ) ) ;
#176 = CARTESIAN_POINT ( 'NONE',  ( 0.000000000000000000, 0.5000000000000000000, -0.1249999999999999306 ) ) ;
#177 = EDGE_LOOP ( 'NONE', ( #344, #352 ) ) ;
#178 = DIMENSIONAL_EXPONENTS ( 1.000000000000000000, 0.000000000000000000, 0.000000000000000000, 0.000000000000000000, 0.000000000000000000, 0.000000000000000000, 0.000000000000000000 ) ;
#179 = ORIENTED_EDGE ( 'NONE', *, *, #111, .F. ) ;
#180 = MANIFOLD_SOLID_BREP ( 'Revolve - Cutting Edge', #299 ) ;
#181 = DIRECTION ( 'NONE',  ( -0.000000000000000000, -1.000000000000000000, -0.000000000000000000 ) ) ;
#182 = COLOUR_RGB ( '',0.7921568627450980005, 0.8196078431372548767, 0.9333333333333333481 ) ;
#183 = ORIENTED_EDGE ( 'NONE', *, *, #184, .F. ) ;
#184 = EDGE_CURVE ( 'NONE', #143, #268, #348, .T. ) ;
#185 = FACE_OUTER_BOUND ( 'NONE', #177, .T. ) ;
#186 = SHAPE_DEFINITION_REPRESENTATION ( #107, #247 ) ;
#187 = MANIFOLD_SOLID_BREP ( 'Revolve - Tool Body (Straight Shanked)', #245 ) ;
#188 = CIRCLE ( 'NONE', #265, 0.1250000000000000000 ) ;
#189 = DIRECTION ( 'NONE',  ( 0.000000000000000000, 0.000000000000000000, -1.000000000000000000 ) ) ;
#190 = LINE ( 'NONE', #194, #50 ) ;
#191 = EDGE_CURVE ( 'NONE', #101, #372, #208, .T. ) ;
#192 = FILL_AREA_STYLE ('',( #221 ) ) ;
#193 = SURFACE_STYLE_USAGE ( .BOTH. , #351 ) ;
#194 = CARTESIAN_POINT ( 'NONE',  ( 1.530808498934191201E-17, 0.000000000000000000, 0.1249999999999999584 ) ) ;
#195 = AXIS2_PLACEMENT_3D ( 'NONE', #234, #271, #356 ) ;
#196 = SURFACE_STYLE_FILL_AREA ( #277 ) ;
#197 =( LENGTH_UNIT ( ) NAMED_UNIT ( * ) SI_UNIT ( $, .METRE. ) );
#198 = ORIENTED_EDGE ( 'NONE', *, *, #132, .T. ) ;
#199 = PRESENTATION_STYLE_ASSIGNMENT (( #342 ) ) ;
#200 = MECHANICAL_DESIGN_GEOMETRIC_PRESENTATION_REPRESENTATION (  '', ( #241 ), #56 ) ;
#201 = LENGTH_MEASURE_WITH_UNIT ( LENGTH_MEASURE( 0.02539999999999999897 ), #167 );
#202 = EDGE_CURVE ( 'NONE', #11, #143, #288, .T. ) ;
#203 = ORIENTED_EDGE ( 'NONE', *, *, #58, .T. ) ;
#204 = SURFACE_STYLE_USAGE ( .BOTH. , #146 ) ;
#205 =( NAMED_UNIT ( * ) PLANE_ANGLE_UNIT ( ) SI_UNIT ( $, .RADIAN. ) );
#206 = DIRECTION ( 'NONE',  ( -1.000000000000000000, 0.000000000000000000, 0.000000000000000000 ) ) ;
#207 = PLANE ( 'NONE',  #86 ) ;
#208 = CIRCLE ( 'NONE', #117, 0.1250000000000000000 ) ;
#209 = SURFACE_STYLE_FILL_AREA ( #357 ) ;
#210 = CYLINDRICAL_SURFACE ( 'NONE', #42, 0.1249999999999999584 ) ;
#211 = PRODUCT_CONTEXT ( 'NONE', #309, 'mechanical' ) ;
#212 = ORIENTED_EDGE ( 'NONE', *, *, #191, .T. ) ;
#213 = AXIS2_PLACEMENT_3D ( 'NONE', #139, #189, #371 ) ;
#214 = FACE_OUTER_BOUND ( 'NONE', #231, .T. ) ;
#215 = CIRCLE ( 'NONE', #144, 0.1250000000000000000 ) ;
#216 = AXIS2_PLACEMENT_3D ( 'NONE', #222, #282, #166 ) ;
#217 = DIRECTION ( 'NONE',  ( -1.000000000000000000, 0.000000000000000000, 0.000000000000000000 ) ) ;
#218 = LENGTH_MEASURE_WITH_UNIT ( LENGTH_MEASURE( 0.02539999999999999897 ), #368 );
#219 =( NAMED_UNIT ( * ) SI_UNIT ( $, .STERADIAN. ) SOLID_ANGLE_UNIT ( ) );
#220 = UNCERTAINTY_MEASURE_WITH_UNIT (LENGTH_MEASURE( 1.000000000000000082E-05 ), #359, 'distance_accuracy_value', 'NONE');
#221 = FILL_AREA_STYLE_COLOUR ( '', #103 ) ;
#222 = CARTESIAN_POINT ( 'NONE',  ( 0.000000000000000000, 0.1250000000000000278, 0.000000000000000000 ) ) ;
#223 = COLOUR_RGB ( '',1.000000000000000000, 0.000000000000000000, 0.000000000000000000 ) ;
#224 = FILL_AREA_STYLE ('',( #87 ) ) ;
#225 = EDGE_LOOP ( 'NONE', ( #212, #6 ) ) ;
#226 = PRESENTATION_STYLE_ASSIGNMENT (( #204 ) ) ;
#227 = AXIS2_PLACEMENT_3D ( 'NONE', #83, #134, #273 ) ;
#228 = CARTESIAN_POINT ( 'NONE',  ( 0.000000000000000000, 0.1250000000000000278, 0.000000000000000000 ) ) ;
#229 = DIRECTION ( 'NONE',  ( 0.000000000000000000, 1.000000000000000000, 0.000000000000000000 ) ) ;
#230 = SURFACE_STYLE_FILL_AREA ( #120 ) ;
#231 = EDGE_LOOP ( 'NONE', ( #329, #37 ) ) ;
#232 = DIRECTION ( 'NONE',  ( 0.000000000000000000, 0.000000000000000000, -1.000000000000000000 ) ) ;
#233 = VECTOR ( 'NONE', #106, 39.37007874015748143 ) ;
#234 = CARTESIAN_POINT ( 'NONE',  ( 0.000000000000000000, 0.000000000000000000, 0.000000000000000000 ) ) ;
#235 = LENGTH_MEASURE_WITH_UNIT ( LENGTH_MEASURE( 0.02539999999999999897 ), #44 );
#236 = DIRECTION ( 'NONE',  ( 1.000000000000000000, 0.000000000000000000, 0.000000000000000000 ) ) ;
#237 = ORIENTED_EDGE ( 'NONE', *, *, #202, .F. ) ;
#238 = LENGTH_MEASURE_WITH_UNIT ( LENGTH_MEASURE( 0.02539999999999999897 ), #343 );
#239 = CARTESIAN_POINT ( 'NONE',  ( 0.1249999999999997918, 2.500000000000000000, 1.530808498934189660E-17 ) ) ;
#240 = ORIENTED_EDGE ( 'NONE', *, *, #316, .T. ) ;
#241 = STYLED_ITEM ( 'NONE', ( #269 ), #141 ) ;
#242 = SURFACE_STYLE_USAGE ( .BOTH. , #370 ) ;
#243 = LINE ( 'NONE', #110, #340 ) ;
#244 = EDGE_CURVE ( 'NONE', #259, #54, #28, .T. ) ;
#245 = CLOSED_SHELL ( 'NONE', ( #151, #26, #108, #131 ) ) ;
#246 = COLOUR_RGB ( '',1.000000000000000000, 0.000000000000000000, 0.000000000000000000 ) ;
#247 = ADVANCED_BREP_SHAPE_REPRESENTATION ( '17157', ( #180, #187, #195 ), #330 ) ;
#248 = CARTESIAN_POINT ( 'NONE',  ( -1.530808498934191509E-17, 0.1250000000000000000, 0.000000000000000000 ) ) ;
#249 = VERTEX_POINT ( 'NONE', #20 ) ;
#250 = CIRCLE ( 'NONE', #339, 0.1249999999999997641 ) ;
#251 = EDGE_CURVE ( 'NONE', #249, #268, #129, .T. ) ;
#252 = ORIENTED_EDGE ( 'NONE', *, *, #262, .T. ) ;
#253 = EDGE_CURVE ( 'NONE', #54, #101, #243, .T. ) ;
#254 = AXIS2_PLACEMENT_3D ( 'NONE', #135, #15, #338 ) ;
#255 = CARTESIAN_POINT ( 'NONE',  ( -1.530808498934191509E-17, 0.1250000000000000000, 0.000000000000000000 ) ) ;
#256 = FILL_AREA_STYLE_COLOUR ( '', #94 ) ;
#257 = EDGE_LOOP ( 'NONE', ( #317, #114, #301, #179 ) ) ;
#258 = FACE_OUTER_BOUND ( 'NONE', #154, .T. ) ;
#259 = VERTEX_POINT ( 'NONE', #310 ) ;
#260 = DIMENSIONAL_EXPONENTS ( 1.000000000000000000, 0.000000000000000000, 0.000000000000000000, 0.000000000000000000, 0.000000000000000000, 0.000000000000000000, 0.000000000000000000 ) ;
#261 = DIRECTION ( 'NONE',  ( 0.000000000000000000, 0.000000000000000000, -1.000000000000000000 ) ) ;
#262 = EDGE_CURVE ( 'NONE', #143, #16, #102, .T. ) ;
#263 =( CONVERSION_BASED_UNIT ( 'INCH', #8 ) LENGTH_UNIT ( ) NAMED_UNIT ( #324 ) );
#264 = ORIENTED_EDGE ( 'NONE', *, *, #251, .F. ) ;
#265 = AXIS2_PLACEMENT_3D ( 'NONE', #228, #65, #321 ) ;
#266 = APPLICATION_PROTOCOL_DEFINITION ( 'draft international standard', 'automotive_design', 1998, #336 ) ;
#267 = CARTESIAN_POINT ( 'NONE',  ( 0.1249999999999999167, 2.500000000000000000, 1.530808498934190585E-17 ) ) ;
#268 = VERTEX_POINT ( 'NONE', #51 ) ;
#269 = PRESENTATION_STYLE_ASSIGNMENT (( #193 ) ) ;
#270 = ORIENTED_EDGE ( 'NONE', *, *, #191, .F. ) ;
#271 = DIRECTION ( 'NONE',  ( 0.000000000000000000, 0.000000000000000000, 1.000000000000000000 ) ) ;
#272 =( CONVERSION_BASED_UNIT ( 'INCH', #218 ) LENGTH_UNIT ( ) NAMED_UNIT ( #67 ) );
#273 = DIRECTION ( 'NONE',  ( -1.000000000000000000, 0.000000000000000000, 0.000000000000000000 ) ) ;
#274 = CYLINDRICAL_SURFACE ( 'NONE', #254, 0.1249999999999998612 ) ;
#275 = UNCERTAINTY_MEASURE_WITH_UNIT (LENGTH_MEASURE( 1.000000000000000082E-05 ), #319, 'distance_accuracy_value', 'NONE');
#276 = LENGTH_MEASURE_WITH_UNIT ( LENGTH_MEASURE( 0.02539999999999999897 ), #337 );
#277 = FILL_AREA_STYLE ('',( #162 ) ) ;
#278 =( LENGTH_UNIT ( ) NAMED_UNIT ( * ) SI_UNIT ( $, .METRE. ) );
#279 = UNCERTAINTY_MEASURE_WITH_UNIT (LENGTH_MEASURE( 1.000000000000000082E-05 ), #263, 'distance_accuracy_value', 'NONE');
#280 = AXIS2_PLACEMENT_3D ( 'NONE', #84, #311, #160 ) ;
#281 =( GEOMETRIC_REPRESENTATION_CONTEXT ( 3 ) GLOBAL_UNCERTAINTY_ASSIGNED_CONTEXT ( ( #158 ) ) GLOBAL_UNIT_ASSIGNED_CONTEXT ( ( #322, #362, #126 ) ) REPRESENTATION_CONTEXT ( 'NONE', 'WORKASPACE' ) );
#282 = DIRECTION ( 'NONE',  ( -0.000000000000000000, -1.000000000000000000, -0.000000000000000000 ) ) ;
#283 = ORIENTED_EDGE ( 'NONE', *, *, #262, .F. ) ;
#284 = AXIS2_PLACEMENT_3D ( 'NONE', #255, #173, #236 ) ;
#285 = DIRECTION ( 'NONE',  ( 1.224646799147353207E-16, -0.000000000000000000, 1.000000000000000000 ) ) ;
#286 = DIRECTION ( 'NONE',  ( -1.000000000000000000, 0.000000000000000000, 0.000000000000000000 ) ) ;
#287 =( NAMED_UNIT ( * ) SI_UNIT ( $, .STERADIAN. ) SOLID_ANGLE_UNIT ( ) );
#288 = CIRCLE ( 'NONE', #3, 0.1250000000000000000 ) ;
#289 =( NAMED_UNIT ( * ) PLANE_ANGLE_UNIT ( ) SI_UNIT ( $, .RADIAN. ) );
#290 = PRESENTATION_LAYER_ASSIGNMENT (  '', '', ( #241 ) ) ;
#291 = AXIS2_PLACEMENT_3D ( 'NONE', #320, #229, #48 ) ;
#292 = PRESENTATION_STYLE_ASSIGNMENT (( #38 ) ) ;
#293 = CARTESIAN_POINT ( 'NONE',  ( 1.530808498934191509E-17, 0.1250000000000000278, 0.1250000000000000000 ) ) ;
#294 = DIMENSIONAL_EXPONENTS ( 1.000000000000000000, 0.000000000000000000, 0.000000000000000000, 0.000000000000000000, 0.000000000000000000, 0.000000000000000000, 0.000000000000000000 ) ;
#295 = FACE_OUTER_BOUND ( 'NONE', #257, .T. ) ;
#296 = CARTESIAN_POINT ( 'NONE',  ( 0.000000000000000000, 0.000000000000000000, 0.000000000000000000 ) ) ;
#297 = DIRECTION ( 'NONE',  ( 0.000000000000000000, 0.000000000000000000, -1.000000000000000000 ) ) ;
#298 = DIRECTION ( 'NONE',  ( -1.224646799147352961E-16, 1.000000000000000000, -0.000000000000000000 ) ) ;
#299 = CLOSED_SHELL ( 'NONE', ( #141, #302, #347, #109, #124 ) ) ;
#300 =( NAMED_UNIT ( * ) PLANE_ANGLE_UNIT ( ) SI_UNIT ( $, .RADIAN. ) );
#301 = ORIENTED_EDGE ( 'NONE', *, *, #253, .T. ) ;
#302 = ADVANCED_FACE ( 'NONE', ( #85 ), #27, .T. ) ;
#303 =( GEOMETRIC_REPRESENTATION_CONTEXT ( 3 ) GLOBAL_UNCERTAINTY_ASSIGNED_CONTEXT ( ( #312 ) ) GLOBAL_UNIT_ASSIGNED_CONTEXT ( ( #88, #113, #32 ) ) REPRESENTATION_CONTEXT ( 'NONE', 'WORKASPACE' ) );
#304 = DIRECTION ( 'NONE',  ( -0.000000000000000000, -1.000000000000000000, -0.000000000000000000 ) ) ;
#305 = PLANE ( 'NONE',  #291 ) ;
#306 = PRESENTATION_LAYER_ASSIGNMENT (  '', '', ( #346 ) ) ;
#307 = DIRECTION ( 'NONE',  ( -0.000000000000000000, -1.000000000000000000, -0.000000000000000000 ) ) ;
#308 = SURFACE_SIDE_STYLE ('',( #136 ) ) ;
#309 = APPLICATION_CONTEXT ( 'automotive_design' ) ;
#310 = CARTESIAN_POINT ( 'NONE',  ( 0.1249999999999999445, 0.5000000000000001110, 1.530808498934190893E-17 ) ) ;
#311 = DIRECTION ( 'NONE',  ( 0.000000000000000000, 0.000000000000000000, 1.000000000000000000 ) ) ;
#312 = UNCERTAINTY_MEASURE_WITH_UNIT (LENGTH_MEASURE( 1.000000000000000082E-05 ), #88, 'distance_accuracy_value', 'NONE');
#313 = PRODUCT_DEFINITION_FORMATION_WITH_SPECIFIED_SOURCE ( 'ANY', '', #366, .NOT_KNOWN. ) ;
#314 =( NAMED_UNIT ( * ) SI_UNIT ( $, .STERADIAN. ) SOLID_ANGLE_UNIT ( ) );
#315 = PRESENTATION_STYLE_ASSIGNMENT (( #21 ) ) ;
#316 = EDGE_CURVE ( 'NONE', #328, #123, #72, .T. ) ;
#317 = ORIENTED_EDGE ( 'NONE', *, *, #47, .F. ) ;
#318 = STYLED_ITEM ( 'NONE', ( #315 ), #109 ) ;
#319 =( CONVERSION_BASED_UNIT ( 'INCH', #276 ) LENGTH_UNIT ( ) NAMED_UNIT ( #5 ) );
#320 = CARTESIAN_POINT ( 'NONE',  ( 0.000000000000000000, 0.5000000000000000000, 0.000000000000000000 ) ) ;
#321 = DIRECTION ( 'NONE',  ( 0.000000000000000000, 0.000000000000000000, -1.000000000000000000 ) ) ;
#322 =( CONVERSION_BASED_UNIT ( 'INCH', #238 ) LENGTH_UNIT ( ) NAMED_UNIT ( #260 ) );
#323 = VECTOR ( 'NONE', #307, 39.37007874015748143 ) ;
#324 = DIMENSIONAL_EXPONENTS ( 1.000000000000000000, 0.000000000000000000, 0.000000000000000000, 0.000000000000000000, 0.000000000000000000, 0.000000000000000000, 0.000000000000000000 ) ;
#325 = FACE_OUTER_BOUND ( 'NONE', #225, .T. ) ;
#326 = CARTESIAN_POINT ( 'NONE',  ( -0.1249999999999995698, 0.5000000000000001110, 0.000000000000000000 ) ) ;
#327 = FILL_AREA_STYLE_COLOUR ( '', #246 ) ;
#328 = VERTEX_POINT ( 'NONE', #99 ) ;
#329 = ORIENTED_EDGE ( 'NONE', *, *, #58, .F. ) ;
#330 =( GEOMETRIC_REPRESENTATION_CONTEXT ( 3 ) GLOBAL_UNCERTAINTY_ASSIGNED_CONTEXT ( ( #220 ) ) GLOBAL_UNIT_ASSIGNED_CONTEXT ( ( #359, #205, #7 ) ) REPRESENTATION_CONTEXT ( 'NONE', 'WORKASPACE' ) );
#331 = DIRECTION ( 'NONE',  ( -0.000000000000000000, -1.000000000000000000, -0.000000000000000000 ) ) ;
#332 = CIRCLE ( 'NONE', #52, 0.1249999999999999306 ) ;
#333 = CARTESIAN_POINT ( 'NONE',  ( 0.1249999999999999306, 2.500000000000000000, 0.000000000000000000 ) ) ;
#334 = CARTESIAN_POINT ( 'NONE',  ( 1.836970198721029441E-16, 0.5000000000000000000, 0.000000000000000000 ) ) ;
#335 = SURFACE_SIDE_STYLE ('',( #19 ) ) ;
#336 = APPLICATION_CONTEXT ( 'automotive_design' ) ;
#337 =( LENGTH_UNIT ( ) NAMED_UNIT ( * ) SI_UNIT ( $, .METRE. ) );
#338 = DIRECTION ( 'NONE',  ( -1.000000000000000000, 0.000000000000000000, 0.000000000000000000 ) ) ;
#339 = AXIS2_PLACEMENT_3D ( 'NONE', #75, #298, #217 ) ;
#340 = VECTOR ( 'NONE', #137, 39.37007874015748143 ) ;
#341 = MECHANICAL_DESIGN_GEOMETRIC_PRESENTATION_REPRESENTATION (  '', ( #318 ), #303 ) ;
#342 = SURFACE_STYLE_USAGE ( .BOTH. , #35 ) ;
#343 =( LENGTH_UNIT ( ) NAMED_UNIT ( * ) SI_UNIT ( $, .METRE. ) );
#344 = ORIENTED_EDGE ( 'NONE', *, *, #14, .F. ) ;
#345 = LENGTH_MEASURE_WITH_UNIT ( LENGTH_MEASURE( 0.02539999999999999897 ), #197 );
#346 = STYLED_ITEM ( 'NONE', ( #199 ), #187 ) ;
#347 = ADVANCED_FACE ( 'NONE', ( #185 ), #305, .T. ) ;
#348 = CIRCLE ( 'NONE', #116, 0.1250000000000000000 ) ;
#349 =( CONVERSION_BASED_UNIT ( 'INCH', #345 ) LENGTH_UNIT ( ) NAMED_UNIT ( #169 ) );
#350 = PRODUCT_DEFINITION ( 'UNKNOWN', '', #313, #82 ) ;
#351 = SURFACE_SIDE_STYLE ('',( #230 ) ) ;
#352 = ORIENTED_EDGE ( 'NONE', *, *, #316, .F. ) ;
#353 = COLOUR_RGB ( '',1.000000000000000000, 0.000000000000000000, 0.000000000000000000 ) ;
#354 = CARTESIAN_POINT ( 'NONE',  ( 0.000000000000000000, 0.000000000000000000, 0.000000000000000000 ) ) ;
#355 = DIRECTION ( 'NONE',  ( -1.000000000000000000, -1.224646799147352961E-16, 0.000000000000000000 ) ) ;
#356 = DIRECTION ( 'NONE',  ( 1.000000000000000000, 0.000000000000000000, 0.000000000000000000 ) ) ;
#357 = FILL_AREA_STYLE ('',( #327 ) ) ;
#358 = EDGE_LOOP ( 'NONE', ( #46, #31, #264, #198 ) ) ;
#359 =( CONVERSION_BASED_UNIT ( 'INCH', #235 ) LENGTH_UNIT ( ) NAMED_UNIT ( #294 ) );
#360 = PLANE ( 'NONE',  #18 ) ;
#361 = ORIENTED_EDGE ( 'NONE', *, *, #251, .T. ) ;
#362 =( NAMED_UNIT ( * ) PLANE_ANGLE_UNIT ( ) SI_UNIT ( $, .RADIAN. ) );
#363 = PRESENTATION_LAYER_ASSIGNMENT (  '', '', ( #318 ) ) ;
#364 =( CONVERSION_BASED_UNIT ( 'INCH', #163 ) LENGTH_UNIT ( ) NAMED_UNIT ( #178 ) );
#365 = STYLED_ITEM ( 'NONE', ( #78 ), #347 ) ;
#366 = PRODUCT ( '17157', '17157', '', ( #211 ) ) ;
#367 = FILL_AREA_STYLE ('',( #69 ) ) ;
#368 =( LENGTH_UNIT ( ) NAMED_UNIT ( * ) SI_UNIT ( $, .METRE. ) );
#369 = UNCERTAINTY_MEASURE_WITH_UNIT (LENGTH_MEASURE( 1.000000000000000082E-05 ), #349, 'distance_accuracy_value', 'NONE');
#370 = SURFACE_SIDE_STYLE ('',( #159 ) ) ;
#371 = DIRECTION ( 'NONE',  ( -1.000000000000000000, 0.000000000000000000, 0.000000000000000000 ) ) ;
#372 = VERTEX_POINT ( 'NONE', #267 ) ;
#373 =( GEOMETRIC_REPRESENTATION_CONTEXT ( 3 ) GLOBAL_UNCERTAINTY_ASSIGNED_CONTEXT ( ( #369 ) ) GLOBAL_UNIT_ASSIGNED_CONTEXT ( ( #349, #112, #314 ) ) REPRESENTATION_CONTEXT ( 'NONE', 'WORKASPACE' ) );
ENDSEC;
END-ISO-10303-21;
