ISO-10303-21;
HEADER;
FILE_DESCRIPTION (( 'STEP AP214' ),
    '1' );
FILE_NAME ('82524.STEP',
    '2023-06-23T06:06:31',
    ( '' ),
    ( '' ),
    'SwSTEP 2.0',
    'SolidWorks 2023',
    '' );
FILE_SCHEMA (( 'AUTOMOTIVE_DESIGN' ));
ENDSEC;

DATA;
#1 = DIRECTION ( 'NONE',  ( -1.000000000000000000, 0.000000000000000000, 0.000000000000000000 ) ) ;
#2 = PRESENTATION_LAYER_ASSIGNMENT (  '', '', ( #216 ) ) ;
#3 =( GEOMETRIC_REPRESENTATION_CONTEXT ( 3 ) GLOBAL_UNCERTAINTY_ASSIGNED_CONTEXT ( ( #127 ) ) GLOBAL_UNIT_ASSIGNED_CONTEXT ( ( #160, #64, #132 ) ) REPRESENTATION_CONTEXT ( 'NONE', 'WORKASPACE' ) );
#4 = DIRECTION ( 'NONE',  ( -1.000000000000000000, 0.000000000000000000, 0.000000000000000000 ) ) ;
#5 = VECTOR ( 'NONE', #273, 39.37007874015748143 ) ;
#6 = PRESENTATION_LAYER_ASSIGNMENT (  '', '', ( #300 ) ) ;
#7 = SURFACE_STYLE_USAGE ( .BOTH. , #231 ) ;
#8 =( LENGTH_UNIT ( ) NAMED_UNIT ( * ) SI_UNIT ( $, .METRE. ) );
#9 = ADVANCED_FACE ( 'NONE', ( #187 ), #276, .T. ) ;
#10 = EDGE_CURVE ( 'NONE', #234, #269, #67, .T. ) ;
#11 =( LENGTH_UNIT ( ) NAMED_UNIT ( * ) SI_UNIT ( $, .METRE. ) );
#12 =( LENGTH_UNIT ( ) NAMED_UNIT ( * ) SI_UNIT ( $, .METRE. ) );
#13 = ADVANCED_FACE ( 'NONE', ( #196 ), #162, .T. ) ;
#14 = PRESENTATION_STYLE_ASSIGNMENT (( #126 ) ) ;
#15 = ORIENTED_EDGE ( 'NONE', *, *, #74, .F. ) ;
#16 = DIRECTION ( 'NONE',  ( -0.000000000000000000, -1.000000000000000000, -0.000000000000000000 ) ) ;
#17 = ORIENTED_EDGE ( 'NONE', *, *, #22, .F. ) ;
#18 = FILL_AREA_STYLE ('',( #21 ) ) ;
#19 = SURFACE_STYLE_FILL_AREA ( #65 ) ;
#20 = AXIS2_PLACEMENT_3D ( 'NONE', #283, #297, #200 ) ;
#21 = FILL_AREA_STYLE_COLOUR ( '', #95 ) ;
#22 = EDGE_CURVE ( 'NONE', #234, #140, #258, .T. ) ;
#23 =( NAMED_UNIT ( * ) PLANE_ANGLE_UNIT ( ) SI_UNIT ( $, .RADIAN. ) );
#24 = DIRECTION ( 'NONE',  ( -1.000000000000000000, -8.906522175617116587E-17, 0.000000000000000000 ) ) ;
#25 = DIRECTION ( 'NONE',  ( 0.000000000000000000, 1.000000000000000000, 0.000000000000000000 ) ) ;
#26 = CLOSED_SHELL ( 'NONE', ( #166, #9, #13, #53 ) ) ;
#27 = STYLED_ITEM ( 'NONE', ( #197 ), #13 ) ;
#28 = STYLED_ITEM ( 'NONE', ( #255 ), #241 ) ;
#29 = DIRECTION ( 'NONE',  ( -8.906522175617116587E-17, 1.000000000000000000, -0.000000000000000000 ) ) ;
#30 = PRODUCT_RELATED_PRODUCT_CATEGORY ( 'part', '', ( #218 ) ) ;
#31 = DIRECTION ( 'NONE',  ( -8.906522175617116587E-17, 1.000000000000000000, -0.000000000000000000 ) ) ;
#32 =( NAMED_UNIT ( * ) SI_UNIT ( $, .STERADIAN. ) SOLID_ANGLE_UNIT ( ) );
#33 = UNCERTAINTY_MEASURE_WITH_UNIT (LENGTH_MEASURE( 1.000000000000000082E-05 ), #229, 'distance_accuracy_value', 'NONE');
#34 = FILL_AREA_STYLE ('',( #93 ) ) ;
#35 = ORIENTED_EDGE ( 'NONE', *, *, #10, .T. ) ;
#36 = AXIS2_PLACEMENT_3D ( 'NONE', #61, #25, #240 ) ;
#37 = ORIENTED_EDGE ( 'NONE', *, *, #206, .F. ) ;
#38 = SURFACE_SIDE_STYLE ('',( #262 ) ) ;
#39 = AXIS2_PLACEMENT_3D ( 'NONE', #287, #105, #40 ) ;
#40 = DIRECTION ( 'NONE',  ( 0.000000000000000000, 0.000000000000000000, -1.000000000000000000 ) ) ;
#41 = PLANE ( 'NONE',  #92 ) ;
#42 = VERTEX_POINT ( 'NONE', #186 ) ;
#43 = CARTESIAN_POINT ( 'NONE',  ( 0.000000000000000000, 3.250000000000000000, 0.000000000000000000 ) ) ;
#44 = ADVANCED_FACE ( 'NONE', ( #86 ), #111, .T. ) ;
#45 = CLOSED_SHELL ( 'NONE', ( #44, #159, #179, #230 ) ) ;
#46 = VECTOR ( 'NONE', #119, 39.37007874015748143 ) ;
#47 = ORIENTED_EDGE ( 'NONE', *, *, #123, .F. ) ;
#48 = CARTESIAN_POINT ( 'NONE',  ( -2.449293598294707400E-16, 6.000000000000000888, 0.000000000000000000 ) ) ;
#49 = COLOUR_RGB ( '',1.000000000000000000, 0.000000000000000000, 0.000000000000000000 ) ;
#50 = DIMENSIONAL_EXPONENTS ( 1.000000000000000000, 0.000000000000000000, 0.000000000000000000, 0.000000000000000000, 0.000000000000000000, 0.000000000000000000, 0.000000000000000000 ) ;
#51 =( GEOMETRIC_REPRESENTATION_CONTEXT ( 3 ) GLOBAL_UNCERTAINTY_ASSIGNED_CONTEXT ( ( #136 ) ) GLOBAL_UNIT_ASSIGNED_CONTEXT ( ( #94, #57, #198 ) ) REPRESENTATION_CONTEXT ( 'NONE', 'WORKASPACE' ) );
#52 = LINE ( 'NONE', #247, #296 ) ;
#53 = ADVANCED_FACE ( 'NONE', ( #60 ), #150, .T. ) ;
#54 = COLOUR_RGB ( '',0.7921568627450980005, 0.8196078431372548767, 0.9333333333333333481 ) ;
#55 = MECHANICAL_DESIGN_GEOMETRIC_PRESENTATION_REPRESENTATION (  '', ( #85 ), #3 ) ;
#56 = AXIS2_PLACEMENT_3D ( 'NONE', #298, #31, #70 ) ;
#57 =( NAMED_UNIT ( * ) PLANE_ANGLE_UNIT ( ) SI_UNIT ( $, .RADIAN. ) );
#58 = EDGE_CURVE ( 'NONE', #177, #42, #63, .T. ) ;
#59 = FACE_OUTER_BOUND ( 'NONE', #120, .T. ) ;
#60 = FACE_OUTER_BOUND ( 'NONE', #211, .T. ) ;
#61 = CARTESIAN_POINT ( 'NONE',  ( 0.000000000000000000, 3.250000000000000000, 0.000000000000000000 ) ) ;
#62 = MECHANICAL_DESIGN_GEOMETRIC_PRESENTATION_REPRESENTATION (  '', ( #28 ), #51 ) ;
#63 = LINE ( 'NONE', #178, #143 ) ;
#64 =( NAMED_UNIT ( * ) PLANE_ANGLE_UNIT ( ) SI_UNIT ( $, .RADIAN. ) );
#65 = FILL_AREA_STYLE ('',( #153 ) ) ;
#66 = SURFACE_SIDE_STYLE ('',( #185 ) ) ;
#67 = CIRCLE ( 'NONE', #151, 0.3125000000000000000 ) ;
#68 = AXIS2_PLACEMENT_3D ( 'NONE', #116, #163, #115 ) ;
#69 = APPLICATION_PROTOCOL_DEFINITION ( 'draft international standard', 'automotive_design', 1998, #252 ) ;
#70 = DIRECTION ( 'NONE',  ( -1.000000000000000000, 0.000000000000000000, 0.000000000000000000 ) ) ;
#71 = CIRCLE ( 'NONE', #39, 0.3125000000000000000 ) ;
#72 = FACE_OUTER_BOUND ( 'NONE', #289, .T. ) ;
#73 =( GEOMETRIC_REPRESENTATION_CONTEXT ( 3 ) GLOBAL_UNCERTAINTY_ASSIGNED_CONTEXT ( ( #221 ) ) GLOBAL_UNIT_ASSIGNED_CONTEXT ( ( #165, #222, #101 ) ) REPRESENTATION_CONTEXT ( 'NONE', 'WORKASPACE' ) );
#74 = EDGE_CURVE ( 'NONE', #42, #203, #248, .T. ) ;
#75 = FACE_OUTER_BOUND ( 'NONE', #184, .T. ) ;
#76 = SURFACE_SIDE_STYLE ('',( #141 ) ) ;
#77 = CARTESIAN_POINT ( 'NONE',  ( -0.3125000000000000000, 3.250000000000000000, 0.000000000000000000 ) ) ;
#78 =( GEOMETRIC_REPRESENTATION_CONTEXT ( 3 ) GLOBAL_UNCERTAINTY_ASSIGNED_CONTEXT ( ( #82 ) ) GLOBAL_UNIT_ASSIGNED_CONTEXT ( ( #305, #227, #202 ) ) REPRESENTATION_CONTEXT ( 'NONE', 'WORKASPACE' ) );
#79 = ORIENTED_EDGE ( 'NONE', *, *, #206, .T. ) ;
#80 = FILL_AREA_STYLE ('',( #235 ) ) ;
#81 = LENGTH_MEASURE_WITH_UNIT ( LENGTH_MEASURE( 0.02539999999999999897 ), #233 );
#82 = UNCERTAINTY_MEASURE_WITH_UNIT (LENGTH_MEASURE( 1.000000000000000082E-05 ), #305, 'distance_accuracy_value', 'NONE');
#83 = ORIENTED_EDGE ( 'NONE', *, *, #260, .F. ) ;
#84 = DIRECTION ( 'NONE',  ( -0.000000000000000000, -1.000000000000000000, -0.000000000000000000 ) ) ;
#85 = STYLED_ITEM ( 'NONE', ( #110 ), #53 ) ;
#86 = FACE_OUTER_BOUND ( 'NONE', #277, .T. ) ;
#87 = CARTESIAN_POINT ( 'NONE',  ( -2.449293598294707400E-16, 6.000000000000000888, 0.000000000000000000 ) ) ;
#88 = ORIENTED_EDGE ( 'NONE', *, *, #183, .F. ) ;
#89 = COLOUR_RGB ( '',1.000000000000000000, 0.000000000000000000, 0.000000000000000000 ) ;
#90 = CYLINDRICAL_SURFACE ( 'NONE', #245, 0.3125000000000001665 ) ;
#91 = CARTESIAN_POINT ( 'NONE',  ( 0.000000000000000000, 0.000000000000000000, -0.3125000000000000000 ) ) ;
#92 = AXIS2_PLACEMENT_3D ( 'NONE', #236, #102, #24 ) ;
#93 = FILL_AREA_STYLE_COLOUR ( '', #107 ) ;
#94 =( CONVERSION_BASED_UNIT ( 'INCH', #118 ) LENGTH_UNIT ( ) NAMED_UNIT ( #212 ) );
#95 = COLOUR_RGB ( '',1.000000000000000000, 0.000000000000000000, 0.000000000000000000 ) ;
#96 =( NAMED_UNIT ( * ) SI_UNIT ( $, .STERADIAN. ) SOLID_ANGLE_UNIT ( ) );
#97 = DIRECTION ( 'NONE',  ( 1.000000000000000000, 8.906522175617116587E-17, 0.000000000000000000 ) ) ;
#98 = SURFACE_STYLE_USAGE ( .BOTH. , #228 ) ;
#99 = STYLED_ITEM ( 'NONE', ( #14 ), #166 ) ;
#100 = CARTESIAN_POINT ( 'NONE',  ( -3.032960542342103792E-32, 3.250000000000000000, 0.000000000000000000 ) ) ;
#101 =( NAMED_UNIT ( * ) SI_UNIT ( $, .STERADIAN. ) SOLID_ANGLE_UNIT ( ) );
#102 = DIRECTION ( 'NONE',  ( -8.906522175617116587E-17, 1.000000000000000000, 0.000000000000000000 ) ) ;
#103 =( CONVERSION_BASED_UNIT ( 'INCH', #292 ) LENGTH_UNIT ( ) NAMED_UNIT ( #272 ) );
#104 = ORIENTED_EDGE ( 'NONE', *, *, #22, .T. ) ;
#105 = DIRECTION ( 'NONE',  ( -0.000000000000000000, -1.000000000000000000, -0.000000000000000000 ) ) ;
#106 = PRESENTATION_STYLE_ASSIGNMENT (( #293 ) ) ;
#107 = COLOUR_RGB ( '',1.000000000000000000, 0.000000000000000000, 0.000000000000000000 ) ;
#108 = PRODUCT_DEFINITION_FORMATION_WITH_SPECIFIED_SOURCE ( 'ANY', '', #218, .NOT_KNOWN. ) ;
#109 = DIMENSIONAL_EXPONENTS ( 1.000000000000000000, 0.000000000000000000, 0.000000000000000000, 0.000000000000000000, 0.000000000000000000, 0.000000000000000000, 0.000000000000000000 ) ;
#110 = PRESENTATION_STYLE_ASSIGNMENT (( #208 ) ) ;
#111 = CYLINDRICAL_SURFACE ( 'NONE', #137, 0.3125000000000001665 ) ;
#112 = EDGE_CURVE ( 'NONE', #131, #177, #278, .T. ) ;
#113 = CARTESIAN_POINT ( 'NONE',  ( 3.827021247335478926E-17, 3.250000000000000000, 0.3125000000000000000 ) ) ;
#114 = CIRCLE ( 'NONE', #56, 0.3125000000000002776 ) ;
#115 = DIRECTION ( 'NONE',  ( 0.000000000000000000, 0.000000000000000000, -1.000000000000000000 ) ) ;
#116 = CARTESIAN_POINT ( 'NONE',  ( 0.000000000000000000, 0.000000000000000000, 0.000000000000000000 ) ) ;
#117 = EDGE_CURVE ( 'NONE', #177, #131, #71, .T. ) ;
#118 = LENGTH_MEASURE_WITH_UNIT ( LENGTH_MEASURE( 0.02539999999999999897 ), #11 );
#119 = DIRECTION ( 'NONE',  ( -8.906522175617116587E-17, 1.000000000000000000, -0.000000000000000000 ) ) ;
#120 = EDGE_LOOP ( 'NONE', ( #83, #135 ) ) ;
#121 = CIRCLE ( 'NONE', #226, 0.3125000000000000000 ) ;
#122 = DIRECTION ( 'NONE',  ( 0.000000000000000000, 0.000000000000000000, -1.000000000000000000 ) ) ;
#123 = EDGE_CURVE ( 'NONE', #203, #42, #301, .T. ) ;
#124 = CARTESIAN_POINT ( 'NONE',  ( 0.3124999999999998890, 6.000000000000000888, 3.827021247335480159E-17 ) ) ;
#125 = CARTESIAN_POINT ( 'NONE',  ( 0.3125000000000000000, 3.250000000000000000, 3.827021247335480775E-17 ) ) ;
#126 = SURFACE_STYLE_USAGE ( .BOTH. , #38 ) ;
#127 = UNCERTAINTY_MEASURE_WITH_UNIT (LENGTH_MEASURE( 1.000000000000000082E-05 ), #160, 'distance_accuracy_value', 'NONE');
#128 = ORIENTED_EDGE ( 'NONE', *, *, #260, .T. ) ;
#129 = CYLINDRICAL_SURFACE ( 'NONE', #68, 0.3125000000000000000 ) ;
#130 = UNCERTAINTY_MEASURE_WITH_UNIT (LENGTH_MEASURE( 1.000000000000000082E-05 ), #103, 'distance_accuracy_value', 'NONE');
#131 = VERTEX_POINT ( 'NONE', #154 ) ;
#132 =( NAMED_UNIT ( * ) SI_UNIT ( $, .STERADIAN. ) SOLID_ANGLE_UNIT ( ) );
#133 = AXIS2_PLACEMENT_3D ( 'NONE', #210, #308, #270 ) ;
#134 = DIRECTION ( 'NONE',  ( -0.000000000000000000, -1.000000000000000000, -0.000000000000000000 ) ) ;
#135 = ORIENTED_EDGE ( 'NONE', *, *, #10, .F. ) ;
#136 = UNCERTAINTY_MEASURE_WITH_UNIT (LENGTH_MEASURE( 1.000000000000000082E-05 ), #94, 'distance_accuracy_value', 'NONE');
#137 = AXIS2_PLACEMENT_3D ( 'NONE', #87, #291, #288 ) ;
#138 = CIRCLE ( 'NONE', #191, 0.3125000000000002776 ) ;
#139 = LENGTH_MEASURE_WITH_UNIT ( LENGTH_MEASURE( 0.02539999999999999897 ), #304 );
#140 = VERTEX_POINT ( 'NONE', #268 ) ;
#141 = SURFACE_STYLE_FILL_AREA ( #205 ) ;
#142 = PRESENTATION_LAYER_ASSIGNMENT (  '', '', ( #85 ) ) ;
#143 = VECTOR ( 'NONE', #16, 39.37007874015748143 ) ;
#144 = SURFACE_STYLE_FILL_AREA ( #34 ) ;
#145 = PLANE ( 'NONE',  #152 ) ;
#146 = CARTESIAN_POINT ( 'NONE',  ( -0.3125000000000004441, 6.000000000000000888, 0.000000000000000000 ) ) ;
#147 = EDGE_LOOP ( 'NONE', ( #251, #256, #47, #156 ) ) ;
#148 = CARTESIAN_POINT ( 'NONE',  ( 0.000000000000000000, 0.000000000000000000, 0.000000000000000000 ) ) ;
#149 = ORIENTED_EDGE ( 'NONE', *, *, #224, .F. ) ;
#150 = PLANE ( 'NONE',  #286 ) ;
#151 = AXIS2_PLACEMENT_3D ( 'NONE', #215, #192, #164 ) ;
#152 = AXIS2_PLACEMENT_3D ( 'NONE', #259, #204, #97 ) ;
#153 = FILL_AREA_STYLE_COLOUR ( '', #49 ) ;
#154 = CARTESIAN_POINT ( 'NONE',  ( 0.000000000000000000, 3.250000000000000000, -0.3125000000000000000 ) ) ;
#155 =( NAMED_UNIT ( * ) PLANE_ANGLE_UNIT ( ) SI_UNIT ( $, .RADIAN. ) );
#156 = ORIENTED_EDGE ( 'NONE', *, *, #173, .F. ) ;
#157 =( CONVERSION_BASED_UNIT ( 'INCH', #294 ) LENGTH_UNIT ( ) NAMED_UNIT ( #50 ) );
#158 = DIMENSIONAL_EXPONENTS ( 1.000000000000000000, 0.000000000000000000, 0.000000000000000000, 0.000000000000000000, 0.000000000000000000, 0.000000000000000000, 0.000000000000000000 ) ;
#159 = ADVANCED_FACE ( 'NONE', ( #59 ), #41, .F. ) ;
#160 =( CONVERSION_BASED_UNIT ( 'INCH', #81 ) LENGTH_UNIT ( ) NAMED_UNIT ( #109 ) );
#161 = ORIENTED_EDGE ( 'NONE', *, *, #112, .F. ) ;
#162 = CYLINDRICAL_SURFACE ( 'NONE', #299, 0.3125000000000000000 ) ;
#163 = DIRECTION ( 'NONE',  ( -0.000000000000000000, -1.000000000000000000, -0.000000000000000000 ) ) ;
#164 = DIRECTION ( 'NONE',  ( -1.000000000000000000, 0.000000000000000000, 0.000000000000000000 ) ) ;
#165 =( CONVERSION_BASED_UNIT ( 'INCH', #182 ) LENGTH_UNIT ( ) NAMED_UNIT ( #158 ) );
#166 = ADVANCED_FACE ( 'NONE', ( #214 ), #129, .T. ) ;
#167 = DIRECTION ( 'NONE',  ( -0.000000000000000000, -1.000000000000000000, -0.000000000000000000 ) ) ;
#168 =( NAMED_UNIT ( * ) PLANE_ANGLE_UNIT ( ) SI_UNIT ( $, .RADIAN. ) );
#169 = PRESENTATION_STYLE_ASSIGNMENT (( #7 ) ) ;
#170 = ORIENTED_EDGE ( 'NONE', *, *, #117, .F. ) ;
#171 =( LENGTH_UNIT ( ) NAMED_UNIT ( * ) SI_UNIT ( $, .METRE. ) );
#172 = SURFACE_STYLE_USAGE ( .BOTH. , #76 ) ;
#173 = EDGE_CURVE ( 'NONE', #131, #203, #52, .T. ) ;
#174 = DIRECTION ( 'NONE',  ( -8.906522175617116587E-17, 1.000000000000000000, -0.000000000000000000 ) ) ;
#175 = MECHANICAL_DESIGN_GEOMETRIC_PRESENTATION_REPRESENTATION (  '', ( #99 ), #73 ) ;
#176 = FILL_AREA_STYLE_COLOUR ( '', #54 ) ;
#177 = VERTEX_POINT ( 'NONE', #113 ) ;
#178 = CARTESIAN_POINT ( 'NONE',  ( 3.827021247335478926E-17, 0.000000000000000000, 0.3125000000000000000 ) ) ;
#179 = ADVANCED_FACE ( 'NONE', ( #72 ), #90, .T. ) ;
#180 = FILL_AREA_STYLE_COLOUR ( '', #274 ) ;
#181 = ORIENTED_EDGE ( 'NONE', *, *, #224, .T. ) ;
#182 = LENGTH_MEASURE_WITH_UNIT ( LENGTH_MEASURE( 0.02539999999999999897 ), #8 );
#183 = EDGE_CURVE ( 'NONE', #140, #307, #114, .T. ) ;
#184 = EDGE_LOOP ( 'NONE', ( #181, #237 ) ) ;
#185 = SURFACE_STYLE_FILL_AREA ( #18 ) ;
#186 = CARTESIAN_POINT ( 'NONE',  ( 3.827021247335478926E-17, 0.000000000000000000, 0.3125000000000000000 ) ) ;
#187 = FACE_OUTER_BOUND ( 'NONE', #207, .T. ) ;
#188 = DIRECTION ( 'NONE',  ( 0.000000000000000000, 0.000000000000000000, -1.000000000000000000 ) ) ;
#189 = ORIENTED_EDGE ( 'NONE', *, *, #74, .T. ) ;
#190 = PRESENTATION_LAYER_ASSIGNMENT (  '', '', ( #27 ) ) ;
#191 = AXIS2_PLACEMENT_3D ( 'NONE', #220, #250, #4 ) ;
#192 = DIRECTION ( 'NONE',  ( -8.906522175617116587E-17, 1.000000000000000000, -0.000000000000000000 ) ) ;
#193 = SHAPE_DEFINITION_REPRESENTATION ( #223, #281 ) ;
#194 = PRODUCT_DEFINITION_CONTEXT ( 'detailed design', #252, 'design' ) ;
#195 =( GEOMETRIC_REPRESENTATION_CONTEXT ( 3 ) GLOBAL_UNCERTAINTY_ASSIGNED_CONTEXT ( ( #33 ) ) GLOBAL_UNIT_ASSIGNED_CONTEXT ( ( #229, #168, #96 ) ) REPRESENTATION_CONTEXT ( 'NONE', 'WORKASPACE' ) );
#196 = FACE_OUTER_BOUND ( 'NONE', #303, .T. ) ;
#197 = PRESENTATION_STYLE_ASSIGNMENT (( #98 ) ) ;
#198 =( NAMED_UNIT ( * ) SI_UNIT ( $, .STERADIAN. ) SOLID_ANGLE_UNIT ( ) );
#199 = PRESENTATION_LAYER_ASSIGNMENT (  '', '', ( #28 ) ) ;
#200 = DIRECTION ( 'NONE',  ( 1.000000000000000000, 0.000000000000000000, 0.000000000000000000 ) ) ;
#201 = PRODUCT_DEFINITION ( 'UNKNOWN', '', #108, #194 ) ;
#202 =( NAMED_UNIT ( * ) SI_UNIT ( $, .STERADIAN. ) SOLID_ANGLE_UNIT ( ) );
#203 = VERTEX_POINT ( 'NONE', #91 ) ;
#204 = DIRECTION ( 'NONE',  ( 8.906522175617116587E-17, -1.000000000000000000, 0.000000000000000000 ) ) ;
#205 = FILL_AREA_STYLE ('',( #180 ) ) ;
#206 = EDGE_CURVE ( 'NONE', #269, #307, #279, .T. ) ;
#207 = EDGE_LOOP ( 'NONE', ( #161, #170 ) ) ;
#208 = SURFACE_STYLE_USAGE ( .BOTH. , #66 ) ;
#209 =( LENGTH_UNIT ( ) NAMED_UNIT ( * ) SI_UNIT ( $, .METRE. ) );
#210 = CARTESIAN_POINT ( 'NONE',  ( 0.000000000000000000, 0.000000000000000000, 0.000000000000000000 ) ) ;
#211 = EDGE_LOOP ( 'NONE', ( #295, #189 ) ) ;
#212 = DIMENSIONAL_EXPONENTS ( 1.000000000000000000, 0.000000000000000000, 0.000000000000000000, 0.000000000000000000, 0.000000000000000000, 0.000000000000000000, 0.000000000000000000 ) ;
#213 =( NAMED_UNIT ( * ) SI_UNIT ( $, .STERADIAN. ) SOLID_ANGLE_UNIT ( ) );
#214 = FACE_OUTER_BOUND ( 'NONE', #147, .T. ) ;
#215 = CARTESIAN_POINT ( 'NONE',  ( -3.032960542342103792E-32, 3.250000000000000000, 0.000000000000000000 ) ) ;
#216 = STYLED_ITEM ( 'NONE', ( #106 ), #9 ) ;
#217 = PRESENTATION_LAYER_ASSIGNMENT (  '', '', ( #99 ) ) ;
#218 = PRODUCT ( '82524', '82524', '', ( #246 ) ) ;
#219 = MECHANICAL_DESIGN_GEOMETRIC_PRESENTATION_REPRESENTATION (  '', ( #216 ), #264 ) ;
#220 = CARTESIAN_POINT ( 'NONE',  ( -2.449293598294707400E-16, 6.000000000000000888, 0.000000000000000000 ) ) ;
#221 = UNCERTAINTY_MEASURE_WITH_UNIT (LENGTH_MEASURE( 1.000000000000000082E-05 ), #165, 'distance_accuracy_value', 'NONE');
#222 =( NAMED_UNIT ( * ) PLANE_ANGLE_UNIT ( ) SI_UNIT ( $, .RADIAN. ) );
#223 = PRODUCT_DEFINITION_SHAPE ( 'NONE', 'NONE',  #201 ) ;
#224 = EDGE_CURVE ( 'NONE', #307, #140, #138, .T. ) ;
#225 = SURFACE_STYLE_FILL_AREA ( #261 ) ;
#226 = AXIS2_PLACEMENT_3D ( 'NONE', #100, #174, #302 ) ;
#227 =( NAMED_UNIT ( * ) PLANE_ANGLE_UNIT ( ) SI_UNIT ( $, .RADIAN. ) );
#228 = SURFACE_SIDE_STYLE ('',( #144 ) ) ;
#229 =( CONVERSION_BASED_UNIT ( 'INCH', #249 ) LENGTH_UNIT ( ) NAMED_UNIT ( #290 ) );
#230 = ADVANCED_FACE ( 'NONE', ( #75 ), #145, .F. ) ;
#231 = SURFACE_SIDE_STYLE ('',( #225 ) ) ;
#232 = AXIS2_PLACEMENT_3D ( 'NONE', #43, #134, #188 ) ;
#233 =( LENGTH_UNIT ( ) NAMED_UNIT ( * ) SI_UNIT ( $, .METRE. ) );
#234 = VERTEX_POINT ( 'NONE', #125 ) ;
#235 = FILL_AREA_STYLE_COLOUR ( '', #89 ) ;
#236 = CARTESIAN_POINT ( 'NONE',  ( 1.239470894761866739E-33, 3.250000000000000000, 0.000000000000000000 ) ) ;
#237 = ORIENTED_EDGE ( 'NONE', *, *, #183, .T. ) ;
#238 = DIRECTION ( 'NONE',  ( 0.000000000000000000, 0.000000000000000000, -1.000000000000000000 ) ) ;
#239 = MANIFOLD_SOLID_BREP ( 'Revolve - Tool Body (Straight Shanked)', #45 ) ;
#240 = DIRECTION ( 'NONE',  ( 0.000000000000000000, -0.000000000000000000, 1.000000000000000000 ) ) ;
#241 = MANIFOLD_SOLID_BREP ( 'Revolve - Cutting Edge', #26 ) ;
#242 = ORIENTED_EDGE ( 'NONE', *, *, #117, .T. ) ;
#243 = MECHANICAL_DESIGN_GEOMETRIC_PRESENTATION_REPRESENTATION (  '', ( #27 ), #195 ) ;
#244 = DIMENSIONAL_EXPONENTS ( 1.000000000000000000, 0.000000000000000000, 0.000000000000000000, 0.000000000000000000, 0.000000000000000000, 0.000000000000000000, 0.000000000000000000 ) ;
#245 = AXIS2_PLACEMENT_3D ( 'NONE', #48, #29, #1 ) ;
#246 = PRODUCT_CONTEXT ( 'NONE', #275, 'mechanical' ) ;
#247 = CARTESIAN_POINT ( 'NONE',  ( 0.000000000000000000, 0.000000000000000000, -0.3125000000000000000 ) ) ;
#248 = CIRCLE ( 'NONE', #133, 0.3125000000000000000 ) ;
#249 = LENGTH_MEASURE_WITH_UNIT ( LENGTH_MEASURE( 0.02539999999999999897 ), #171 );
#250 = DIRECTION ( 'NONE',  ( -8.906522175617116587E-17, 1.000000000000000000, -0.000000000000000000 ) ) ;
#251 = ORIENTED_EDGE ( 'NONE', *, *, #112, .T. ) ;
#252 = APPLICATION_CONTEXT ( 'automotive_design' ) ;
#253 = APPLICATION_PROTOCOL_DEFINITION ( 'draft international standard', 'automotive_design', 1998, #275 ) ;
#254 = DIRECTION ( 'NONE',  ( -0.000000000000000000, -1.000000000000000000, -0.000000000000000000 ) ) ;
#255 = PRESENTATION_STYLE_ASSIGNMENT (( #172 ) ) ;
#256 = ORIENTED_EDGE ( 'NONE', *, *, #58, .T. ) ;
#257 =( GEOMETRIC_REPRESENTATION_CONTEXT ( 3 ) GLOBAL_UNCERTAINTY_ASSIGNED_CONTEXT ( ( #130 ) ) GLOBAL_UNIT_ASSIGNED_CONTEXT ( ( #103, #155, #32 ) ) REPRESENTATION_CONTEXT ( 'NONE', 'WORKASPACE' ) );
#258 = LINE ( 'NONE', #124, #5 ) ;
#259 = CARTESIAN_POINT ( 'NONE',  ( 0.3125000000000000000, 6.000000000000000888, 0.000000000000000000 ) ) ;
#260 = EDGE_CURVE ( 'NONE', #269, #234, #121, .T. ) ;
#261 = FILL_AREA_STYLE ('',( #176 ) ) ;
#262 = SURFACE_STYLE_FILL_AREA ( #80 ) ;
#263 = UNCERTAINTY_MEASURE_WITH_UNIT (LENGTH_MEASURE( 1.000000000000000082E-05 ), #157, 'distance_accuracy_value', 'NONE');
#264 =( GEOMETRIC_REPRESENTATION_CONTEXT ( 3 ) GLOBAL_UNCERTAINTY_ASSIGNED_CONTEXT ( ( #263 ) ) GLOBAL_UNIT_ASSIGNED_CONTEXT ( ( #157, #23, #213 ) ) REPRESENTATION_CONTEXT ( 'NONE', 'WORKASPACE' ) );
#265 = AXIS2_PLACEMENT_3D ( 'NONE', #306, #84, #238 ) ;
#266 = DIRECTION ( 'NONE',  ( 0.000000000000000000, 0.000000000000000000, -1.000000000000000000 ) ) ;
#267 = SURFACE_SIDE_STYLE ('',( #19 ) ) ;
#268 = CARTESIAN_POINT ( 'NONE',  ( 0.3125000000000000000, 6.000000000000000888, 3.827021247335480775E-17 ) ) ;
#269 = VERTEX_POINT ( 'NONE', #77 ) ;
#270 = DIRECTION ( 'NONE',  ( 0.000000000000000000, 0.000000000000000000, -1.000000000000000000 ) ) ;
#271 = ORIENTED_EDGE ( 'NONE', *, *, #173, .T. ) ;
#272 = DIMENSIONAL_EXPONENTS ( 1.000000000000000000, 0.000000000000000000, 0.000000000000000000, 0.000000000000000000, 0.000000000000000000, 0.000000000000000000, 0.000000000000000000 ) ;
#273 = DIRECTION ( 'NONE',  ( -8.906522175617116587E-17, 1.000000000000000000, -0.000000000000000000 ) ) ;
#274 = COLOUR_RGB ( '',0.7921568627450980005, 0.8196078431372548767, 0.9333333333333333481 ) ;
#275 = APPLICATION_CONTEXT ( 'automotive_design' ) ;
#276 = PLANE ( 'NONE',  #36 ) ;
#277 = EDGE_LOOP ( 'NONE', ( #128, #104, #149, #37 ) ) ;
#278 = CIRCLE ( 'NONE', #232, 0.3125000000000000000 ) ;
#279 = LINE ( 'NONE', #146, #46 ) ;
#280 = MECHANICAL_DESIGN_GEOMETRIC_PRESENTATION_REPRESENTATION (  '', ( #300 ), #78 ) ;
#281 = ADVANCED_BREP_SHAPE_REPRESENTATION ( '82524', ( #241, #239, #20 ), #257 ) ;
#282 = ORIENTED_EDGE ( 'NONE', *, *, #58, .F. ) ;
#283 = CARTESIAN_POINT ( 'NONE',  ( 0.000000000000000000, 0.000000000000000000, 0.000000000000000000 ) ) ;
#284 = CARTESIAN_POINT ( 'NONE',  ( 0.000000000000000000, 0.000000000000000000, 0.000000000000000000 ) ) ;
#285 = CARTESIAN_POINT ( 'NONE',  ( -0.3125000000000005551, 6.000000000000000888, 0.000000000000000000 ) ) ;
#286 = AXIS2_PLACEMENT_3D ( 'NONE', #148, #309, #266 ) ;
#287 = CARTESIAN_POINT ( 'NONE',  ( 0.000000000000000000, 3.250000000000000000, 0.000000000000000000 ) ) ;
#288 = DIRECTION ( 'NONE',  ( -1.000000000000000000, 0.000000000000000000, 0.000000000000000000 ) ) ;
#289 = EDGE_LOOP ( 'NONE', ( #17, #35, #79, #88 ) ) ;
#290 = DIMENSIONAL_EXPONENTS ( 1.000000000000000000, 0.000000000000000000, 0.000000000000000000, 0.000000000000000000, 0.000000000000000000, 0.000000000000000000, 0.000000000000000000 ) ;
#291 = DIRECTION ( 'NONE',  ( -8.906522175617116587E-17, 1.000000000000000000, -0.000000000000000000 ) ) ;
#292 = LENGTH_MEASURE_WITH_UNIT ( LENGTH_MEASURE( 0.02539999999999999897 ), #12 );
#293 = SURFACE_STYLE_USAGE ( .BOTH. , #267 ) ;
#294 = LENGTH_MEASURE_WITH_UNIT ( LENGTH_MEASURE( 0.02539999999999999897 ), #209 );
#295 = ORIENTED_EDGE ( 'NONE', *, *, #123, .T. ) ;
#296 = VECTOR ( 'NONE', #167, 39.37007874015748143 ) ;
#297 = DIRECTION ( 'NONE',  ( 0.000000000000000000, 0.000000000000000000, 1.000000000000000000 ) ) ;
#298 = CARTESIAN_POINT ( 'NONE',  ( -2.449293598294707400E-16, 6.000000000000000888, 0.000000000000000000 ) ) ;
#299 = AXIS2_PLACEMENT_3D ( 'NONE', #284, #254, #122 ) ;
#300 = STYLED_ITEM ( 'NONE', ( #169 ), #239 ) ;
#301 = CIRCLE ( 'NONE', #265, 0.3125000000000000000 ) ;
#302 = DIRECTION ( 'NONE',  ( -1.000000000000000000, 0.000000000000000000, 0.000000000000000000 ) ) ;
#303 = EDGE_LOOP ( 'NONE', ( #282, #242, #271, #15 ) ) ;
#304 =( LENGTH_UNIT ( ) NAMED_UNIT ( * ) SI_UNIT ( $, .METRE. ) );
#305 =( CONVERSION_BASED_UNIT ( 'INCH', #139 ) LENGTH_UNIT ( ) NAMED_UNIT ( #244 ) );
#306 = CARTESIAN_POINT ( 'NONE',  ( 0.000000000000000000, 0.000000000000000000, 0.000000000000000000 ) ) ;
#307 = VERTEX_POINT ( 'NONE', #285 ) ;
#308 = DIRECTION ( 'NONE',  ( -0.000000000000000000, -1.000000000000000000, -0.000000000000000000 ) ) ;
#309 = DIRECTION ( 'NONE',  ( 0.000000000000000000, -1.000000000000000000, -0.000000000000000000 ) ) ;
ENDSEC;
END-ISO-10303-21;
