ISO-10303-21;
HEADER;
FILE_DESCRIPTION (( 'STEP AP214' ),
    '1' );
FILE_NAME ('Micro_RSCM-100-1.STEP',
    '2021-09-03T18:00:08',
    ( '' ),
    ( '' ),
    'SwSTEP 2.0',
    'SolidWorks 2020',
    '' );
FILE_SCHEMA (( 'AUTOMOTIVE_DESIGN' ));
ENDSEC;

DATA;
#1 =( LENGTH_UNIT ( ) NAMED_UNIT ( * ) SI_UNIT ( $, .METRE. ) );
#2 = AXIS2_PLACEMENT_3D ( 'NONE', #193, #153, #108 ) ;
#3 = FACE_OUTER_BOUND ( 'NONE', #128, .T. ) ;
#4 = ORIENTED_EDGE ( 'NONE', *, *, #79, .F. ) ;
#5 = VERTEX_POINT ( 'NONE', #211 ) ;
#6 = DIRECTION ( 'NONE',  ( -0.7071067811865354713, 0.0000000000000000000, -0.7071067811865594521 ) ) ;
#7 = ORIENTED_EDGE ( 'NONE', *, *, #28, .F. ) ;
#8 =( NAMED_UNIT ( * ) SI_UNIT ( $, .STERADIAN. ) SOLID_ANGLE_UNIT ( ) );
#9 = EDGE_CURVE ( 'NONE', #132, #212, #10, .T. ) ;
#10 = LINE ( 'NONE', #216, #178 ) ;
#11 = FACE_OUTER_BOUND ( 'NONE', #30, .T. ) ;
#12 = DIRECTION ( 'NONE',  ( -0.0000000000000000000, -0.0000000000000000000, -1.000000000000000000 ) ) ;
#13 = MECHANICAL_DESIGN_GEOMETRIC_PRESENTATION_REPRESENTATION (  '', ( #218 ), #102 ) ;
#14 = CARTESIAN_POINT ( 'NONE',  ( -0.1968504999999999838, 0.0000000000000000000, 2.834646000000000665 ) ) ;
#15 = APPLICATION_CONTEXT ( 'automotive_design' ) ;
#16 = CARTESIAN_POINT ( 'NONE',  ( 0.0000000000000000000, 0.0000000000000000000, 0.0000000000000000000 ) ) ;
#17 = EDGE_CURVE ( 'NONE', #231, #117, #121, .T. ) ;
#18 =( CONVERSION_BASED_UNIT ( 'INCH', #148 ) LENGTH_UNIT ( ) NAMED_UNIT ( #24 ) );
#19 = CARTESIAN_POINT ( 'NONE',  ( 0.0000000000000000000, 0.0000000000000000000, 0.0000000000000000000 ) ) ;
#20 = APPLICATION_PROTOCOL_DEFINITION ( 'draft international standard', 'automotive_design', 1998, #15 ) ;
#21 = FACE_OUTER_BOUND ( 'NONE', #234, .T. ) ;
#22 = AXIS2_PLACEMENT_3D ( 'NONE', #19, #191, #112 ) ;
#23 = AXIS2_PLACEMENT_3D ( 'NONE', #200, #104, #48 ) ;
#24 = DIMENSIONAL_EXPONENTS ( 1.000000000000000000, 0.0000000000000000000, 0.0000000000000000000, 0.0000000000000000000, 0.0000000000000000000, 0.0000000000000000000, 0.0000000000000000000 ) ;
#25 = DIRECTION ( 'NONE',  ( -0.0000000000000000000, -0.0000000000000000000, -1.000000000000000000 ) ) ;
#26 = ORIENTED_EDGE ( 'NONE', *, *, #185, .F. ) ;
#27 = PRESENTATION_STYLE_ASSIGNMENT (( #207 ) ) ;
#28 = EDGE_CURVE ( 'NONE', #132, #95, #130, .T. ) ;
#29 = SHAPE_DEFINITION_REPRESENTATION ( #83, #53 ) ;
#30 = EDGE_LOOP ( 'NONE', ( #59, #91 ) ) ;
#31 = CYLINDRICAL_SURFACE ( 'NONE', #181, 0.1968504999999999838 ) ;
#32 =( NAMED_UNIT ( * ) PLANE_ANGLE_UNIT ( ) SI_UNIT ( $, .RADIAN. ) );
#33 = MECHANICAL_DESIGN_GEOMETRIC_PRESENTATION_REPRESENTATION (  '', ( #115 ), #110 ) ;
#34 = LINE ( 'NONE', #14, #157 ) ;
#35 = FILL_AREA_STYLE ('',( #202 ) ) ;
#36 = CIRCLE ( 'NONE', #23, 0.1818505000000002481 ) ;
#37 = CIRCLE ( 'NONE', #69, 0.1968504999999999838 ) ;
#38 = FACE_OUTER_BOUND ( 'NONE', #171, .T. ) ;
#39 =( GEOMETRIC_REPRESENTATION_CONTEXT ( 3 ) GLOBAL_UNCERTAINTY_ASSIGNED_CONTEXT ( ( #217 ) ) GLOBAL_UNIT_ASSIGNED_CONTEXT ( ( #18, #85, #229 ) ) REPRESENTATION_CONTEXT ( 'NONE', 'WORKASPACE' ) );
#40 = PLANE ( 'NONE',  #22 ) ;
#41 = AXIS2_PLACEMENT_3D ( 'NONE', #175, #214, #118 ) ;
#42 = EDGE_LOOP ( 'NONE', ( #45, #43 ) ) ;
#43 = ORIENTED_EDGE ( 'NONE', *, *, #28, .T. ) ;
#44 = AXIS2_PLACEMENT_3D ( 'NONE', #227, #197, #201 ) ;
#45 = ORIENTED_EDGE ( 'NONE', *, *, #58, .T. ) ;
#46 = ORIENTED_EDGE ( 'NONE', *, *, #194, .F. ) ;
#47 =( CONVERSION_BASED_UNIT ( 'INCH', #215 ) LENGTH_UNIT ( ) NAMED_UNIT ( #136 ) );
#48 = DIRECTION ( 'NONE',  ( 1.000000000000000000, 0.0000000000000000000, 0.0000000000000000000 ) ) ;
#49 = DIRECTION ( 'NONE',  ( 0.0000000000000000000, 0.0000000000000000000, 1.000000000000000000 ) ) ;
#50 = DIRECTION ( 'NONE',  ( -0.0000000000000000000, -0.0000000000000000000, -1.000000000000000000 ) ) ;
#51 = VECTOR ( 'NONE', #248, 39.37007874015748854 ) ;
#52 =( CONVERSION_BASED_UNIT ( 'INCH', #170 ) LENGTH_UNIT ( ) NAMED_UNIT ( #190 ) );
#53 = ADVANCED_BREP_SHAPE_REPRESENTATION ( 'Micro_RSCM-100-1', ( #105, #247 ), #39 ) ;
#54 = VERTEX_POINT ( 'NONE', #144 ) ;
#55 = CYLINDRICAL_SURFACE ( 'NONE', #169, 0.1968504999999999838 ) ;
#56 = CARTESIAN_POINT ( 'NONE',  ( 0.1818505000000002481, 2.227026327483460228E-17, 2.834646000000000665 ) ) ;
#57 = ORIENTED_EDGE ( 'NONE', *, *, #64, .F. ) ;
#58 = EDGE_CURVE ( 'NONE', #95, #132, #236, .T. ) ;
#59 = ORIENTED_EDGE ( 'NONE', *, *, #64, .T. ) ;
#60 = AXIS2_PLACEMENT_3D ( 'NONE', #16, #49, #244 ) ;
#61 = ORIENTED_EDGE ( 'NONE', *, *, #66, .F. ) ;
#62 = CLOSED_SHELL ( 'NONE', ( #230, #124, #137, #222, #149, #187, #101, #225 ) ) ;
#63 = CARTESIAN_POINT ( 'NONE',  ( 0.1968504999999999838, 2.410723347355560646E-17, 0.3341359834659373140 ) ) ;
#64 = EDGE_CURVE ( 'NONE', #213, #54, #36, .T. ) ;
#65 = PRESENTATION_LAYER_ASSIGNMENT (  '', '', ( #218 ) ) ;
#66 = EDGE_CURVE ( 'NONE', #5, #212, #34, .T. ) ;
#67 = CARTESIAN_POINT ( 'NONE',  ( -0.1968504999999999838, 0.0000000000000000000, 0.3341359834659373140 ) ) ;
#68 = SURFACE_STYLE_FILL_AREA ( #82 ) ;
#69 = AXIS2_PLACEMENT_3D ( 'NONE', #180, #78, #164 ) ;
#70 = ORIENTED_EDGE ( 'NONE', *, *, #58, .F. ) ;
#71 = ORIENTED_EDGE ( 'NONE', *, *, #9, .T. ) ;
#72 = CARTESIAN_POINT ( 'NONE',  ( 0.0000000000000000000, 0.0000000000000000000, 0.0000000000000000000 ) ) ;
#73 = ORIENTED_EDGE ( 'NONE', *, *, #134, .F. ) ;
#74 = CARTESIAN_POINT ( 'NONE',  ( 0.0000000000000000000, 0.0000000000000000000, 2.834646000000000665 ) ) ;
#75 = DIRECTION ( 'NONE',  ( 1.000000000000000000, 0.0000000000000000000, -0.0000000000000000000 ) ) ;
#76 = CARTESIAN_POINT ( 'NONE',  ( 0.0000000000000000000, 0.0000000000000000000, 0.0000000000000000000 ) ) ;
#77 = CIRCLE ( 'NONE', #177, 0.1968504999999999838 ) ;
#78 = DIRECTION ( 'NONE',  ( 0.0000000000000000000, 0.0000000000000000000, -1.000000000000000000 ) ) ;
#79 = EDGE_CURVE ( 'NONE', #231, #5, #37, .T. ) ;
#80 = SURFACE_SIDE_STYLE ('',( #103 ) ) ;
#81 = PRODUCT_CONTEXT ( 'NONE', #133, 'mechanical' ) ;
#82 = FILL_AREA_STYLE ('',( #109 ) ) ;
#83 = PRODUCT_DEFINITION_SHAPE ( 'NONE', 'NONE',  #88 ) ;
#84 = AXIS2_PLACEMENT_3D ( 'NONE', #74, #203, #75 ) ;
#85 =( NAMED_UNIT ( * ) PLANE_ANGLE_UNIT ( ) SI_UNIT ( $, .RADIAN. ) );
#86 = AXIS2_PLACEMENT_3D ( 'NONE', #76, #12, #142 ) ;
#87 = CARTESIAN_POINT ( 'NONE',  ( 0.1968504999999999838, 2.410723347355560646E-17, 2.819646000000000097 ) ) ;
#88 = PRODUCT_DEFINITION ( 'UNKNOWN', '', #125, #126 ) ;
#89 = ORIENTED_EDGE ( 'NONE', *, *, #17, .F. ) ;
#90 = PRODUCT_RELATED_PRODUCT_CATEGORY ( 'part', '', ( #145 ) ) ;
#91 = ORIENTED_EDGE ( 'NONE', *, *, #206, .T. ) ;
#92 = EDGE_LOOP ( 'NONE', ( #89, #174, #176, #73 ) ) ;
#93 = ORIENTED_EDGE ( 'NONE', *, *, #17, .T. ) ;
#94 = CARTESIAN_POINT ( 'NONE',  ( -0.1818505000000002481, 0.0000000000000000000, 2.834646000000000665 ) ) ;
#95 = VERTEX_POINT ( 'NONE', #186 ) ;
#96 = CONICAL_SURFACE ( 'NONE', #2, 0.003936999999999995191, 0.5235987755983005920 ) ;
#97 = CARTESIAN_POINT ( 'NONE',  ( 0.0000000000000000000, 0.0000000000000000000, 2.834646000000000665 ) ) ;
#98 = DIRECTION ( 'NONE',  ( -0.0000000000000000000, -0.0000000000000000000, -1.000000000000000000 ) ) ;
#99 = CARTESIAN_POINT ( 'NONE',  ( 0.0000000000000000000, 0.0000000000000000000, 0.3341359834659373140 ) ) ;
#100 = DIRECTION ( 'NONE',  ( -0.0000000000000000000, -0.0000000000000000000, -1.000000000000000000 ) ) ;
#101 = ADVANCED_FACE ( 'NONE', ( #160 ), #235, .T. ) ;
#102 =( GEOMETRIC_REPRESENTATION_CONTEXT ( 3 ) GLOBAL_UNCERTAINTY_ASSIGNED_CONTEXT ( ( #228 ) ) GLOBAL_UNIT_ASSIGNED_CONTEXT ( ( #47, #32, #8 ) ) REPRESENTATION_CONTEXT ( 'NONE', 'WORKASPACE' ) );
#103 = SURFACE_STYLE_FILL_AREA ( #35 ) ;
#104 = DIRECTION ( 'NONE',  ( 0.0000000000000000000, 0.0000000000000000000, 1.000000000000000000 ) ) ;
#105 = MANIFOLD_SOLID_BREP ( 'Cut-Revolve1', #62 ) ;
#106 = CIRCLE ( 'NONE', #208, 0.1968504999999999838 ) ;
#107 = APPLICATION_PROTOCOL_DEFINITION ( 'draft international standard', 'automotive_design', 1998, #133 ) ;
#108 = DIRECTION ( 'NONE',  ( 1.000000000000000000, 0.0000000000000000000, 0.0000000000000000000 ) ) ;
#109 = FILL_AREA_STYLE_COLOUR ( '', #172 ) ;
#110 =( GEOMETRIC_REPRESENTATION_CONTEXT ( 3 ) GLOBAL_UNCERTAINTY_ASSIGNED_CONTEXT ( ( #239 ) ) GLOBAL_UNIT_ASSIGNED_CONTEXT ( ( #52, #205, #127 ) ) REPRESENTATION_CONTEXT ( 'NONE', 'WORKASPACE' ) );
#111 = ORIENTED_EDGE ( 'NONE', *, *, #159, .F. ) ;
#112 = DIRECTION ( 'NONE',  ( 1.000000000000000000, 0.0000000000000000000, -0.0000000000000000000 ) ) ;
#113 = EDGE_LOOP ( 'NONE', ( #46, #57, #114, #4 ) ) ;
#114 = ORIENTED_EDGE ( 'NONE', *, *, #196, .T. ) ;
#115 = STYLED_ITEM ( 'NONE', ( #27 ), #53 ) ;
#116 = ORIENTED_EDGE ( 'NONE', *, *, #9, .F. ) ;
#117 = VERTEX_POINT ( 'NONE', #63 ) ;
#118 = DIRECTION ( 'NONE',  ( -1.000000000000000000, 0.0000000000000000000, 0.0000000000000000000 ) ) ;
#119 = AXIS2_PLACEMENT_3D ( 'NONE', #221, #240, #165 ) ;
#120 = CARTESIAN_POINT ( 'NONE',  ( 0.003936999999999995191, 0.0000000000000000000, 0.0000000000000000000 ) ) ;
#121 = LINE ( 'NONE', #199, #210 ) ;
#122 = AXIS2_PLACEMENT_3D ( 'NONE', #161, #241, #219 ) ;
#123 = DIRECTION ( 'NONE',  ( 1.000000000000000000, 0.0000000000000000000, 0.0000000000000000000 ) ) ;
#124 = ADVANCED_FACE ( 'NONE', ( #3 ), #155, .T. ) ;
#125 = PRODUCT_DEFINITION_FORMATION_WITH_SPECIFIED_SOURCE ( 'ANY', '', #145, .NOT_KNOWN. ) ;
#126 = PRODUCT_DEFINITION_CONTEXT ( 'detailed design', #15, 'design' ) ;
#127 =( NAMED_UNIT ( * ) SI_UNIT ( $, .STERADIAN. ) SOLID_ANGLE_UNIT ( ) );
#128 = EDGE_LOOP ( 'NONE', ( #209, #129, #111, #173 ) ) ;
#129 = ORIENTED_EDGE ( 'NONE', *, *, #194, .T. ) ;
#130 = CIRCLE ( 'NONE', #86, 0.003936999999999995191 ) ;
#131 = CIRCLE ( 'NONE', #226, 0.1818505000000002481 ) ;
#132 = VERTEX_POINT ( 'NONE', #198 ) ;
#133 = APPLICATION_CONTEXT ( 'automotive_design' ) ;
#134 = EDGE_CURVE ( 'NONE', #117, #212, #106, .T. ) ;
#135 = DIRECTION ( 'NONE',  ( -1.000000000000000000, 0.0000000000000000000, 0.0000000000000000000 ) ) ;
#136 = DIMENSIONAL_EXPONENTS ( 1.000000000000000000, 0.0000000000000000000, 0.0000000000000000000, 0.0000000000000000000, 0.0000000000000000000, 0.0000000000000000000, 0.0000000000000000000 ) ;
#137 = ADVANCED_FACE ( 'NONE', ( #38 ), #31, .T. ) ;
#138 = LINE ( 'NONE', #120, #140 ) ;
#139 = DIRECTION ( 'NONE',  ( -0.5000000000000013323, 6.123233995736782060E-17, 0.8660254037844377084 ) ) ;
#140 = VECTOR ( 'NONE', #245, 39.37007874015748854 ) ;
#141 = CARTESIAN_POINT ( 'NONE',  ( 0.0000000000000000000, 0.0000000000000000000, 2.819646000000000097 ) ) ;
#142 = DIRECTION ( 'NONE',  ( -1.000000000000000000, 0.0000000000000000000, 0.0000000000000000000 ) ) ;
#143 = FACE_OUTER_BOUND ( 'NONE', #113, .T. ) ;
#144 = CARTESIAN_POINT ( 'NONE',  ( 0.1818505000000002481, 2.318874837419510283E-17, 2.834646000000000665 ) ) ;
#145 = PRODUCT ( 'Micro_RSCM-100-1', 'Micro_RSCM-100-1', '', ( #81 ) ) ;
#146 = COLOUR_RGB ( '',0.7921568627450980005, 0.8196078431372548767, 0.9333333333333333481 ) ;
#147 = CARTESIAN_POINT ( 'NONE',  ( -0.1818505000000002481, 0.0000000000000000000, 2.834646000000000665 ) ) ;
#148 = LENGTH_MEASURE_WITH_UNIT ( LENGTH_MEASURE( 0.02539999999999999897 ), #1 );
#149 = ADVANCED_FACE ( 'NONE', ( #11 ), #237, .T. ) ;
#150 = FACE_OUTER_BOUND ( 'NONE', #42, .T. ) ;
#151 =( LENGTH_UNIT ( ) NAMED_UNIT ( * ) SI_UNIT ( $, .METRE. ) );
#152 = ORIENTED_EDGE ( 'NONE', *, *, #159, .T. ) ;
#153 = DIRECTION ( 'NONE',  ( 0.0000000000000000000, 0.0000000000000000000, 1.000000000000000000 ) ) ;
#154 = ORIENTED_EDGE ( 'NONE', *, *, #134, .T. ) ;
#155 = CONICAL_SURFACE ( 'NONE', #44, 0.1818505000000002481, 0.7853981633974312926 ) ;
#156 = DIRECTION ( 'NONE',  ( 0.0000000000000000000, 0.0000000000000000000, 1.000000000000000000 ) ) ;
#157 = VECTOR ( 'NONE', #100, 39.37007874015748143 ) ;
#158 = EDGE_LOOP ( 'NONE', ( #116, #70, #233, #154 ) ) ;
#159 = EDGE_CURVE ( 'NONE', #5, #231, #77, .T. ) ;
#160 = FACE_OUTER_BOUND ( 'NONE', #158, .T. ) ;
#161 = CARTESIAN_POINT ( 'NONE',  ( 0.0000000000000000000, 0.0000000000000000000, 0.0000000000000000000 ) ) ;
#162 = CIRCLE ( 'NONE', #119, 0.1968504999999999838 ) ;
#163 = DIRECTION ( 'NONE',  ( -1.000000000000000000, 0.0000000000000000000, 0.0000000000000000000 ) ) ;
#164 = DIRECTION ( 'NONE',  ( 1.000000000000000000, 0.0000000000000000000, 0.0000000000000000000 ) ) ;
#165 = DIRECTION ( 'NONE',  ( -1.000000000000000000, 0.0000000000000000000, 0.0000000000000000000 ) ) ;
#166 = SURFACE_STYLE_USAGE ( .BOTH. , #80 ) ;
#167 = EDGE_CURVE ( 'NONE', #212, #117, #162, .T. ) ;
#168 = CARTESIAN_POINT ( 'NONE',  ( 0.0000000000000000000, 0.0000000000000000000, 2.834646000000000665 ) ) ;
#169 = AXIS2_PLACEMENT_3D ( 'NONE', #204, #25, #192 ) ;
#170 = LENGTH_MEASURE_WITH_UNIT ( LENGTH_MEASURE( 0.02539999999999999897 ), #151 );
#171 = EDGE_LOOP ( 'NONE', ( #152, #93, #232, #61 ) ) ;
#172 = COLOUR_RGB ( '',0.7921568627450980005, 0.8196078431372548767, 0.9333333333333333481 ) ;
#173 = ORIENTED_EDGE ( 'NONE', *, *, #196, .F. ) ;
#174 = ORIENTED_EDGE ( 'NONE', *, *, #79, .T. ) ;
#175 = CARTESIAN_POINT ( 'NONE',  ( 0.0000000000000000000, 0.0000000000000000000, 2.834646000000000665 ) ) ;
#176 = ORIENTED_EDGE ( 'NONE', *, *, #66, .T. ) ;
#177 = AXIS2_PLACEMENT_3D ( 'NONE', #141, #243, #182 ) ;
#178 = VECTOR ( 'NONE', #139, 39.37007874015748854 ) ;
#179 = DIRECTION ( 'NONE',  ( -0.0000000000000000000, -0.0000000000000000000, -1.000000000000000000 ) ) ;
#180 = CARTESIAN_POINT ( 'NONE',  ( 0.0000000000000000000, 0.0000000000000000000, 2.819646000000000097 ) ) ;
#181 = AXIS2_PLACEMENT_3D ( 'NONE', #97, #179, #163 ) ;
#182 = DIRECTION ( 'NONE',  ( 1.000000000000000000, 0.0000000000000000000, 0.0000000000000000000 ) ) ;
#183 = PRESENTATION_STYLE_ASSIGNMENT (( #166 ) ) ;
#184 = LINE ( 'NONE', #56, #51 ) ;
#185 = EDGE_CURVE ( 'NONE', #95, #117, #138, .T. ) ;
#186 = CARTESIAN_POINT ( 'NONE',  ( 0.003936999999999995191, 0.0000000000000000000, 0.0000000000000000000 ) ) ;
#187 = ADVANCED_FACE ( 'NONE', ( #143 ), #195, .T. ) ;
#188 = LINE ( 'NONE', #94, #242 ) ;
#189 = SURFACE_SIDE_STYLE ('',( #68 ) ) ;
#190 = DIMENSIONAL_EXPONENTS ( 1.000000000000000000, 0.0000000000000000000, 0.0000000000000000000, 0.0000000000000000000, 0.0000000000000000000, 0.0000000000000000000, 0.0000000000000000000 ) ;
#191 = DIRECTION ( 'NONE',  ( 0.0000000000000000000, 0.0000000000000000000, 1.000000000000000000 ) ) ;
#192 = DIRECTION ( 'NONE',  ( -1.000000000000000000, 0.0000000000000000000, 0.0000000000000000000 ) ) ;
#193 = CARTESIAN_POINT ( 'NONE',  ( 0.0000000000000000000, 0.0000000000000000000, 0.0000000000000000000 ) ) ;
#194 = EDGE_CURVE ( 'NONE', #54, #231, #184, .T. ) ;
#195 = CONICAL_SURFACE ( 'NONE', #41, 0.1818505000000002481, 0.7853981633974312926 ) ;
#196 = EDGE_CURVE ( 'NONE', #213, #5, #188, .T. ) ;
#197 = DIRECTION ( 'NONE',  ( 0.0000000000000000000, 0.0000000000000000000, -1.000000000000000000 ) ) ;
#198 = CARTESIAN_POINT ( 'NONE',  ( -0.003936999999999995191, 1.229468845918995738E-17, 0.0000000000000000000 ) ) ;
#199 = CARTESIAN_POINT ( 'NONE',  ( 0.1968504999999999838, 2.410723347355560646E-17, 2.834646000000000665 ) ) ;
#200 = CARTESIAN_POINT ( 'NONE',  ( 0.0000000000000000000, 0.0000000000000000000, 2.834646000000000665 ) ) ;
#201 = DIRECTION ( 'NONE',  ( -1.000000000000000000, 0.0000000000000000000, 0.0000000000000000000 ) ) ;
#202 = FILL_AREA_STYLE_COLOUR ( '', #146 ) ;
#203 = DIRECTION ( 'NONE',  ( 0.0000000000000000000, 0.0000000000000000000, 1.000000000000000000 ) ) ;
#204 = CARTESIAN_POINT ( 'NONE',  ( 0.0000000000000000000, 0.0000000000000000000, 2.834646000000000665 ) ) ;
#205 =( NAMED_UNIT ( * ) PLANE_ANGLE_UNIT ( ) SI_UNIT ( $, .RADIAN. ) );
#206 = EDGE_CURVE ( 'NONE', #54, #213, #131, .T. ) ;
#207 = SURFACE_STYLE_USAGE ( .BOTH. , #189 ) ;
#208 = AXIS2_PLACEMENT_3D ( 'NONE', #99, #50, #135 ) ;
#209 = ORIENTED_EDGE ( 'NONE', *, *, #206, .F. ) ;
#210 = VECTOR ( 'NONE', #98, 39.37007874015748143 ) ;
#211 = CARTESIAN_POINT ( 'NONE',  ( -0.1968504999999999838, 0.0000000000000000000, 2.819646000000000097 ) ) ;
#212 = VERTEX_POINT ( 'NONE', #67 ) ;
#213 = VERTEX_POINT ( 'NONE', #147 ) ;
#214 = DIRECTION ( 'NONE',  ( 0.0000000000000000000, 0.0000000000000000000, -1.000000000000000000 ) ) ;
#215 = LENGTH_MEASURE_WITH_UNIT ( LENGTH_MEASURE( 0.02539999999999999897 ), #246 );
#216 = CARTESIAN_POINT ( 'NONE',  ( -0.003936999999999995191, 4.821434448243123477E-19, 0.0000000000000000000 ) ) ;
#217 = UNCERTAINTY_MEASURE_WITH_UNIT (LENGTH_MEASURE( 1.000000000000000082E-05 ), #18, 'distance_accuracy_value', 'NONE');
#218 = STYLED_ITEM ( 'NONE', ( #183 ), #105 ) ;
#219 = DIRECTION ( 'NONE',  ( -1.000000000000000000, 0.0000000000000000000, 0.0000000000000000000 ) ) ;
#220 = DIRECTION ( 'NONE',  ( 1.000000000000000000, 0.0000000000000000000, 0.0000000000000000000 ) ) ;
#221 = CARTESIAN_POINT ( 'NONE',  ( 0.0000000000000000000, 0.0000000000000000000, 0.3341359834659373140 ) ) ;
#222 = ADVANCED_FACE ( 'NONE', ( #224 ), #55, .T. ) ;
#223 = PRESENTATION_LAYER_ASSIGNMENT (  '', '', ( #115 ) ) ;
#224 = FACE_OUTER_BOUND ( 'NONE', #92, .T. ) ;
#225 = ADVANCED_FACE ( 'NONE', ( #150 ), #40, .F. ) ;
#226 = AXIS2_PLACEMENT_3D ( 'NONE', #168, #249, #123 ) ;
#227 = CARTESIAN_POINT ( 'NONE',  ( 0.0000000000000000000, 0.0000000000000000000, 2.834646000000000665 ) ) ;
#228 = UNCERTAINTY_MEASURE_WITH_UNIT (LENGTH_MEASURE( 1.000000000000000082E-05 ), #47, 'distance_accuracy_value', 'NONE');
#229 =( NAMED_UNIT ( * ) SI_UNIT ( $, .STERADIAN. ) SOLID_ANGLE_UNIT ( ) );
#230 = ADVANCED_FACE ( 'NONE', ( #21 ), #96, .T. ) ;
#231 = VERTEX_POINT ( 'NONE', #87 ) ;
#232 = ORIENTED_EDGE ( 'NONE', *, *, #167, .F. ) ;
#233 = ORIENTED_EDGE ( 'NONE', *, *, #185, .T. ) ;
#234 = EDGE_LOOP ( 'NONE', ( #7, #71, #238, #26 ) ) ;
#235 = CONICAL_SURFACE ( 'NONE', #60, 0.003936999999999995191, 0.5235987755983005920 ) ;
#236 = CIRCLE ( 'NONE', #122, 0.003936999999999995191 ) ;
#237 = PLANE ( 'NONE',  #84 ) ;
#238 = ORIENTED_EDGE ( 'NONE', *, *, #167, .T. ) ;
#239 = UNCERTAINTY_MEASURE_WITH_UNIT (LENGTH_MEASURE( 1.000000000000000082E-05 ), #52, 'distance_accuracy_value', 'NONE');
#240 = DIRECTION ( 'NONE',  ( -0.0000000000000000000, -0.0000000000000000000, -1.000000000000000000 ) ) ;
#241 = DIRECTION ( 'NONE',  ( -0.0000000000000000000, -0.0000000000000000000, -1.000000000000000000 ) ) ;
#242 = VECTOR ( 'NONE', #6, 39.37007874015748854 ) ;
#243 = DIRECTION ( 'NONE',  ( 0.0000000000000000000, 0.0000000000000000000, -1.000000000000000000 ) ) ;
#244 = DIRECTION ( 'NONE',  ( 1.000000000000000000, 0.0000000000000000000, 0.0000000000000000000 ) ) ;
#245 = DIRECTION ( 'NONE',  ( 0.5000000000000013323, 0.0000000000000000000, 0.8660254037844377084 ) ) ;
#246 =( LENGTH_UNIT ( ) NAMED_UNIT ( * ) SI_UNIT ( $, .METRE. ) );
#247 = AXIS2_PLACEMENT_3D ( 'NONE', #72, #156, #220 ) ;
#248 = DIRECTION ( 'NONE',  ( 0.7071067811865354713, 8.659560562354783714E-17, -0.7071067811865594521 ) ) ;
#249 = DIRECTION ( 'NONE',  ( 0.0000000000000000000, 0.0000000000000000000, 1.000000000000000000 ) ) ;
ENDSEC;
END-ISO-10303-21;
