ISO-10303-21;
HEADER;
FILE_DESCRIPTION (( 'STEP AP214' ),
    '1' );
FILE_NAME ('Micro_SBM-625-4X.STEP',
    '2021-09-02T17:03:52',
    ( '' ),
    ( '' ),
    'SwSTEP 2.0',
    'SolidWorks 2020',
    '' );
FILE_SCHEMA (( 'AUTOMOTIVE_DESIGN' ));
ENDSEC;

DATA;
#1 = ADVANCED_FACE ( 'NONE', ( #214 ), #288, .T. ) ;
#2 = LENGTH_MEASURE_WITH_UNIT ( LENGTH_MEASURE( 0.02539999999999999897 ), #84 );
#3 = EDGE_LOOP ( 'NONE', ( #324, #85, #334, #146 ) ) ;
#4 = VECTOR ( 'NONE', #274, 39.37007874015748143 ) ;
#5 = CARTESIAN_POINT ( 'NONE',  ( 0.2499999999999998890, 3.061616997868381785E-17, 0.5000000000000001110 ) ) ;
#6 = CARTESIAN_POINT ( 'NONE',  ( 0.3437499999999997224, 0.0000000000000000000, 2.049999999999995826 ) ) ;
#7 = ADVANCED_FACE ( 'NONE', ( #27 ), #217, .T. ) ;
#8 = DIRECTION ( 'NONE',  ( -1.000000000000000000, 0.0000000000000000000, 0.0000000000000000000 ) ) ;
#9 = CARTESIAN_POINT ( 'NONE',  ( 0.0000000000000000000, 0.0000000000000000000, 0.3125000000000000000 ) ) ;
#10 = VECTOR ( 'NONE', #19, 39.37007874015748143 ) ;
#11 = CARTESIAN_POINT ( 'NONE',  ( 0.0000000000000000000, 0.0000000000000000000, 0.5000000000000001110 ) ) ;
#12 = PRODUCT_DEFINITION_SHAPE ( 'NONE', 'NONE',  #339 ) ;
#13 = EDGE_CURVE ( 'NONE', #257, #335, #158, .T. ) ;
#14 = ORIENTED_EDGE ( 'NONE', *, *, #261, .F. ) ;
#15 = FILL_AREA_STYLE ('',( #129 ) ) ;
#16 = ORIENTED_EDGE ( 'NONE', *, *, #191, .F. ) ;
#17 = CARTESIAN_POINT ( 'NONE',  ( 0.0000000000000000000, 0.0000000000000000000, 0.3125000000000000000 ) ) ;
#18 = EDGE_CURVE ( 'NONE', #44, #133, #153, .T. ) ;
#19 = DIRECTION ( 'NONE',  ( -0.0000000000000000000, -0.0000000000000000000, -1.000000000000000000 ) ) ;
#20 = LENGTH_MEASURE_WITH_UNIT ( LENGTH_MEASURE( 0.02539999999999999897 ), #235 );
#21 = DIRECTION ( 'NONE',  ( 0.7071067811865475727, 8.659560562354932858E-17, -0.7071067811865474617 ) ) ;
#22 = ADVANCED_BREP_SHAPE_REPRESENTATION ( 'Micro_SBM-625-4X', ( #278, #62 ), #305 ) ;
#23 =( NAMED_UNIT ( * ) SI_UNIT ( $, .STERADIAN. ) SOLID_ANGLE_UNIT ( ) );
#24 = CIRCLE ( 'NONE', #341, 0.2499999999999998890 ) ;
#25 = ORIENTED_EDGE ( 'NONE', *, *, #18, .T. ) ;
#26 = CIRCLE ( 'NONE', #41, 0.3125000000000000000 ) ;
#27 = FACE_OUTER_BOUND ( 'NONE', #255, .T. ) ;
#28 = LENGTH_MEASURE_WITH_UNIT ( LENGTH_MEASURE( 0.02539999999999999897 ), #165 );
#29 = ADVANCED_FACE ( 'NONE', ( #295 ), #55, .T. ) ;
#30 = ORIENTED_EDGE ( 'NONE', *, *, #290, .F. ) ;
#31 = CARTESIAN_POINT ( 'NONE',  ( -0.3125000000000000000, 3.827021247335478926E-17, 1.699999999999999956 ) ) ;
#32 = CONICAL_SURFACE ( 'NONE', #50, 0.3437499999999997224, 0.08904958263449799793 ) ;
#33 = SPHERICAL_SURFACE ( 'NONE', #177, 0.3125000000000000000 ) ;
#34 = DIRECTION ( 'NONE',  ( 0.0000000000000000000, 0.0000000000000000000, 1.000000000000000000 ) ) ;
#35 = FACE_OUTER_BOUND ( 'NONE', #211, .T. ) ;
#36 = DIRECTION ( 'NONE',  ( 0.0000000000000000000, 0.0000000000000000000, -1.000000000000000000 ) ) ;
#37 = ORIENTED_EDGE ( 'NONE', *, *, #237, .T. ) ;
#38 = CIRCLE ( 'NONE', #231, 0.3125000000000000000 ) ;
#39 = CARTESIAN_POINT ( 'NONE',  ( -0.2499999999999998890, 0.0000000000000000000, 0.0000000000000000000 ) ) ;
#40 = COLOUR_RGB ( '',0.7921568627450980005, 0.8196078431372548767, 0.9333333333333333481 ) ;
#41 = AXIS2_PLACEMENT_3D ( 'NONE', #9, #225, #303 ) ;
#42 = CARTESIAN_POINT ( 'NONE',  ( 0.2974999999999997646, 3.643324227463372038E-17, 4.000000000000000000 ) ) ;
#43 = CIRCLE ( 'NONE', #266, 0.2499999999999998890 ) ;
#44 = VERTEX_POINT ( 'NONE', #31 ) ;
#45 = CARTESIAN_POINT ( 'NONE',  ( 0.2499999999999998890, 3.061616997868381785E-17, 0.0000000000000000000 ) ) ;
#46 = CARTESIAN_POINT ( 'NONE',  ( 0.0000000000000000000, 1.913510623667739463E-17, 0.0000000000000000000 ) ) ;
#47 = DIRECTION ( 'NONE',  ( -0.0000000000000000000, -0.0000000000000000000, -1.000000000000000000 ) ) ;
#48 = AXIS2_PLACEMENT_3D ( 'NONE', #11, #329, #252 ) ;
#49 = CARTESIAN_POINT ( 'NONE',  ( -0.2499999999999998890, 0.0000000000000000000, 0.5000000000000001110 ) ) ;
#50 = AXIS2_PLACEMENT_3D ( 'NONE', #68, #34, #142 ) ;
#51 = PRESENTATION_STYLE_ASSIGNMENT (( #86 ) ) ;
#52 = CARTESIAN_POINT ( 'NONE',  ( 0.0000000000000000000, 0.0000000000000000000, 0.0000000000000000000 ) ) ;
#53 = ORIENTED_EDGE ( 'NONE', *, *, #308, .T. ) ;
#54 = UNCERTAINTY_MEASURE_WITH_UNIT (LENGTH_MEASURE( 1.000000000000000082E-05 ), #289, 'distance_accuracy_value', 'NONE');
#55 = SPHERICAL_SURFACE ( 'NONE', #333, 0.3125000000000000000 ) ;
#56 = EDGE_CURVE ( 'NONE', #342, #257, #123, .T. ) ;
#57 = PRODUCT_CONTEXT ( 'NONE', #337, 'mechanical' ) ;
#58 = ORIENTED_EDGE ( 'NONE', *, *, #89, .T. ) ;
#59 = CIRCLE ( 'NONE', #254, 0.2499999999999998890 ) ;
#60 = SURFACE_STYLE_FILL_AREA ( #292 ) ;
#61 = ORIENTED_EDGE ( 'NONE', *, *, #13, .F. ) ;
#62 = AXIS2_PLACEMENT_3D ( 'NONE', #52, #83, #315 ) ;
#63 = AXIS2_PLACEMENT_3D ( 'NONE', #169, #253, #249 ) ;
#64 = ORIENTED_EDGE ( 'NONE', *, *, #250, .T. ) ;
#65 = APPLICATION_CONTEXT ( 'automotive_design' ) ;
#66 = EDGE_CURVE ( 'NONE', #112, #342, #67, .T. ) ;
#67 = CIRCLE ( 'NONE', #137, 0.2499999999999998890 ) ;
#68 = CARTESIAN_POINT ( 'NONE',  ( 0.0000000000000000000, 0.0000000000000000000, 2.049999999999995826 ) ) ;
#69 = CARTESIAN_POINT ( 'NONE',  ( -0.3437499999999997224, 4.209723372069023183E-17, 2.049999999999995826 ) ) ;
#70 = EDGE_CURVE ( 'NONE', #342, #44, #121, .T. ) ;
#71 = DIRECTION ( 'NONE',  ( -0.0000000000000000000, -0.0000000000000000000, -1.000000000000000000 ) ) ;
#72 = DIRECTION ( 'NONE',  ( -1.000000000000000000, 0.0000000000000000000, 0.0000000000000000000 ) ) ;
#73 = ORIENTED_EDGE ( 'NONE', *, *, #89, .F. ) ;
#74 = PRESENTATION_LAYER_ASSIGNMENT (  '', '', ( #220 ) ) ;
#75 =( NAMED_UNIT ( * ) PLANE_ANGLE_UNIT ( ) SI_UNIT ( $, .RADIAN. ) );
#76 = CIRCLE ( 'NONE', #175, 0.3125000000000000000 ) ;
#77 = ORIENTED_EDGE ( 'NONE', *, *, #82, .F. ) ;
#78 = CARTESIAN_POINT ( 'NONE',  ( 0.0000000000000000000, 0.0000000000000000000, 1.000000000000000000 ) ) ;
#79 = ORIENTED_EDGE ( 'NONE', *, *, #105, .F. ) ;
#80 = DIRECTION ( 'NONE',  ( 1.000000000000000000, 0.0000000000000000000, 0.0000000000000000000 ) ) ;
#81 = DIRECTION ( 'NONE',  ( 1.000000000000000000, 0.0000000000000000000, 0.0000000000000000000 ) ) ;
#82 = EDGE_CURVE ( 'NONE', #163, #115, #38, .T. ) ;
#83 = DIRECTION ( 'NONE',  ( 0.0000000000000000000, 0.0000000000000000000, 1.000000000000000000 ) ) ;
#84 =( LENGTH_UNIT ( ) NAMED_UNIT ( * ) SI_UNIT ( $, .METRE. ) );
#85 = ORIENTED_EDGE ( 'NONE', *, *, #168, .T. ) ;
#86 = SURFACE_STYLE_USAGE ( .BOTH. , #318 ) ;
#87 = AXIS2_PLACEMENT_3D ( 'NONE', #154, #183, #208 ) ;
#88 = ORIENTED_EDGE ( 'NONE', *, *, #13, .T. ) ;
#89 = EDGE_CURVE ( 'NONE', #112, #133, #251, .T. ) ;
#90 = DIRECTION ( 'NONE',  ( 1.000000000000000000, 0.0000000000000000000, -0.0000000000000000000 ) ) ;
#91 = VERTEX_POINT ( 'NONE', #5 ) ;
#92 = CIRCLE ( 'NONE', #130, 0.2974999999999997646 ) ;
#93 = DIRECTION ( 'NONE',  ( -1.000000000000000000, 0.0000000000000000000, 0.0000000000000000000 ) ) ;
#94 = AXIS2_PLACEMENT_3D ( 'NONE', #269, #272, #343 ) ;
#95 = ORIENTED_EDGE ( 'NONE', *, *, #18, .F. ) ;
#96 = AXIS2_PLACEMENT_3D ( 'NONE', #135, #162, #90 ) ;
#97 = CARTESIAN_POINT ( 'NONE',  ( 0.3125000000000000000, 3.827021247335478926E-17, 3.984999999999999876 ) ) ;
#98 = CARTESIAN_POINT ( 'NONE',  ( 0.0000000000000000000, 0.0000000000000000000, 0.5000000000000001110 ) ) ;
#99 = FACE_OUTER_BOUND ( 'NONE', #116, .T. ) ;
#100 = PRESENTATION_LAYER_ASSIGNMENT (  '', '', ( #236 ) ) ;
#101 = ORIENTED_EDGE ( 'NONE', *, *, #202, .T. ) ;
#102 = DIRECTION ( 'NONE',  ( -0.08893193797450570093, 1.089102131824493708E-17, 0.9960377053144617854 ) ) ;
#103 = DIRECTION ( 'NONE',  ( 1.000000000000000000, 0.0000000000000000000, 0.0000000000000000000 ) ) ;
#104 = ORIENTED_EDGE ( 'NONE', *, *, #207, .F. ) ;
#105 = EDGE_CURVE ( 'NONE', #335, #91, #59, .T. ) ;
#106 = DIRECTION ( 'NONE',  ( -0.0000000000000000000, -0.0000000000000000000, -1.000000000000000000 ) ) ;
#107 = FACE_OUTER_BOUND ( 'NONE', #230, .T. ) ;
#108 = ADVANCED_FACE ( 'NONE', ( #304 ), #275, .T. ) ;
#109 = DIRECTION ( 'NONE',  ( -1.224646799147353207E-16, 1.000000000000000000, 0.0000000000000000000 ) ) ;
#110 =( CONVERSION_BASED_UNIT ( 'INCH', #2 ) LENGTH_UNIT ( ) NAMED_UNIT ( #189 ) );
#111 = CLOSED_SHELL ( 'NONE', ( #182, #221, #179, #108, #199, #29, #122, #161, #7, #323, #1 ) ) ;
#112 = VERTEX_POINT ( 'NONE', #301 ) ;
#113 = UNCERTAINTY_MEASURE_WITH_UNIT (LENGTH_MEASURE( 1.000000000000000082E-05 ), #184, 'distance_accuracy_value', 'NONE');
#114 = ORIENTED_EDGE ( 'NONE', *, *, #191, .T. ) ;
#115 = VERTEX_POINT ( 'NONE', #326 ) ;
#116 = EDGE_LOOP ( 'NONE', ( #64, #101, #79, #61, #270 ) ) ;
#117 = ORIENTED_EDGE ( 'NONE', *, *, #290, .T. ) ;
#118 = DIRECTION ( 'NONE',  ( -0.0000000000000000000, -0.0000000000000000000, -1.000000000000000000 ) ) ;
#119 = MECHANICAL_DESIGN_GEOMETRIC_PRESENTATION_REPRESENTATION (  '', ( #236 ), #127 ) ;
#120 = CARTESIAN_POINT ( 'NONE',  ( 0.0000000000000000000, 0.0000000000000000000, 1.000000000000000000 ) ) ;
#121 = LINE ( 'NONE', #69, #328 ) ;
#122 = ADVANCED_FACE ( 'NONE', ( #330 ), #32, .T. ) ;
#123 = LINE ( 'NONE', #39, #4 ) ;
#124 = FACE_OUTER_BOUND ( 'NONE', #3, .T. ) ;
#125 = CARTESIAN_POINT ( 'NONE',  ( 0.0000000000000000000, 0.0000000000000000000, 3.984999999999999876 ) ) ;
#126 = CARTESIAN_POINT ( 'NONE',  ( 0.0000000000000000000, 0.0000000000000000000, 4.000000000000000000 ) ) ;
#127 =( GEOMETRIC_REPRESENTATION_CONTEXT ( 3 ) GLOBAL_UNCERTAINTY_ASSIGNED_CONTEXT ( ( #113 ) ) GLOBAL_UNIT_ASSIGNED_CONTEXT ( ( #184, #139, #320 ) ) REPRESENTATION_CONTEXT ( 'NONE', 'WORKASPACE' ) );
#128 = CARTESIAN_POINT ( 'NONE',  ( 0.0000000000000000000, 0.0000000000000000000, 0.3125000000000000000 ) ) ;
#129 = FILL_AREA_STYLE_COLOUR ( '', #218 ) ;
#130 = AXIS2_PLACEMENT_3D ( 'NONE', #287, #336, #81 ) ;
#131 = CIRCLE ( 'NONE', #271, 0.2974999999999997646 ) ;
#132 = FILL_AREA_STYLE_COLOUR ( '', #40 ) ;
#133 = VERTEX_POINT ( 'NONE', #276 ) ;
#134 = CARTESIAN_POINT ( 'NONE',  ( 0.0000000000000000000, 0.0000000000000000000, 0.5000000000000001110 ) ) ;
#135 = CARTESIAN_POINT ( 'NONE',  ( 0.0000000000000000000, 0.0000000000000000000, 4.000000000000000000 ) ) ;
#136 = EDGE_LOOP ( 'NONE', ( #232, #176, #58, #95 ) ) ;
#137 = AXIS2_PLACEMENT_3D ( 'NONE', #120, #118, #8 ) ;
#138 = EDGE_LOOP ( 'NONE', ( #14, #321, #259, #77 ) ) ;
#139 =( NAMED_UNIT ( * ) PLANE_ANGLE_UNIT ( ) SI_UNIT ( $, .RADIAN. ) );
#140 = ORIENTED_EDGE ( 'NONE', *, *, #56, .T. ) ;
#141 = DIRECTION ( 'NONE',  ( -1.000000000000000000, 0.0000000000000000000, 0.0000000000000000000 ) ) ;
#142 = DIRECTION ( 'NONE',  ( 1.000000000000000000, 0.0000000000000000000, 0.0000000000000000000 ) ) ;
#143 = DIMENSIONAL_EXPONENTS ( 1.000000000000000000, 0.0000000000000000000, 0.0000000000000000000, 0.0000000000000000000, 0.0000000000000000000, 0.0000000000000000000, 0.0000000000000000000 ) ;
#144 = CYLINDRICAL_SURFACE ( 'NONE', #314, 0.2499999999999998890 ) ;
#145 = FACE_OUTER_BOUND ( 'NONE', #239, .T. ) ;
#146 = ORIENTED_EDGE ( 'NONE', *, *, #187, .F. ) ;
#147 = CARTESIAN_POINT ( 'NONE',  ( 0.2974999999999997646, 3.735172737399425174E-17, 4.000000000000000000 ) ) ;
#148 = VECTOR ( 'NONE', #312, 39.37007874015748143 ) ;
#149 = AXIS2_PLACEMENT_3D ( 'NONE', #125, #174, #340 ) ;
#150 = CARTESIAN_POINT ( 'NONE',  ( -0.2974999999999997646, 0.0000000000000000000, 4.000000000000000000 ) ) ;
#151 = ORIENTED_EDGE ( 'NONE', *, *, #187, .T. ) ;
#152 = CIRCLE ( 'NONE', #87, 0.3125000000000000000 ) ;
#153 = CIRCLE ( 'NONE', #94, 0.3125000000000000000 ) ;
#154 = CARTESIAN_POINT ( 'NONE',  ( 0.0000000000000000000, 0.0000000000000000000, 1.699999999999999956 ) ) ;
#155 = CIRCLE ( 'NONE', #48, 0.2499999999999998890 ) ;
#156 = FACE_OUTER_BOUND ( 'NONE', #297, .T. ) ;
#157 = LINE ( 'NONE', #291, #148 ) ;
#158 = CIRCLE ( 'NONE', #338, 0.2499999999999998890 ) ;
#159 = APPLICATION_PROTOCOL_DEFINITION ( 'draft international standard', 'automotive_design', 1998, #65 ) ;
#160 = ORIENTED_EDGE ( 'NONE', *, *, #226, .F. ) ;
#161 = ADVANCED_FACE ( 'NONE', ( #35 ), #144, .T. ) ;
#162 = DIRECTION ( 'NONE',  ( 0.0000000000000000000, 0.0000000000000000000, 1.000000000000000000 ) ) ;
#163 = VERTEX_POINT ( 'NONE', #97 ) ;
#164 = ORIENTED_EDGE ( 'NONE', *, *, #70, .T. ) ;
#165 =( LENGTH_UNIT ( ) NAMED_UNIT ( * ) SI_UNIT ( $, .METRE. ) );
#166 = EDGE_LOOP ( 'NONE', ( #286, #164, #298, #73 ) ) ;
#167 = DIRECTION ( 'NONE',  ( 0.0000000000000000000, 0.0000000000000000000, 1.000000000000000000 ) ) ;
#168 = EDGE_CURVE ( 'NONE', #91, #345, #155, .T. ) ;
#169 = CARTESIAN_POINT ( 'NONE',  ( 0.0000000000000000000, 0.0000000000000000000, 4.000000000000000000 ) ) ;
#170 = CARTESIAN_POINT ( 'NONE',  ( 0.0000000000000000000, 0.0000000000000000000, 3.984999999999999876 ) ) ;
#171 = EDGE_CURVE ( 'NONE', #247, #195, #131, .T. ) ;
#172 = CARTESIAN_POINT ( 'NONE',  ( 0.0000000000000000000, 0.0000000000000000000, 4.000000000000000000 ) ) ;
#173 = CARTESIAN_POINT ( 'NONE',  ( 0.3125000000000000000, 3.827021247335478926E-17, 4.000000000000000000 ) ) ;
#174 = DIRECTION ( 'NONE',  ( 0.0000000000000000000, 0.0000000000000000000, -1.000000000000000000 ) ) ;
#175 = AXIS2_PLACEMENT_3D ( 'NONE', #128, #264, #109 ) ;
#176 = ORIENTED_EDGE ( 'NONE', *, *, #66, .F. ) ;
#177 = AXIS2_PLACEMENT_3D ( 'NONE', #17, #80, #263 ) ;
#178 = ORIENTED_EDGE ( 'NONE', *, *, #308, .F. ) ;
#179 = ADVANCED_FACE ( 'NONE', ( #99 ), #200, .T. ) ;
#180 = PRESENTATION_STYLE_ASSIGNMENT (( #205 ) ) ;
#181 = AXIS2_PLACEMENT_3D ( 'NONE', #219, #167, #103 ) ;
#182 = ADVANCED_FACE ( 'NONE', ( #145 ), #325, .T. ) ;
#183 = DIRECTION ( 'NONE',  ( 0.0000000000000000000, 0.0000000000000000000, 1.000000000000000000 ) ) ;
#184 =( CONVERSION_BASED_UNIT ( 'INCH', #28 ) LENGTH_UNIT ( ) NAMED_UNIT ( #143 ) );
#185 = AXIS2_PLACEMENT_3D ( 'NONE', #190, #213, #93 ) ;
#186 = ORIENTED_EDGE ( 'NONE', *, *, #171, .T. ) ;
#187 = EDGE_CURVE ( 'NONE', #335, #244, #26, .T. ) ;
#188 = SHAPE_DEFINITION_REPRESENTATION ( #12, #22 ) ;
#189 = DIMENSIONAL_EXPONENTS ( 1.000000000000000000, 0.0000000000000000000, 0.0000000000000000000, 0.0000000000000000000, 0.0000000000000000000, 0.0000000000000000000, 0.0000000000000000000 ) ;
#190 = CARTESIAN_POINT ( 'NONE',  ( 0.0000000000000000000, 0.0000000000000000000, 4.000000000000000000 ) ) ;
#191 = EDGE_CURVE ( 'NONE', #163, #133, #273, .T. ) ;
#192 = ORIENTED_EDGE ( 'NONE', *, *, #66, .T. ) ;
#193 = CARTESIAN_POINT ( 'NONE',  ( 0.0000000000000000000, 0.2499999999999999167, 0.5000000000000001110 ) ) ;
#194 = ORIENTED_EDGE ( 'NONE', *, *, #243, .F. ) ;
#195 = VERTEX_POINT ( 'NONE', #147 ) ;
#196 = VECTOR ( 'NONE', #21, 39.37007874015748143 ) ;
#197 = DIRECTION ( 'NONE',  ( 0.0000000000000000000, 0.0000000000000000000, 1.000000000000000000 ) ) ;
#198 = DIRECTION ( 'NONE',  ( -1.000000000000000000, 0.0000000000000000000, 0.0000000000000000000 ) ) ;
#199 = ADVANCED_FACE ( 'NONE', ( #124 ), #33, .T. ) ;
#200 = CYLINDRICAL_SURFACE ( 'NONE', #238, 0.2499999999999998890 ) ;
#201 = CARTESIAN_POINT ( 'NONE',  ( 0.0000000000000000000, 0.0000000000000000000, 0.0000000000000000000 ) ) ;
#202 = EDGE_CURVE ( 'NONE', #112, #91, #227, .T. ) ;
#203 = DIRECTION ( 'NONE',  ( 1.000000000000000000, 0.0000000000000000000, 0.0000000000000000000 ) ) ;
#204 = EDGE_LOOP ( 'NONE', ( #194, #37, #88, #151 ) ) ;
#205 = SURFACE_STYLE_USAGE ( .BOTH. , #262 ) ;
#206 = CYLINDRICAL_SURFACE ( 'NONE', #246, 0.3125000000000000000 ) ;
#207 = EDGE_CURVE ( 'NONE', #247, #115, #157, .T. ) ;
#208 = DIRECTION ( 'NONE',  ( 1.000000000000000000, 0.0000000000000000000, 0.0000000000000000000 ) ) ;
#209 = PLANE ( 'NONE',  #96 ) ;
#210 = DIRECTION ( 'NONE',  ( -0.0000000000000000000, -0.0000000000000000000, -1.000000000000000000 ) ) ;
#211 = EDGE_LOOP ( 'NONE', ( #265, #192, #140, #309, #294 ) ) ;
#212 = AXIS2_PLACEMENT_3D ( 'NONE', #216, #268, #322 ) ;
#213 = DIRECTION ( 'NONE',  ( -0.0000000000000000000, -0.0000000000000000000, -1.000000000000000000 ) ) ;
#214 = FACE_OUTER_BOUND ( 'NONE', #138, .T. ) ;
#215 =( NAMED_UNIT ( * ) PLANE_ANGLE_UNIT ( ) SI_UNIT ( $, .RADIAN. ) );
#216 = CARTESIAN_POINT ( 'NONE',  ( 0.0000000000000000000, 0.0000000000000000000, 4.000000000000000000 ) ) ;
#217 = CYLINDRICAL_SURFACE ( 'NONE', #185, 0.3125000000000000000 ) ;
#218 = COLOUR_RGB ( '',0.7921568627450980005, 0.8196078431372548767, 0.9333333333333333481 ) ;
#219 = CARTESIAN_POINT ( 'NONE',  ( 0.0000000000000000000, 0.0000000000000000000, 2.049999999999995826 ) ) ;
#220 = STYLED_ITEM ( 'NONE', ( #180 ), #278 ) ;
#221 = ADVANCED_FACE ( 'NONE', ( #107 ), #206, .T. ) ;
#222 = DIRECTION ( 'NONE',  ( 0.08893193797450570093, 0.0000000000000000000, 0.9960377053144617854 ) ) ;
#223 = DIRECTION ( 'NONE',  ( -0.0000000000000000000, -0.0000000000000000000, -1.000000000000000000 ) ) ;
#224 = VECTOR ( 'NONE', #47, 39.37007874015748143 ) ;
#225 = DIRECTION ( 'NONE',  ( -1.000000000000000000, 0.0000000000000000000, 0.0000000000000000000 ) ) ;
#226 = EDGE_CURVE ( 'NONE', #115, #163, #307, .T. ) ;
#227 = LINE ( 'NONE', #45, #10 ) ;
#228 =( GEOMETRIC_REPRESENTATION_CONTEXT ( 3 ) GLOBAL_UNCERTAINTY_ASSIGNED_CONTEXT ( ( #54 ) ) GLOBAL_UNIT_ASSIGNED_CONTEXT ( ( #289, #75, #282 ) ) REPRESENTATION_CONTEXT ( 'NONE', 'WORKASPACE' ) );
#229 = DIRECTION ( 'NONE',  ( -1.000000000000000000, 0.0000000000000000000, 0.0000000000000000000 ) ) ;
#230 = EDGE_LOOP ( 'NONE', ( #284, #114, #344, #178 ) ) ;
#231 = AXIS2_PLACEMENT_3D ( 'NONE', #170, #36, #256 ) ;
#232 = ORIENTED_EDGE ( 'NONE', *, *, #70, .F. ) ;
#233 = DIRECTION ( 'NONE',  ( -0.0000000000000000000, -0.0000000000000000000, -1.000000000000000000 ) ) ;
#234 = CARTESIAN_POINT ( 'NONE',  ( 0.0000000000000000000, 0.0000000000000000000, 0.5000000000000001110 ) ) ;
#235 =( LENGTH_UNIT ( ) NAMED_UNIT ( * ) SI_UNIT ( $, .METRE. ) );
#236 = STYLED_ITEM ( 'NONE', ( #51 ), #22 ) ;
#237 = EDGE_CURVE ( 'NONE', #345, #257, #43, .T. ) ;
#238 = AXIS2_PLACEMENT_3D ( 'NONE', #277, #331, #302 ) ;
#239 = EDGE_LOOP ( 'NONE', ( #30, #316, #160, #104 ) ) ;
#240 = CARTESIAN_POINT ( 'NONE',  ( 3.061616997868381785E-17, -0.2499999999999999167, 0.5000000000000001110 ) ) ;
#241 = DIRECTION ( 'NONE',  ( -1.000000000000000000, 0.0000000000000000000, 0.0000000000000000000 ) ) ;
#242 = CARTESIAN_POINT ( 'NONE',  ( -0.2499999999999998890, 3.444319122601930356E-17, 1.000000000000000000 ) ) ;
#243 = EDGE_CURVE ( 'NONE', #345, #244, #76, .T. ) ;
#244 = VERTEX_POINT ( 'NONE', #46 ) ;
#245 = UNCERTAINTY_MEASURE_WITH_UNIT (LENGTH_MEASURE( 1.000000000000000082E-05 ), #110, 'distance_accuracy_value', 'NONE');
#246 = AXIS2_PLACEMENT_3D ( 'NONE', #126, #210, #72 ) ;
#247 = VERTEX_POINT ( 'NONE', #150 ) ;
#248 = CARTESIAN_POINT ( 'NONE',  ( 0.0000000000000000000, 0.0000000000000000000, 0.3125000000000000000 ) ) ;
#249 = DIRECTION ( 'NONE',  ( -1.000000000000000000, 0.0000000000000000000, 0.0000000000000000000 ) ) ;
#250 = EDGE_CURVE ( 'NONE', #342, #112, #24, .T. ) ;
#251 = LINE ( 'NONE', #6, #260 ) ;
#252 = DIRECTION ( 'NONE',  ( -1.000000000000000000, 0.0000000000000000000, 0.0000000000000000000 ) ) ;
#253 = DIRECTION ( 'NONE',  ( 0.0000000000000000000, 0.0000000000000000000, -1.000000000000000000 ) ) ;
#254 = AXIS2_PLACEMENT_3D ( 'NONE', #98, #223, #198 ) ;
#255 = EDGE_LOOP ( 'NONE', ( #16, #299, #53, #25 ) ) ;
#256 = DIRECTION ( 'NONE',  ( 1.000000000000000000, 0.0000000000000000000, 0.0000000000000000000 ) ) ;
#257 = VERTEX_POINT ( 'NONE', #49 ) ;
#258 = LINE ( 'NONE', #42, #196 ) ;
#259 = ORIENTED_EDGE ( 'NONE', *, *, #207, .T. ) ;
#260 = VECTOR ( 'NONE', #222, 39.37007874015748854 ) ;
#261 = EDGE_CURVE ( 'NONE', #195, #163, #258, .T. ) ;
#262 = SURFACE_SIDE_STYLE ('',( #332 ) ) ;
#263 = DIRECTION ( 'NONE',  ( 0.0000000000000000000, 1.000000000000000000, 0.0000000000000000000 ) ) ;
#264 = DIRECTION ( 'NONE',  ( 1.000000000000000000, 1.224646799147353207E-16, -0.0000000000000000000 ) ) ;
#265 = ORIENTED_EDGE ( 'NONE', *, *, #202, .F. ) ;
#266 = AXIS2_PLACEMENT_3D ( 'NONE', #234, #106, #229 ) ;
#267 = DIMENSIONAL_EXPONENTS ( 1.000000000000000000, 0.0000000000000000000, 0.0000000000000000000, 0.0000000000000000000, 0.0000000000000000000, 0.0000000000000000000, 0.0000000000000000000 ) ;
#268 = DIRECTION ( 'NONE',  ( 0.0000000000000000000, 0.0000000000000000000, -1.000000000000000000 ) ) ;
#269 = CARTESIAN_POINT ( 'NONE',  ( 0.0000000000000000000, 0.0000000000000000000, 1.699999999999999956 ) ) ;
#270 = ORIENTED_EDGE ( 'NONE', *, *, #56, .F. ) ;
#271 = AXIS2_PLACEMENT_3D ( 'NONE', #172, #197, #300 ) ;
#272 = DIRECTION ( 'NONE',  ( 0.0000000000000000000, 0.0000000000000000000, 1.000000000000000000 ) ) ;
#273 = LINE ( 'NONE', #173, #283 ) ;
#274 = DIRECTION ( 'NONE',  ( -0.0000000000000000000, -0.0000000000000000000, -1.000000000000000000 ) ) ;
#275 = CONICAL_SURFACE ( 'NONE', #181, 0.3437499999999997224, 0.08904958263449799793 ) ;
#276 = CARTESIAN_POINT ( 'NONE',  ( 0.3125000000000000000, 0.0000000000000000000, 1.699999999999999956 ) ) ;
#277 = CARTESIAN_POINT ( 'NONE',  ( 0.0000000000000000000, 0.0000000000000000000, 0.0000000000000000000 ) ) ;
#278 = MANIFOLD_SOLID_BREP ( 'Cut-Revolve3', #111 ) ;
#279 = PRODUCT_RELATED_PRODUCT_CATEGORY ( 'part', '', ( #311 ) ) ;
#280 = DIRECTION ( 'NONE',  ( -0.0000000000000000000, -0.0000000000000000000, -1.000000000000000000 ) ) ;
#281 = PRODUCT_DEFINITION_FORMATION_WITH_SPECIFIED_SOURCE ( 'ANY', '', #311, .NOT_KNOWN. ) ;
#282 =( NAMED_UNIT ( * ) SI_UNIT ( $, .STERADIAN. ) SOLID_ANGLE_UNIT ( ) );
#283 = VECTOR ( 'NONE', #280, 39.37007874015748143 ) ;
#284 = ORIENTED_EDGE ( 'NONE', *, *, #226, .T. ) ;
#285 = DIRECTION ( 'NONE',  ( -1.000000000000000000, 0.0000000000000000000, 0.0000000000000000000 ) ) ;
#286 = ORIENTED_EDGE ( 'NONE', *, *, #250, .F. ) ;
#287 = CARTESIAN_POINT ( 'NONE',  ( 0.0000000000000000000, 0.0000000000000000000, 4.000000000000000000 ) ) ;
#288 = CONICAL_SURFACE ( 'NONE', #212, 0.2974999999999997646, 0.7853981633974482790 ) ;
#289 =( CONVERSION_BASED_UNIT ( 'INCH', #20 ) LENGTH_UNIT ( ) NAMED_UNIT ( #267 ) );
#290 = EDGE_CURVE ( 'NONE', #195, #247, #92, .T. ) ;
#291 = CARTESIAN_POINT ( 'NONE',  ( -0.2974999999999997646, 0.0000000000000000000, 4.000000000000000000 ) ) ;
#292 = FILL_AREA_STYLE ('',( #132 ) ) ;
#293 = APPLICATION_PROTOCOL_DEFINITION ( 'draft international standard', 'automotive_design', 1998, #337 ) ;
#294 = ORIENTED_EDGE ( 'NONE', *, *, #168, .F. ) ;
#295 = FACE_OUTER_BOUND ( 'NONE', #204, .T. ) ;
#296 = EDGE_CURVE ( 'NONE', #133, #44, #152, .T. ) ;
#297 = EDGE_LOOP ( 'NONE', ( #186, #117 ) ) ;
#298 = ORIENTED_EDGE ( 'NONE', *, *, #296, .F. ) ;
#299 = ORIENTED_EDGE ( 'NONE', *, *, #82, .T. ) ;
#300 = DIRECTION ( 'NONE',  ( 1.000000000000000000, 0.0000000000000000000, 0.0000000000000000000 ) ) ;
#301 = CARTESIAN_POINT ( 'NONE',  ( 0.2499999999999998890, 0.0000000000000000000, 1.000000000000000000 ) ) ;
#302 = DIRECTION ( 'NONE',  ( -1.000000000000000000, 0.0000000000000000000, 0.0000000000000000000 ) ) ;
#303 = DIRECTION ( 'NONE',  ( 0.0000000000000000000, 0.0000000000000000000, 1.000000000000000000 ) ) ;
#304 = FACE_OUTER_BOUND ( 'NONE', #166, .T. ) ;
#305 =( GEOMETRIC_REPRESENTATION_CONTEXT ( 3 ) GLOBAL_UNCERTAINTY_ASSIGNED_CONTEXT ( ( #245 ) ) GLOBAL_UNIT_ASSIGNED_CONTEXT ( ( #110, #215, #23 ) ) REPRESENTATION_CONTEXT ( 'NONE', 'WORKASPACE' ) );
#306 = LINE ( 'NONE', #310, #224 ) ;
#307 = CIRCLE ( 'NONE', #149, 0.3125000000000000000 ) ;
#308 = EDGE_CURVE ( 'NONE', #115, #44, #306, .T. ) ;
#309 = ORIENTED_EDGE ( 'NONE', *, *, #237, .F. ) ;
#310 = CARTESIAN_POINT ( 'NONE',  ( -0.3125000000000000000, 0.0000000000000000000, 4.000000000000000000 ) ) ;
#311 = PRODUCT ( 'Micro_SBM-625-4X', 'Micro_SBM-625-4X', '', ( #57 ) ) ;
#312 = DIRECTION ( 'NONE',  ( -0.7071067811865475727, 0.0000000000000000000, -0.7071067811865474617 ) ) ;
#313 = MECHANICAL_DESIGN_GEOMETRIC_PRESENTATION_REPRESENTATION (  '', ( #220 ), #228 ) ;
#314 = AXIS2_PLACEMENT_3D ( 'NONE', #201, #71, #141 ) ;
#315 = DIRECTION ( 'NONE',  ( 1.000000000000000000, 0.0000000000000000000, 0.0000000000000000000 ) ) ;
#316 = ORIENTED_EDGE ( 'NONE', *, *, #261, .T. ) ;
#317 = PRODUCT_DEFINITION_CONTEXT ( 'detailed design', #65, 'design' ) ;
#318 = SURFACE_SIDE_STYLE ('',( #60 ) ) ;
#319 = DIRECTION ( 'NONE',  ( -0.0000000000000000000, -0.0000000000000000000, -1.000000000000000000 ) ) ;
#320 =( NAMED_UNIT ( * ) SI_UNIT ( $, .STERADIAN. ) SOLID_ANGLE_UNIT ( ) );
#321 = ORIENTED_EDGE ( 'NONE', *, *, #171, .F. ) ;
#322 = DIRECTION ( 'NONE',  ( -1.000000000000000000, 0.0000000000000000000, 0.0000000000000000000 ) ) ;
#323 = ADVANCED_FACE ( 'NONE', ( #156 ), #209, .T. ) ;
#324 = ORIENTED_EDGE ( 'NONE', *, *, #105, .T. ) ;
#325 = CONICAL_SURFACE ( 'NONE', #63, 0.2974999999999997646, 0.7853981633974482790 ) ;
#326 = CARTESIAN_POINT ( 'NONE',  ( -0.3125000000000000000, 0.0000000000000000000, 3.984999999999999876 ) ) ;
#327 = DIRECTION ( 'NONE',  ( 0.0000000000000000000, 1.000000000000000000, 0.0000000000000000000 ) ) ;
#328 = VECTOR ( 'NONE', #102, 39.37007874015748854 ) ;
#329 = DIRECTION ( 'NONE',  ( -0.0000000000000000000, -0.0000000000000000000, -1.000000000000000000 ) ) ;
#330 = FACE_OUTER_BOUND ( 'NONE', #136, .T. ) ;
#331 = DIRECTION ( 'NONE',  ( -0.0000000000000000000, -0.0000000000000000000, -1.000000000000000000 ) ) ;
#332 = SURFACE_STYLE_FILL_AREA ( #15 ) ;
#333 = AXIS2_PLACEMENT_3D ( 'NONE', #248, #203, #327 ) ;
#334 = ORIENTED_EDGE ( 'NONE', *, *, #243, .T. ) ;
#335 = VERTEX_POINT ( 'NONE', #193 ) ;
#336 = DIRECTION ( 'NONE',  ( 0.0000000000000000000, 0.0000000000000000000, 1.000000000000000000 ) ) ;
#337 = APPLICATION_CONTEXT ( 'automotive_design' ) ;
#338 = AXIS2_PLACEMENT_3D ( 'NONE', #134, #319, #241 ) ;
#339 = PRODUCT_DEFINITION ( 'UNKNOWN', '', #281, #317 ) ;
#340 = DIRECTION ( 'NONE',  ( 1.000000000000000000, 0.0000000000000000000, 0.0000000000000000000 ) ) ;
#341 = AXIS2_PLACEMENT_3D ( 'NONE', #78, #233, #285 ) ;
#342 = VERTEX_POINT ( 'NONE', #242 ) ;
#343 = DIRECTION ( 'NONE',  ( 1.000000000000000000, 0.0000000000000000000, 0.0000000000000000000 ) ) ;
#344 = ORIENTED_EDGE ( 'NONE', *, *, #296, .T. ) ;
#345 = VERTEX_POINT ( 'NONE', #240 ) ;
ENDSEC;
END-ISO-10303-21;
