ISO-10303-21;
HEADER;
FILE_DESCRIPTION (( 'STEP AP214' ),
    '1' );
FILE_NAME ('Micro_SHLM-160-4X.STEP',
    '2021-09-02T08:33:47',
    ( '' ),
    ( '' ),
    'SwSTEP 2.0',
    'SolidWorks 2020',
    '' );
FILE_SCHEMA (( 'AUTOMOTIVE_DESIGN' ));
ENDSEC;

DATA;
#1 = ADVANCED_FACE ( 'NONE', ( #92 ), #201, .T. ) ;
#2 = CIRCLE ( 'NONE', #176, 0.2999605000000007404 ) ;
#3 = DIRECTION ( 'NONE',  ( -1.000000000000000000, 0.0000000000000000000, 0.0000000000000000000 ) ) ;
#4 = DIRECTION ( 'NONE',  ( -0.0000000000000000000, -0.0000000000000000000, -1.000000000000000000 ) ) ;
#5 = UNCERTAINTY_MEASURE_WITH_UNIT (LENGTH_MEASURE( 1.000000000000000082E-05 ), #58, 'distance_accuracy_value', 'NONE');
#6 = CARTESIAN_POINT ( 'NONE',  ( 0.2999605000000007404, 3.765305171892452141E-17, 5.905511999999999873 ) ) ;
#7 = DIRECTION ( 'NONE',  ( -1.224646799147353207E-16, -0.0000000000000000000, -1.000000000000000000 ) ) ;
#8 = AXIS2_PLACEMENT_3D ( 'NONE', #118, #194, #37 ) ;
#9 = ADVANCED_FACE ( 'NONE', ( #91 ), #292, .T. ) ;
#10 =( GEOMETRIC_REPRESENTATION_CONTEXT ( 3 ) GLOBAL_UNCERTAINTY_ASSIGNED_CONTEXT ( ( #5 ) ) GLOBAL_UNIT_ASSIGNED_CONTEXT ( ( #58, #164, #145 ) ) REPRESENTATION_CONTEXT ( 'NONE', 'WORKASPACE' ) );
#11 = DIRECTION ( 'NONE',  ( -0.1736481776669311639, 2.126576849575783008E-17, 0.9848077530122080203 ) ) ;
#12 = LINE ( 'NONE', #123, #19 ) ;
#13 = EDGE_CURVE ( 'NONE', #156, #276, #178, .T. ) ;
#14 = CIRCLE ( 'NONE', #56, 0.3146455394999999045 ) ;
#15 = CIRCLE ( 'NONE', #69, 0.2999605000000007404 ) ;
#16 = CARTESIAN_POINT ( 'NONE',  ( 3.616083184063142379E-16, 0.0000000000000000000, 2.952755999999999936 ) ) ;
#17 = DIRECTION ( 'NONE',  ( 0.1736481776669313581, 0.0000000000000000000, 0.9848077530122077983 ) ) ;
#18 = VECTOR ( 'NONE', #189, 39.37007874015748143 ) ;
#19 = VECTOR ( 'NONE', #220, 39.37007874015748143 ) ;
#20 = SURFACE_STYLE_USAGE ( .BOTH. , #87 ) ;
#21 = EDGE_LOOP ( 'NONE', ( #179, #106, #46, #42 ) ) ;
#22 = EDGE_LOOP ( 'NONE', ( #228, #133 ) ) ;
#23 = EDGE_CURVE ( 'NONE', #225, #276, #125, .T. ) ;
#24 = APPLICATION_PROTOCOL_DEFINITION ( 'draft international standard', 'automotive_design', 1998, #212 ) ;
#25 = EDGE_LOOP ( 'NONE', ( #93, #202, #227, #105 ) ) ;
#26 = VECTOR ( 'NONE', #231, 39.37007874015748143 ) ;
#27 = AXIS2_PLACEMENT_3D ( 'NONE', #124, #268, #155 ) ;
#28 = EDGE_LOOP ( 'NONE', ( #295, #298, #78, #149 ) ) ;
#29 = ORIENTED_EDGE ( 'NONE', *, *, #284, .F. ) ;
#30 = DIRECTION ( 'NONE',  ( 1.000000000000000000, 0.0000000000000000000, 0.0000000000000000000 ) ) ;
#31 = MECHANICAL_DESIGN_GEOMETRIC_PRESENTATION_REPRESENTATION (  '', ( #215 ), #81 ) ;
#32 = CYLINDRICAL_SURFACE ( 'NONE', #258, 0.3149604999999999766 ) ;
#33 = DIRECTION ( 'NONE',  ( -1.224646799147353207E-16, -0.0000000000000000000, -1.000000000000000000 ) ) ;
#34 = LINE ( 'NONE', #135, #234 ) ;
#35 = CARTESIAN_POINT ( 'NONE',  ( -0.3149604999999999766, 0.0000000000000000000, 5.890512000000002857 ) ) ;
#36 = CLOSED_SHELL ( 'NONE', ( #165, #76, #9, #129, #173, #1, #274, #288, #230, #196 ) ) ;
#37 = DIRECTION ( 'NONE',  ( 1.000000000000000000, 0.0000000000000000000, 0.0000000000000000000 ) ) ;
#38 = DIRECTION ( 'NONE',  ( -1.000000000000000000, 0.0000000000000000000, 1.224646799147353207E-16 ) ) ;
#39 = PRODUCT_DEFINITION_FORMATION_WITH_SPECIFIED_SOURCE ( 'ANY', '', #190, .NOT_KNOWN. ) ;
#40 = FACE_OUTER_BOUND ( 'NONE', #143, .T. ) ;
#41 = LENGTH_MEASURE_WITH_UNIT ( LENGTH_MEASURE( 0.02539999999999999897 ), #246 );
#42 = ORIENTED_EDGE ( 'NONE', *, *, #244, .F. ) ;
#43 = VECTOR ( 'NONE', #17, 39.37007874015748143 ) ;
#44 = ORIENTED_EDGE ( 'NONE', *, *, #236, .F. ) ;
#45 = VERTEX_POINT ( 'NONE', #237 ) ;
#46 = ORIENTED_EDGE ( 'NONE', *, *, #83, .T. ) ;
#47 = CONICAL_SURFACE ( 'NONE', #214, 0.2999605000000007404, 0.7853981633975052334 ) ;
#48 = CARTESIAN_POINT ( 'NONE',  ( 0.2999605000000007404, 3.673456661956405784E-17, 5.905511999999999873 ) ) ;
#49 = CARTESIAN_POINT ( 'NONE',  ( 4.718927259360429440E-33, 0.0000000000000000000, 3.853296528146670183E-17 ) ) ;
#50 = CARTESIAN_POINT ( 'NONE',  ( -0.2999605000000007404, 0.0000000000000000000, 5.905511999999999873 ) ) ;
#51 = CIRCLE ( 'NONE', #219, 0.3149604999999999766 ) ;
#52 = DIRECTION ( 'NONE',  ( -1.000000000000000000, 0.0000000000000000000, 0.0000000000000000000 ) ) ;
#53 = CARTESIAN_POINT ( 'NONE',  ( 3.616083184063142379E-16, 0.0000000000000000000, 2.952755999999999936 ) ) ;
#54 = DIRECTION ( 'NONE',  ( 1.000000000000000000, 0.0000000000000000000, -0.0000000000000000000 ) ) ;
#55 = DIRECTION ( 'NONE',  ( 1.000000000000000000, 0.0000000000000000000, 0.0000000000000000000 ) ) ;
#56 = AXIS2_PLACEMENT_3D ( 'NONE', #259, #72, #160 ) ;
#57 = CARTESIAN_POINT ( 'NONE',  ( -0.3146455394999999600, 0.0000000000000000000, 7.706593056293340367E-17 ) ) ;
#58 =( CONVERSION_BASED_UNIT ( 'INCH', #41 ) LENGTH_UNIT ( ) NAMED_UNIT ( #169 ) );
#59 = ADVANCED_BREP_SHAPE_REPRESENTATION ( 'Micro_SHLM-160-4X', ( #277, #27 ), #132 ) ;
#60 = SURFACE_STYLE_FILL_AREA ( #168 ) ;
#61 = EDGE_LOOP ( 'NONE', ( #154, #128, #127, #271 ) ) ;
#62 = VERTEX_POINT ( 'NONE', #232 ) ;
#63 = AXIS2_PLACEMENT_3D ( 'NONE', #254, #185, #30 ) ;
#64 = ORIENTED_EDGE ( 'NONE', *, *, #236, .T. ) ;
#65 =( LENGTH_UNIT ( ) NAMED_UNIT ( * ) SI_UNIT ( $, .METRE. ) );
#66 = ORIENTED_EDGE ( 'NONE', *, *, #86, .F. ) ;
#67 = EDGE_LOOP ( 'NONE', ( #150, #170 ) ) ;
#68 = CIRCLE ( 'NONE', #97, 0.3146455394999999600 ) ;
#69 = AXIS2_PLACEMENT_3D ( 'NONE', #101, #192, #263 ) ;
#70 = DIRECTION ( 'NONE',  ( 0.0000000000000000000, 0.0000000000000000000, -1.000000000000000000 ) ) ;
#71 = CYLINDRICAL_SURFACE ( 'NONE', #270, 0.3146455394999999600 ) ;
#72 = DIRECTION ( 'NONE',  ( -1.224646799147353207E-16, -0.0000000000000000000, -1.000000000000000000 ) ) ;
#73 = AXIS2_PLACEMENT_3D ( 'NONE', #163, #260, #54 ) ;
#74 = FACE_OUTER_BOUND ( 'NONE', #200, .T. ) ;
#75 = DIRECTION ( 'NONE',  ( 1.000000000000000000, 0.0000000000000000000, 0.0000000000000000000 ) ) ;
#76 = ADVANCED_FACE ( 'NONE', ( #159 ), #115, .T. ) ;
#77 = CARTESIAN_POINT ( 'NONE',  ( 0.3146455395000002375, 0.0000000000000000000, 2.952755999999999936 ) ) ;
#78 = ORIENTED_EDGE ( 'NONE', *, *, #117, .T. ) ;
#79 = DIRECTION ( 'NONE',  ( -1.224646799147353207E-16, -0.0000000000000000000, -1.000000000000000000 ) ) ;
#80 = MECHANICAL_DESIGN_GEOMETRIC_PRESENTATION_REPRESENTATION (  '', ( #171 ), #10 ) ;
#81 =( GEOMETRIC_REPRESENTATION_CONTEXT ( 3 ) GLOBAL_UNCERTAINTY_ASSIGNED_CONTEXT ( ( #85 ) ) GLOBAL_UNIT_ASSIGNED_CONTEXT ( ( #104, #275, #174 ) ) REPRESENTATION_CONTEXT ( 'NONE', 'WORKASPACE' ) );
#82 = DIRECTION ( 'NONE',  ( 0.0000000000000000000, 0.0000000000000000000, -1.000000000000000000 ) ) ;
#83 = EDGE_CURVE ( 'NONE', #131, #109, #204, .T. ) ;
#84 = PRESENTATION_LAYER_ASSIGNMENT (  '', '', ( #171 ) ) ;
#85 = UNCERTAINTY_MEASURE_WITH_UNIT (LENGTH_MEASURE( 1.000000000000000082E-05 ), #104, 'distance_accuracy_value', 'NONE');
#86 = EDGE_CURVE ( 'NONE', #297, #62, #68, .T. ) ;
#87 = SURFACE_SIDE_STYLE ('',( #223 ) ) ;
#88 = ORIENTED_EDGE ( 'NONE', *, *, #120, .F. ) ;
#89 = CARTESIAN_POINT ( 'NONE',  ( 0.0000000000000000000, 0.0000000000000000000, 5.905511999999999873 ) ) ;
#90 = AXIS2_PLACEMENT_3D ( 'NONE', #256, #4, #52 ) ;
#91 = FACE_OUTER_BOUND ( 'NONE', #61, .T. ) ;
#92 = FACE_OUTER_BOUND ( 'NONE', #67, .T. ) ;
#93 = ORIENTED_EDGE ( 'NONE', *, *, #13, .F. ) ;
#94 = DIRECTION ( 'NONE',  ( 1.000000000000000000, 0.0000000000000000000, 0.0000000000000000000 ) ) ;
#95 = CARTESIAN_POINT ( 'NONE',  ( 0.0000000000000000000, 0.0000000000000000000, 5.905511999999999873 ) ) ;
#96 = DIRECTION ( 'NONE',  ( -1.000000000000000000, 0.0000000000000000000, 1.224646799147353207E-16 ) ) ;
#97 = AXIS2_PLACEMENT_3D ( 'NONE', #111, #161, #96 ) ;
#98 = CARTESIAN_POINT ( 'NONE',  ( 0.3149604999999999766, 3.857153681828499730E-17, 5.905511999999999873 ) ) ;
#99 = PLANE ( 'NONE',  #73 ) ;
#100 = VECTOR ( 'NONE', #213, 39.37007874015748143 ) ;
#101 = CARTESIAN_POINT ( 'NONE',  ( 0.0000000000000000000, 0.0000000000000000000, 5.905511999999999873 ) ) ;
#102 = FACE_OUTER_BOUND ( 'NONE', #175, .T. ) ;
#103 = PRODUCT_CONTEXT ( 'NONE', #212, 'mechanical' ) ;
#104 =( CONVERSION_BASED_UNIT ( 'INCH', #130 ) LENGTH_UNIT ( ) NAMED_UNIT ( #181 ) );
#105 = ORIENTED_EDGE ( 'NONE', *, *, #226, .F. ) ;
#106 = ORIENTED_EDGE ( 'NONE', *, *, #120, .T. ) ;
#107 = ORIENTED_EDGE ( 'NONE', *, *, #152, .F. ) ;
#108 = VECTOR ( 'NONE', #79, 39.37007874015748143 ) ;
#109 = VERTEX_POINT ( 'NONE', #187 ) ;
#110 = CARTESIAN_POINT ( 'NONE',  ( 0.0000000000000000000, 0.0000000000000000000, 5.890512000000002857 ) ) ;
#111 = CARTESIAN_POINT ( 'NONE',  ( 4.718927259360429440E-33, 0.0000000000000000000, 3.853296528146670183E-17 ) ) ;
#112 = CARTESIAN_POINT ( 'NONE',  ( -0.3149604999999996435, 0.0000000000000000000, 2.954542229757548544 ) ) ;
#113 = DIRECTION ( 'NONE',  ( -1.224646799147353207E-16, -0.0000000000000000000, -1.000000000000000000 ) ) ;
#114 = LINE ( 'NONE', #50, #100 ) ;
#115 = CONICAL_SURFACE ( 'NONE', #193, 0.3146455394999999045, 0.1745329251994338637 ) ;
#116 = FACE_OUTER_BOUND ( 'NONE', #28, .T. ) ;
#117 = EDGE_CURVE ( 'NONE', #225, #131, #138, .T. ) ;
#118 = CARTESIAN_POINT ( 'NONE',  ( 3.618270684618265374E-16, 0.0000000000000000000, 2.954542229757548544 ) ) ;
#119 = PRODUCT_DEFINITION ( 'UNKNOWN', '', #39, #267 ) ;
#120 = EDGE_CURVE ( 'NONE', #250, #131, #34, .T. ) ;
#121 = SURFACE_SIDE_STYLE ('',( #60 ) ) ;
#122 =( LENGTH_UNIT ( ) NAMED_UNIT ( * ) SI_UNIT ( $, .METRE. ) );
#123 = CARTESIAN_POINT ( 'NONE',  ( -0.3146455394999999600, 0.0000000000000000000, 3.853296528146670183E-17 ) ) ;
#124 = CARTESIAN_POINT ( 'NONE',  ( 0.0000000000000000000, 0.0000000000000000000, 0.0000000000000000000 ) ) ;
#125 = CIRCLE ( 'NONE', #188, 0.3149604999999999766 ) ;
#126 = ORIENTED_EDGE ( 'NONE', *, *, #23, .T. ) ;
#127 = ORIENTED_EDGE ( 'NONE', *, *, #23, .F. ) ;
#128 = ORIENTED_EDGE ( 'NONE', *, *, #13, .T. ) ;
#129 = ADVANCED_FACE ( 'NONE', ( #208 ), #238, .T. ) ;
#130 = LENGTH_MEASURE_WITH_UNIT ( LENGTH_MEASURE( 0.02539999999999999897 ), #65 );
#131 = VERTEX_POINT ( 'NONE', #112 ) ;
#132 =( GEOMETRIC_REPRESENTATION_CONTEXT ( 3 ) GLOBAL_UNCERTAINTY_ASSIGNED_CONTEXT ( ( #198 ) ) GLOBAL_UNIT_ASSIGNED_CONTEXT ( ( #221, #266, #153 ) ) REPRESENTATION_CONTEXT ( 'NONE', 'WORKASPACE' ) );
#133 = ORIENTED_EDGE ( 'NONE', *, *, #152, .T. ) ;
#134 = CARTESIAN_POINT ( 'NONE',  ( 0.3146455395000002375, 0.0000000000000000000, 2.952755999999999936 ) ) ;
#135 = CARTESIAN_POINT ( 'NONE',  ( -0.3146455394999995714, 3.853296528146669567E-17, 2.952755999999999936 ) ) ;
#136 = AXIS2_PLACEMENT_3D ( 'NONE', #279, #33, #3 ) ;
#137 = CARTESIAN_POINT ( 'NONE',  ( -0.3149604999999999766, 0.0000000000000000000, 5.905511999999999873 ) ) ;
#138 = LINE ( 'NONE', #137, #157 ) ;
#139 = EDGE_CURVE ( 'NONE', #45, #225, #114, .T. ) ;
#140 = DIRECTION ( 'NONE',  ( 0.0000000000000000000, 0.0000000000000000000, 1.000000000000000000 ) ) ;
#141 = AXIS2_PLACEMENT_3D ( 'NONE', #49, #7, #211 ) ;
#142 = APPLICATION_CONTEXT ( 'automotive_design' ) ;
#143 = EDGE_LOOP ( 'NONE', ( #88, #205, #272, #269 ) ) ;
#144 = CARTESIAN_POINT ( 'NONE',  ( -0.3146455394999995714, 3.855225104987584957E-17, 2.952755999999999936 ) ) ;
#145 =( NAMED_UNIT ( * ) SI_UNIT ( $, .STERADIAN. ) SOLID_ANGLE_UNIT ( ) );
#146 = CARTESIAN_POINT ( 'NONE',  ( 0.3146455394999999600, 3.853296528146670183E-17, -3.853296528146670183E-17 ) ) ;
#147 = PRESENTATION_LAYER_ASSIGNMENT (  '', '', ( #215 ) ) ;
#148 = DIMENSIONAL_EXPONENTS ( 1.000000000000000000, 0.0000000000000000000, 0.0000000000000000000, 0.0000000000000000000, 0.0000000000000000000, 0.0000000000000000000, 0.0000000000000000000 ) ;
#149 = ORIENTED_EDGE ( 'NONE', *, *, #247, .F. ) ;
#150 = ORIENTED_EDGE ( 'NONE', *, *, #291, .T. ) ;
#151 = VERTEX_POINT ( 'NONE', #134 ) ;
#152 = EDGE_CURVE ( 'NONE', #62, #297, #184, .T. ) ;
#153 =( NAMED_UNIT ( * ) SI_UNIT ( $, .STERADIAN. ) SOLID_ANGLE_UNIT ( ) );
#154 = ORIENTED_EDGE ( 'NONE', *, *, #217, .F. ) ;
#155 = DIRECTION ( 'NONE',  ( 1.000000000000000000, 0.0000000000000000000, 0.0000000000000000000 ) ) ;
#156 = VERTEX_POINT ( 'NONE', #6 ) ;
#157 = VECTOR ( 'NONE', #257, 39.37007874015748143 ) ;
#158 = CARTESIAN_POINT ( 'NONE',  ( 0.0000000000000000000, 0.0000000000000000000, 5.905511999999999873 ) ) ;
#159 = FACE_OUTER_BOUND ( 'NONE', #21, .T. ) ;
#160 = DIRECTION ( 'NONE',  ( -1.000000000000000000, 0.0000000000000000000, 0.0000000000000000000 ) ) ;
#161 = DIRECTION ( 'NONE',  ( -1.224646799147353207E-16, -0.0000000000000000000, -1.000000000000000000 ) ) ;
#162 = EDGE_CURVE ( 'NONE', #151, #250, #264, .T. ) ;
#163 = CARTESIAN_POINT ( 'NONE',  ( 0.0000000000000000000, 0.0000000000000000000, 0.0000000000000000000 ) ) ;
#164 =( NAMED_UNIT ( * ) PLANE_ANGLE_UNIT ( ) SI_UNIT ( $, .RADIAN. ) );
#165 = ADVANCED_FACE ( 'NONE', ( #74 ), #71, .T. ) ;
#166 = DIRECTION ( 'NONE',  ( -1.000000000000000000, 0.0000000000000000000, 0.0000000000000000000 ) ) ;
#167 = FILL_AREA_STYLE_COLOUR ( '', #209 ) ;
#168 = FILL_AREA_STYLE ('',( #167 ) ) ;
#169 = DIMENSIONAL_EXPONENTS ( 1.000000000000000000, 0.0000000000000000000, 0.0000000000000000000, 0.0000000000000000000, 0.0000000000000000000, 0.0000000000000000000, 0.0000000000000000000 ) ;
#170 = ORIENTED_EDGE ( 'NONE', *, *, #217, .T. ) ;
#171 = STYLED_ITEM ( 'NONE', ( #290 ), #277 ) ;
#172 = CARTESIAN_POINT ( 'NONE',  ( 0.0000000000000000000, 0.0000000000000000000, 0.0000000000000000000 ) ) ;
#173 = ADVANCED_FACE ( 'NONE', ( #116 ), #32, .T. ) ;
#174 =( NAMED_UNIT ( * ) SI_UNIT ( $, .STERADIAN. ) SOLID_ANGLE_UNIT ( ) );
#175 = EDGE_LOOP ( 'NONE', ( #44, #293, #273, #107 ) ) ;
#176 = AXIS2_PLACEMENT_3D ( 'NONE', #158, #140, #239 ) ;
#177 = EDGE_CURVE ( 'NONE', #250, #151, #14, .T. ) ;
#178 = LINE ( 'NONE', #48, #26 ) ;
#179 = ORIENTED_EDGE ( 'NONE', *, *, #177, .F. ) ;
#180 = APPLICATION_PROTOCOL_DEFINITION ( 'draft international standard', 'automotive_design', 1998, #142 ) ;
#181 = DIMENSIONAL_EXPONENTS ( 1.000000000000000000, 0.0000000000000000000, 0.0000000000000000000, 0.0000000000000000000, 0.0000000000000000000, 0.0000000000000000000, 0.0000000000000000000 ) ;
#182 = DIRECTION ( 'NONE',  ( 0.0000000000000000000, 0.0000000000000000000, 1.000000000000000000 ) ) ;
#183 = CARTESIAN_POINT ( 'NONE',  ( 0.0000000000000000000, 0.0000000000000000000, 5.905511999999999873 ) ) ;
#184 = CIRCLE ( 'NONE', #141, 0.3146455394999999600 ) ;
#185 = DIRECTION ( 'NONE',  ( -1.224646799147353207E-16, -0.0000000000000000000, -1.000000000000000000 ) ) ;
#186 = DIRECTION ( 'NONE',  ( -0.0000000000000000000, -0.0000000000000000000, -1.000000000000000000 ) ) ;
#187 = CARTESIAN_POINT ( 'NONE',  ( 0.3149605000000003097, 3.857153681828504044E-17, 2.954542229757548544 ) ) ;
#188 = AXIS2_PLACEMENT_3D ( 'NONE', #110, #207, #75 ) ;
#189 = DIRECTION ( 'NONE',  ( -0.0000000000000000000, -0.0000000000000000000, -1.000000000000000000 ) ) ;
#190 = PRODUCT ( 'Micro_SHLM-160-4X', 'Micro_SHLM-160-4X', '', ( #103 ) ) ;
#191 = EDGE_CURVE ( 'NONE', #276, #109, #216, .T. ) ;
#192 = DIRECTION ( 'NONE',  ( 0.0000000000000000000, 0.0000000000000000000, 1.000000000000000000 ) ) ;
#193 = AXIS2_PLACEMENT_3D ( 'NONE', #53, #281, #94 ) ;
#194 = DIRECTION ( 'NONE',  ( -1.224646799147353207E-16, -0.0000000000000000000, -1.000000000000000000 ) ) ;
#195 = SURFACE_STYLE_USAGE ( .BOTH. , #121 ) ;
#196 = ADVANCED_FACE ( 'NONE', ( #283 ), #99, .F. ) ;
#197 = AXIS2_PLACEMENT_3D ( 'NONE', #172, #218, #38 ) ;
#198 = UNCERTAINTY_MEASURE_WITH_UNIT (LENGTH_MEASURE( 1.000000000000000082E-05 ), #221, 'distance_accuracy_value', 'NONE');
#199 = SHAPE_DEFINITION_REPRESENTATION ( #255, #59 ) ;
#200 = EDGE_LOOP ( 'NONE', ( #299, #64, #66, #29 ) ) ;
#201 = PLANE ( 'NONE',  #240 ) ;
#202 = ORIENTED_EDGE ( 'NONE', *, *, #291, .F. ) ;
#203 = FILL_AREA_STYLE_COLOUR ( '', #235 ) ;
#204 = CIRCLE ( 'NONE', #63, 0.3149604999999999766 ) ;
#205 = ORIENTED_EDGE ( 'NONE', *, *, #162, .F. ) ;
#206 = ORIENTED_EDGE ( 'NONE', *, *, #117, .F. ) ;
#207 = DIRECTION ( 'NONE',  ( 0.0000000000000000000, 0.0000000000000000000, -1.000000000000000000 ) ) ;
#208 = FACE_OUTER_BOUND ( 'NONE', #229, .T. ) ;
#209 = COLOUR_RGB ( '',0.7921568627450980005, 0.8196078431372548767, 0.9333333333333333481 ) ;
#210 = CARTESIAN_POINT ( 'NONE',  ( 0.0000000000000000000, 0.0000000000000000000, 0.0000000000000000000 ) ) ;
#211 = DIRECTION ( 'NONE',  ( -1.000000000000000000, 0.0000000000000000000, 1.224646799147353207E-16 ) ) ;
#212 = APPLICATION_CONTEXT ( 'automotive_design' ) ;
#213 = DIRECTION ( 'NONE',  ( -0.7071067811865877628, 0.0000000000000000000, -0.7071067811865072716 ) ) ;
#214 = AXIS2_PLACEMENT_3D ( 'NONE', #243, #82, #166 ) ;
#215 = STYLED_ITEM ( 'NONE', ( #252 ), #59 ) ;
#216 = LINE ( 'NONE', #98, #18 ) ;
#217 = EDGE_CURVE ( 'NONE', #156, #45, #2, .T. ) ;
#218 = DIRECTION ( 'NONE',  ( -1.224646799147353207E-16, -0.0000000000000000000, -1.000000000000000000 ) ) ;
#219 = AXIS2_PLACEMENT_3D ( 'NONE', #278, #70, #55 ) ;
#220 = DIRECTION ( 'NONE',  ( -1.224646799147353207E-16, -0.0000000000000000000, -1.000000000000000000 ) ) ;
#221 =( CONVERSION_BASED_UNIT ( 'INCH', #261 ) LENGTH_UNIT ( ) NAMED_UNIT ( #148 ) );
#222 = LINE ( 'NONE', #77, #43 ) ;
#223 = SURFACE_STYLE_FILL_AREA ( #294 ) ;
#224 = AXIS2_PLACEMENT_3D ( 'NONE', #16, #262, #285 ) ;
#225 = VERTEX_POINT ( 'NONE', #35 ) ;
#226 = EDGE_CURVE ( 'NONE', #276, #225, #51, .T. ) ;
#227 = ORIENTED_EDGE ( 'NONE', *, *, #139, .T. ) ;
#228 = ORIENTED_EDGE ( 'NONE', *, *, #86, .T. ) ;
#229 = EDGE_LOOP ( 'NONE', ( #126, #249, #251, #206 ) ) ;
#230 = ADVANCED_FACE ( 'NONE', ( #102 ), #289, .T. ) ;
#231 = DIRECTION ( 'NONE',  ( 0.7071067811865877628, 8.659560562355427129E-17, -0.7071067811865072716 ) ) ;
#232 = CARTESIAN_POINT ( 'NONE',  ( 0.3146455394999999600, 3.853296528146670183E-17, 0.0000000000000000000 ) ) ;
#233 = DIRECTION ( 'NONE',  ( -1.000000000000000000, 0.0000000000000000000, 1.224646799147353207E-16 ) ) ;
#234 = VECTOR ( 'NONE', #11, 39.37007874015747433 ) ;
#235 = COLOUR_RGB ( '',0.7921568627450980005, 0.8196078431372548767, 0.9333333333333333481 ) ;
#236 = EDGE_CURVE ( 'NONE', #151, #62, #241, .T. ) ;
#237 = CARTESIAN_POINT ( 'NONE',  ( -0.2999605000000007404, 0.0000000000000000000, 5.905511999999999873 ) ) ;
#238 = CYLINDRICAL_SURFACE ( 'NONE', #90, 0.3149604999999999766 ) ;
#239 = DIRECTION ( 'NONE',  ( 1.000000000000000000, 0.0000000000000000000, 0.0000000000000000000 ) ) ;
#240 = AXIS2_PLACEMENT_3D ( 'NONE', #183, #182, #296 ) ;
#241 = LINE ( 'NONE', #146, #108 ) ;
#242 = PRODUCT_RELATED_PRODUCT_CATEGORY ( 'part', '', ( #190 ) ) ;
#243 = CARTESIAN_POINT ( 'NONE',  ( 0.0000000000000000000, 0.0000000000000000000, 5.905511999999999873 ) ) ;
#244 = EDGE_CURVE ( 'NONE', #151, #109, #222, .T. ) ;
#245 = FACE_OUTER_BOUND ( 'NONE', #25, .T. ) ;
#246 =( LENGTH_UNIT ( ) NAMED_UNIT ( * ) SI_UNIT ( $, .METRE. ) );
#247 = EDGE_CURVE ( 'NONE', #109, #131, #282, .T. ) ;
#248 = DIRECTION ( 'NONE',  ( 0.0000000000000000000, 0.0000000000000000000, -1.000000000000000000 ) ) ;
#249 = ORIENTED_EDGE ( 'NONE', *, *, #191, .T. ) ;
#250 = VERTEX_POINT ( 'NONE', #144 ) ;
#251 = ORIENTED_EDGE ( 'NONE', *, *, #83, .F. ) ;
#252 = PRESENTATION_STYLE_ASSIGNMENT (( #20 ) ) ;
#253 = DIRECTION ( 'NONE',  ( -1.000000000000000000, 0.0000000000000000000, 0.0000000000000000000 ) ) ;
#254 = CARTESIAN_POINT ( 'NONE',  ( 3.618270684618265374E-16, 0.0000000000000000000, 2.954542229757548544 ) ) ;
#255 = PRODUCT_DEFINITION_SHAPE ( 'NONE', 'NONE',  #119 ) ;
#256 = CARTESIAN_POINT ( 'NONE',  ( 0.0000000000000000000, 0.0000000000000000000, 5.905511999999999873 ) ) ;
#257 = DIRECTION ( 'NONE',  ( -0.0000000000000000000, -0.0000000000000000000, -1.000000000000000000 ) ) ;
#258 = AXIS2_PLACEMENT_3D ( 'NONE', #95, #186, #280 ) ;
#259 = CARTESIAN_POINT ( 'NONE',  ( 3.616083184063142379E-16, 0.0000000000000000000, 2.952755999999999936 ) ) ;
#260 = DIRECTION ( 'NONE',  ( 0.0000000000000000000, 0.0000000000000000000, 1.000000000000000000 ) ) ;
#261 = LENGTH_MEASURE_WITH_UNIT ( LENGTH_MEASURE( 0.02539999999999999897 ), #122 );
#262 = DIRECTION ( 'NONE',  ( 1.224646799147353207E-16, 0.0000000000000000000, 1.000000000000000000 ) ) ;
#263 = DIRECTION ( 'NONE',  ( 1.000000000000000000, 0.0000000000000000000, 0.0000000000000000000 ) ) ;
#264 = CIRCLE ( 'NONE', #136, 0.3146455394999999045 ) ;
#265 = CONICAL_SURFACE ( 'NONE', #224, 0.3146455394999999045, 0.1745329251994338637 ) ;
#266 =( NAMED_UNIT ( * ) PLANE_ANGLE_UNIT ( ) SI_UNIT ( $, .RADIAN. ) );
#267 = PRODUCT_DEFINITION_CONTEXT ( 'detailed design', #142, 'design' ) ;
#268 = DIRECTION ( 'NONE',  ( 0.0000000000000000000, 0.0000000000000000000, 1.000000000000000000 ) ) ;
#269 = ORIENTED_EDGE ( 'NONE', *, *, #247, .T. ) ;
#270 = AXIS2_PLACEMENT_3D ( 'NONE', #210, #113, #233 ) ;
#271 = ORIENTED_EDGE ( 'NONE', *, *, #139, .F. ) ;
#272 = ORIENTED_EDGE ( 'NONE', *, *, #244, .T. ) ;
#273 = ORIENTED_EDGE ( 'NONE', *, *, #284, .T. ) ;
#274 = ADVANCED_FACE ( 'NONE', ( #245 ), #47, .T. ) ;
#275 =( NAMED_UNIT ( * ) PLANE_ANGLE_UNIT ( ) SI_UNIT ( $, .RADIAN. ) );
#276 = VERTEX_POINT ( 'NONE', #286 ) ;
#277 = MANIFOLD_SOLID_BREP ( 'Cut-Revolve1', #36 ) ;
#278 = CARTESIAN_POINT ( 'NONE',  ( 0.0000000000000000000, 0.0000000000000000000, 5.890512000000002857 ) ) ;
#279 = CARTESIAN_POINT ( 'NONE',  ( 3.616083184063142379E-16, 0.0000000000000000000, 2.952755999999999936 ) ) ;
#280 = DIRECTION ( 'NONE',  ( -1.000000000000000000, 0.0000000000000000000, 0.0000000000000000000 ) ) ;
#281 = DIRECTION ( 'NONE',  ( 1.224646799147353207E-16, 0.0000000000000000000, 1.000000000000000000 ) ) ;
#282 = CIRCLE ( 'NONE', #8, 0.3149604999999999766 ) ;
#283 = FACE_OUTER_BOUND ( 'NONE', #22, .T. ) ;
#284 = EDGE_CURVE ( 'NONE', #250, #297, #12, .T. ) ;
#285 = DIRECTION ( 'NONE',  ( 1.000000000000000000, 0.0000000000000000000, 0.0000000000000000000 ) ) ;
#286 = CARTESIAN_POINT ( 'NONE',  ( 0.3149604999999999766, 3.857153681828499730E-17, 5.890512000000002857 ) ) ;
#287 = AXIS2_PLACEMENT_3D ( 'NONE', #89, #248, #253 ) ;
#288 = ADVANCED_FACE ( 'NONE', ( #40 ), #265, .T. ) ;
#289 = CYLINDRICAL_SURFACE ( 'NONE', #197, 0.3146455394999999600 ) ;
#290 = PRESENTATION_STYLE_ASSIGNMENT (( #195 ) ) ;
#291 = EDGE_CURVE ( 'NONE', #45, #156, #15, .T. ) ;
#292 = CONICAL_SURFACE ( 'NONE', #287, 0.2999605000000007404, 0.7853981633975052334 ) ;
#293 = ORIENTED_EDGE ( 'NONE', *, *, #162, .T. ) ;
#294 = FILL_AREA_STYLE ('',( #203 ) ) ;
#295 = ORIENTED_EDGE ( 'NONE', *, *, #191, .F. ) ;
#296 = DIRECTION ( 'NONE',  ( 1.000000000000000000, 0.0000000000000000000, -0.0000000000000000000 ) ) ;
#297 = VERTEX_POINT ( 'NONE', #57 ) ;
#298 = ORIENTED_EDGE ( 'NONE', *, *, #226, .T. ) ;
#299 = ORIENTED_EDGE ( 'NONE', *, *, #177, .T. ) ;
ENDSEC;
END-ISO-10303-21;
