ISO-10303-21;
HEADER;
FILE_DESCRIPTION (( 'STEP AP214' ),
    '1' );
FILE_NAME ('Micro_RSC-187-1.STEP',
    '2021-09-03T17:45:06',
    ( '' ),
    ( '' ),
    'SwSTEP 2.0',
    'SolidWorks 2020',
    '' );
FILE_SCHEMA (( 'AUTOMOTIVE_DESIGN' ));
ENDSEC;

DATA;
#1 = ORIENTED_EDGE ( 'NONE', *, *, #96, .F. ) ;
#2 = ORIENTED_EDGE ( 'NONE', *, *, #151, .T. ) ;
#3 = AXIS2_PLACEMENT_3D ( 'NONE', #241, #71, #224 ) ;
#4 = VECTOR ( 'NONE', #14, 39.37007874015748143 ) ;
#5 = PLANE ( 'NONE',  #74 ) ;
#6 = EDGE_CURVE ( 'NONE', #63, #39, #174, .T. ) ;
#7 = ORIENTED_EDGE ( 'NONE', *, *, #6, .T. ) ;
#8 = LINE ( 'NONE', #160, #66 ) ;
#9 = AXIS2_PLACEMENT_3D ( 'NONE', #244, #165, #68 ) ;
#10 = CARTESIAN_POINT ( 'NONE',  ( 0.0000000000000000000, 0.0000000000000000000, 2.000000000000000000 ) ) ;
#11 = CARTESIAN_POINT ( 'NONE',  ( -0.003999999999999999216, 4.898587196589411612E-19, 0.0000000000000000000 ) ) ;
#12 = FACE_OUTER_BOUND ( 'NONE', #178, .T. ) ;
#13 = LINE ( 'NONE', #11, #237 ) ;
#14 = DIRECTION ( 'NONE',  ( -0.7071067811865463515, 0.0000000000000000000, -0.7071067811865486830 ) ) ;
#15 = CIRCLE ( 'NONE', #205, 0.09375000000000001388 ) ;
#16 = MANIFOLD_SOLID_BREP ( 'Cut-Revolve1', #94 ) ;
#17 = DIRECTION ( 'NONE',  ( 1.000000000000000000, 0.0000000000000000000, 0.0000000000000000000 ) ) ;
#18 = SURFACE_STYLE_FILL_AREA ( #56 ) ;
#19 = CIRCLE ( 'NONE', #222, 0.07874999999999980627 ) ;
#20 = EDGE_LOOP ( 'NONE', ( #7, #23 ) ) ;
#21 = EDGE_LOOP ( 'NONE', ( #1, #196, #197, #2 ) ) ;
#22 = ORIENTED_EDGE ( 'NONE', *, *, #234, .F. ) ;
#23 = ORIENTED_EDGE ( 'NONE', *, *, #24, .T. ) ;
#24 = EDGE_CURVE ( 'NONE', #39, #63, #214, .T. ) ;
#25 = AXIS2_PLACEMENT_3D ( 'NONE', #131, #116, #154 ) ;
#26 = SURFACE_STYLE_FILL_AREA ( #125 ) ;
#27 = ADVANCED_FACE ( 'NONE', ( #182 ), #5, .T. ) ;
#28 = ORIENTED_EDGE ( 'NONE', *, *, #24, .F. ) ;
#29 = DIRECTION ( 'NONE',  ( 1.000000000000000000, 0.0000000000000000000, -0.0000000000000000000 ) ) ;
#30 = DIRECTION ( 'NONE',  ( -0.0000000000000000000, -0.0000000000000000000, -1.000000000000000000 ) ) ;
#31 = ADVANCED_FACE ( 'NONE', ( #126 ), #64, .F. ) ;
#32 = CARTESIAN_POINT ( 'NONE',  ( -0.07874999999999980627, 0.0000000000000000000, 2.000000000000000000 ) ) ;
#33 = DIRECTION ( 'NONE',  ( 1.000000000000000000, 0.0000000000000000000, 0.0000000000000000000 ) ) ;
#34 = DIRECTION ( 'NONE',  ( 0.0000000000000000000, 0.0000000000000000000, 1.000000000000000000 ) ) ;
#35 = APPLICATION_CONTEXT ( 'automotive_design' ) ;
#36 = VECTOR ( 'NONE', #50, 39.37007874015748854 ) ;
#37 = AXIS2_PLACEMENT_3D ( 'NONE', #10, #87, #221 ) ;
#38 = ORIENTED_EDGE ( 'NONE', *, *, #98, .T. ) ;
#39 = VERTEX_POINT ( 'NONE', #111 ) ;
#40 = EDGE_CURVE ( 'NONE', #97, #193, #8, .T. ) ;
#41 = APPLICATION_PROTOCOL_DEFINITION ( 'draft international standard', 'automotive_design', 1998, #203 ) ;
#42 = ORIENTED_EDGE ( 'NONE', *, *, #98, .F. ) ;
#43 = EDGE_CURVE ( 'NONE', #97, #57, #15, .T. ) ;
#44 = DIRECTION ( 'NONE',  ( -0.0000000000000000000, -0.0000000000000000000, -1.000000000000000000 ) ) ;
#45 = ORIENTED_EDGE ( 'NONE', *, *, #134, .F. ) ;
#46 = LENGTH_MEASURE_WITH_UNIT ( LENGTH_MEASURE( 0.02539999999999999897 ), #215 );
#47 = DIRECTION ( 'NONE',  ( 0.0000000000000000000, 0.0000000000000000000, -1.000000000000000000 ) ) ;
#48 = SURFACE_SIDE_STYLE ('',( #26 ) ) ;
#49 = AXIS2_PLACEMENT_3D ( 'NONE', #202, #90, #223 ) ;
#50 = DIRECTION ( 'NONE',  ( 0.5000000000000012212, 0.0000000000000000000, 0.8660254037844377084 ) ) ;
#51 = ADVANCED_FACE ( 'NONE', ( #141 ), #137, .T. ) ;
#52 = LINE ( 'NONE', #115, #143 ) ;
#53 = DIRECTION ( 'NONE',  ( -1.000000000000000000, 0.0000000000000000000, 0.0000000000000000000 ) ) ;
#54 = UNCERTAINTY_MEASURE_WITH_UNIT (LENGTH_MEASURE( 1.000000000000000082E-05 ), #101, 'distance_accuracy_value', 'NONE');
#55 = LINE ( 'NONE', #72, #36 ) ;
#56 = FILL_AREA_STYLE ('',( #59 ) ) ;
#57 = VERTEX_POINT ( 'NONE', #213 ) ;
#58 = CIRCLE ( 'NONE', #158, 0.09375000000000001388 ) ;
#59 = FILL_AREA_STYLE_COLOUR ( '', #175 ) ;
#60 = ORIENTED_EDGE ( 'NONE', *, *, #40, .F. ) ;
#61 = ORIENTED_EDGE ( 'NONE', *, *, #225, .T. ) ;
#62 = PRESENTATION_STYLE_ASSIGNMENT (( #208 ) ) ;
#63 = VERTEX_POINT ( 'NONE', #238 ) ;
#64 = PLANE ( 'NONE',  #166 ) ;
#65 = ADVANCED_FACE ( 'NONE', ( #216 ), #83, .T. ) ;
#66 = VECTOR ( 'NONE', #184, 39.37007874015748143 ) ;
#67 = UNCERTAINTY_MEASURE_WITH_UNIT (LENGTH_MEASURE( 1.000000000000000082E-05 ), #127, 'distance_accuracy_value', 'NONE');
#68 = DIRECTION ( 'NONE',  ( -1.000000000000000000, 0.0000000000000000000, 0.0000000000000000000 ) ) ;
#69 = DIMENSIONAL_EXPONENTS ( 1.000000000000000000, 0.0000000000000000000, 0.0000000000000000000, 0.0000000000000000000, 0.0000000000000000000, 0.0000000000000000000, 0.0000000000000000000 ) ;
#70 = EDGE_CURVE ( 'NONE', #193, #103, #58, .T. ) ;
#71 = DIRECTION ( 'NONE',  ( -0.0000000000000000000, -0.0000000000000000000, -1.000000000000000000 ) ) ;
#72 = CARTESIAN_POINT ( 'NONE',  ( 0.003999999999999999216, 0.0000000000000000000, 0.0000000000000000000 ) ) ;
#73 = DIRECTION ( 'NONE',  ( 0.7071067811865463515, 8.659560562354916834E-17, -0.7071067811865486830 ) ) ;
#74 = AXIS2_PLACEMENT_3D ( 'NONE', #145, #201, #29 ) ;
#75 =( CONVERSION_BASED_UNIT ( 'INCH', #207 ) LENGTH_UNIT ( ) NAMED_UNIT ( #149 ) );
#76 = SHAPE_DEFINITION_REPRESENTATION ( #171, #104 ) ;
#77 = EDGE_LOOP ( 'NONE', ( #210, #123, #211, #157 ) ) ;
#78 = PRODUCT ( 'Micro_RSC-187-1', 'Micro_RSC-187-1', '', ( #119 ) ) ;
#79 = EDGE_LOOP ( 'NONE', ( #156, #121, #162, #60 ) ) ;
#80 = ORIENTED_EDGE ( 'NONE', *, *, #134, .T. ) ;
#81 = CONICAL_SURFACE ( 'NONE', #218, 0.07874999999999980627, 0.7853981633974466137 ) ;
#82 = PRESENTATION_LAYER_ASSIGNMENT (  '', '', ( #191 ) ) ;
#83 = CYLINDRICAL_SURFACE ( 'NONE', #37, 0.09375000000000001388 ) ;
#84 = EDGE_LOOP ( 'NONE', ( #80, #38 ) ) ;
#85 = AXIS2_PLACEMENT_3D ( 'NONE', #135, #246, #243 ) ;
#86 = DIRECTION ( 'NONE',  ( 1.000000000000000000, 0.0000000000000000000, 0.0000000000000000000 ) ) ;
#87 = DIRECTION ( 'NONE',  ( -0.0000000000000000000, -0.0000000000000000000, -1.000000000000000000 ) ) ;
#88 =( NAMED_UNIT ( * ) PLANE_ANGLE_UNIT ( ) SI_UNIT ( $, .RADIAN. ) );
#89 = CARTESIAN_POINT ( 'NONE',  ( -0.07874999999999980627, 0.0000000000000000000, 2.000000000000000000 ) ) ;
#90 = DIRECTION ( 'NONE',  ( 0.0000000000000000000, 0.0000000000000000000, 1.000000000000000000 ) ) ;
#91 = EDGE_CURVE ( 'NONE', #57, #103, #112, .T. ) ;
#92 = CARTESIAN_POINT ( 'NONE',  ( -0.09375000000000001388, 0.0000000000000000000, 1.984999999999999654 ) ) ;
#93 = DIRECTION ( 'NONE',  ( -0.5000000000000012212, 6.123233995736780827E-17, 0.8660254037844377084 ) ) ;
#94 = CLOSED_SHELL ( 'NONE', ( #235, #51, #177, #65, #27, #161, #179, #31 ) ) ;
#95 = PRODUCT_RELATED_PRODUCT_CATEGORY ( 'part', '', ( #78 ) ) ;
#96 = EDGE_CURVE ( 'NONE', #39, #193, #13, .T. ) ;
#97 = VERTEX_POINT ( 'NONE', #92 ) ;
#98 = EDGE_CURVE ( 'NONE', #249, #136, #19, .T. ) ;
#99 = VECTOR ( 'NONE', #30, 39.37007874015748143 ) ;
#100 = CONICAL_SURFACE ( 'NONE', #49, 0.003999999999999999216, 0.5235987755983003700 ) ;
#101 =( CONVERSION_BASED_UNIT ( 'INCH', #194 ) LENGTH_UNIT ( ) NAMED_UNIT ( #242 ) );
#102 = ORIENTED_EDGE ( 'NONE', *, *, #186, .F. ) ;
#103 = VERTEX_POINT ( 'NONE', #113 ) ;
#104 = ADVANCED_BREP_SHAPE_REPRESENTATION ( 'Micro_RSC-187-1', ( #16, #130 ), #105 ) ;
#105 =( GEOMETRIC_REPRESENTATION_CONTEXT ( 3 ) GLOBAL_UNCERTAINTY_ASSIGNED_CONTEXT ( ( #140 ) ) GLOBAL_UNIT_ASSIGNED_CONTEXT ( ( #75, #88, #170 ) ) REPRESENTATION_CONTEXT ( 'NONE', 'WORKASPACE' ) );
#106 = PRESENTATION_STYLE_ASSIGNMENT (( #236 ) ) ;
#107 = DIRECTION ( 'NONE',  ( 0.0000000000000000000, 0.0000000000000000000, -1.000000000000000000 ) ) ;
#108 = PRODUCT_DEFINITION ( 'UNKNOWN', '', #159, #227 ) ;
#109 = CIRCLE ( 'NONE', #85, 0.07874999999999980627 ) ;
#110 = CARTESIAN_POINT ( 'NONE',  ( 0.0000000000000000000, 0.0000000000000000000, 0.0000000000000000000 ) ) ;
#111 = CARTESIAN_POINT ( 'NONE',  ( -0.003999999999999999216, 5.985461230832687873E-18, 0.0000000000000000000 ) ) ;
#112 = LINE ( 'NONE', #148, #99 ) ;
#113 = CARTESIAN_POINT ( 'NONE',  ( 0.09375000000000001388, 1.148106374200643863E-17, 0.1554515599793062086 ) ) ;
#114 =( GEOMETRIC_REPRESENTATION_CONTEXT ( 3 ) GLOBAL_UNCERTAINTY_ASSIGNED_CONTEXT ( ( #54 ) ) GLOBAL_UNIT_ASSIGNED_CONTEXT ( ( #101, #173, #120 ) ) REPRESENTATION_CONTEXT ( 'NONE', 'WORKASPACE' ) );
#115 = CARTESIAN_POINT ( 'NONE',  ( 0.07874999999999980627, 9.644093543285380530E-18, 2.000000000000000000 ) ) ;
#116 = DIRECTION ( 'NONE',  ( 0.0000000000000000000, 0.0000000000000000000, -1.000000000000000000 ) ) ;
#117 =( LENGTH_UNIT ( ) NAMED_UNIT ( * ) SI_UNIT ( $, .METRE. ) );
#118 = MECHANICAL_DESIGN_GEOMETRIC_PRESENTATION_REPRESENTATION (  '', ( #191 ), #114 ) ;
#119 = PRODUCT_CONTEXT ( 'NONE', #35, 'mechanical' ) ;
#120 =( NAMED_UNIT ( * ) SI_UNIT ( $, .STERADIAN. ) SOLID_ANGLE_UNIT ( ) );
#121 = ORIENTED_EDGE ( 'NONE', *, *, #91, .T. ) ;
#122 = CIRCLE ( 'NONE', #9, 0.09375000000000001388 ) ;
#123 = ORIENTED_EDGE ( 'NONE', *, *, #234, .T. ) ;
#124 = DIRECTION ( 'NONE',  ( -1.000000000000000000, 0.0000000000000000000, 0.0000000000000000000 ) ) ;
#125 = FILL_AREA_STYLE ('',( #239 ) ) ;
#126 = FACE_OUTER_BOUND ( 'NONE', #20, .T. ) ;
#127 =( CONVERSION_BASED_UNIT ( 'INCH', #46 ) LENGTH_UNIT ( ) NAMED_UNIT ( #69 ) );
#128 = AXIS2_PLACEMENT_3D ( 'NONE', #144, #199, #217 ) ;
#129 =( NAMED_UNIT ( * ) PLANE_ANGLE_UNIT ( ) SI_UNIT ( $, .RADIAN. ) );
#130 = AXIS2_PLACEMENT_3D ( 'NONE', #229, #247, #17 ) ;
#131 = CARTESIAN_POINT ( 'NONE',  ( 0.0000000000000000000, 0.0000000000000000000, 1.984999999999999654 ) ) ;
#132 = CARTESIAN_POINT ( 'NONE',  ( 0.07874999999999980627, 1.056257864264590573E-17, 2.000000000000000000 ) ) ;
#133 = LINE ( 'NONE', #32, #4 ) ;
#134 = EDGE_CURVE ( 'NONE', #136, #249, #109, .T. ) ;
#135 = CARTESIAN_POINT ( 'NONE',  ( 0.0000000000000000000, 0.0000000000000000000, 2.000000000000000000 ) ) ;
#136 = VERTEX_POINT ( 'NONE', #89 ) ;
#137 = CONICAL_SURFACE ( 'NONE', #142, 0.07874999999999980627, 0.7853981633974466137 ) ;
#138 = ORIENTED_EDGE ( 'NONE', *, *, #225, .F. ) ;
#139 = CARTESIAN_POINT ( 'NONE',  ( 0.0000000000000000000, 0.0000000000000000000, 0.0000000000000000000 ) ) ;
#140 = UNCERTAINTY_MEASURE_WITH_UNIT (LENGTH_MEASURE( 1.000000000000000082E-05 ), #75, 'distance_accuracy_value', 'NONE');
#141 = FACE_OUTER_BOUND ( 'NONE', #195, .T. ) ;
#142 = AXIS2_PLACEMENT_3D ( 'NONE', #198, #107, #124 ) ;
#143 = VECTOR ( 'NONE', #73, 39.37007874015748143 ) ;
#144 = CARTESIAN_POINT ( 'NONE',  ( 0.0000000000000000000, 0.0000000000000000000, 0.0000000000000000000 ) ) ;
#145 = CARTESIAN_POINT ( 'NONE',  ( 0.0000000000000000000, 0.0000000000000000000, 2.000000000000000000 ) ) ;
#146 = DIRECTION ( 'NONE',  ( -1.000000000000000000, 0.0000000000000000000, 0.0000000000000000000 ) ) ;
#147 = CONICAL_SURFACE ( 'NONE', #180, 0.003999999999999999216, 0.5235987755983003700 ) ;
#148 = CARTESIAN_POINT ( 'NONE',  ( 0.09375000000000001388, 1.148106374200643863E-17, 2.000000000000000000 ) ) ;
#149 = DIMENSIONAL_EXPONENTS ( 1.000000000000000000, 0.0000000000000000000, 0.0000000000000000000, 0.0000000000000000000, 0.0000000000000000000, 0.0000000000000000000, 0.0000000000000000000 ) ;
#150 = DIRECTION ( 'NONE',  ( -0.0000000000000000000, -0.0000000000000000000, -1.000000000000000000 ) ) ;
#151 = EDGE_CURVE ( 'NONE', #103, #193, #122, .T. ) ;
#152 = FACE_OUTER_BOUND ( 'NONE', #79, .T. ) ;
#153 = FACE_OUTER_BOUND ( 'NONE', #228, .T. ) ;
#154 = DIRECTION ( 'NONE',  ( 1.000000000000000000, 0.0000000000000000000, 0.0000000000000000000 ) ) ;
#155 =( LENGTH_UNIT ( ) NAMED_UNIT ( * ) SI_UNIT ( $, .METRE. ) );
#156 = ORIENTED_EDGE ( 'NONE', *, *, #43, .T. ) ;
#157 = ORIENTED_EDGE ( 'NONE', *, *, #151, .F. ) ;
#158 = AXIS2_PLACEMENT_3D ( 'NONE', #185, #150, #168 ) ;
#159 = PRODUCT_DEFINITION_FORMATION_WITH_SPECIFIED_SOURCE ( 'ANY', '', #78, .NOT_KNOWN. ) ;
#160 = CARTESIAN_POINT ( 'NONE',  ( -0.09375000000000001388, 0.0000000000000000000, 2.000000000000000000 ) ) ;
#161 = ADVANCED_FACE ( 'NONE', ( #12 ), #81, .T. ) ;
#162 = ORIENTED_EDGE ( 'NONE', *, *, #70, .F. ) ;
#163 = DIRECTION ( 'NONE',  ( 0.0000000000000000000, 0.0000000000000000000, 1.000000000000000000 ) ) ;
#164 = ORIENTED_EDGE ( 'NONE', *, *, #70, .T. ) ;
#165 = DIRECTION ( 'NONE',  ( -0.0000000000000000000, -0.0000000000000000000, -1.000000000000000000 ) ) ;
#166 = AXIS2_PLACEMENT_3D ( 'NONE', #139, #163, #233 ) ;
#167 = CARTESIAN_POINT ( 'NONE',  ( 0.0000000000000000000, 0.0000000000000000000, 2.000000000000000000 ) ) ;
#168 = DIRECTION ( 'NONE',  ( -1.000000000000000000, 0.0000000000000000000, 0.0000000000000000000 ) ) ;
#169 = CARTESIAN_POINT ( 'NONE',  ( -0.09375000000000001388, 0.0000000000000000000, 0.1554515599793062086 ) ) ;
#170 =( NAMED_UNIT ( * ) SI_UNIT ( $, .STERADIAN. ) SOLID_ANGLE_UNIT ( ) );
#171 = PRODUCT_DEFINITION_SHAPE ( 'NONE', 'NONE',  #108 ) ;
#172 = ORIENTED_EDGE ( 'NONE', *, *, #231, .T. ) ;
#173 =( NAMED_UNIT ( * ) PLANE_ANGLE_UNIT ( ) SI_UNIT ( $, .RADIAN. ) );
#174 = CIRCLE ( 'NONE', #200, 0.003999999999999999216 ) ;
#175 = COLOUR_RGB ( '',0.7921568627450980005, 0.8196078431372548767, 0.9333333333333333481 ) ;
#176 = SURFACE_SIDE_STYLE ('',( #18 ) ) ;
#177 = ADVANCED_FACE ( 'NONE', ( #152 ), #220, .T. ) ;
#178 = EDGE_LOOP ( 'NONE', ( #230, #45, #61, #22 ) ) ;
#179 = ADVANCED_FACE ( 'NONE', ( #188 ), #147, .T. ) ;
#180 = AXIS2_PLACEMENT_3D ( 'NONE', #189, #240, #33 ) ;
#181 =( NAMED_UNIT ( * ) SI_UNIT ( $, .STERADIAN. ) SOLID_ANGLE_UNIT ( ) );
#182 = FACE_OUTER_BOUND ( 'NONE', #84, .T. ) ;
#183 = STYLED_ITEM ( 'NONE', ( #106 ), #16 ) ;
#184 = DIRECTION ( 'NONE',  ( -0.0000000000000000000, -0.0000000000000000000, -1.000000000000000000 ) ) ;
#185 = CARTESIAN_POINT ( 'NONE',  ( 0.0000000000000000000, 0.0000000000000000000, 0.1554515599793062086 ) ) ;
#186 = EDGE_CURVE ( 'NONE', #63, #103, #55, .T. ) ;
#187 =( GEOMETRIC_REPRESENTATION_CONTEXT ( 3 ) GLOBAL_UNCERTAINTY_ASSIGNED_CONTEXT ( ( #67 ) ) GLOBAL_UNIT_ASSIGNED_CONTEXT ( ( #127, #129, #181 ) ) REPRESENTATION_CONTEXT ( 'NONE', 'WORKASPACE' ) );
#188 = FACE_OUTER_BOUND ( 'NONE', #21, .T. ) ;
#189 = CARTESIAN_POINT ( 'NONE',  ( 0.0000000000000000000, 0.0000000000000000000, 0.0000000000000000000 ) ) ;
#190 = COLOUR_RGB ( '',0.7921568627450980005, 0.8196078431372548767, 0.9333333333333333481 ) ;
#191 = STYLED_ITEM ( 'NONE', ( #62 ), #104 ) ;
#192 = ORIENTED_EDGE ( 'NONE', *, *, #43, .F. ) ;
#193 = VERTEX_POINT ( 'NONE', #169 ) ;
#194 = LENGTH_MEASURE_WITH_UNIT ( LENGTH_MEASURE( 0.02539999999999999897 ), #155 );
#195 = EDGE_LOOP ( 'NONE', ( #42, #172, #192, #138 ) ) ;
#196 = ORIENTED_EDGE ( 'NONE', *, *, #6, .F. ) ;
#197 = ORIENTED_EDGE ( 'NONE', *, *, #186, .T. ) ;
#198 = CARTESIAN_POINT ( 'NONE',  ( 0.0000000000000000000, 0.0000000000000000000, 2.000000000000000000 ) ) ;
#199 = DIRECTION ( 'NONE',  ( -0.0000000000000000000, -0.0000000000000000000, -1.000000000000000000 ) ) ;
#200 = AXIS2_PLACEMENT_3D ( 'NONE', #110, #44, #146 ) ;
#201 = DIRECTION ( 'NONE',  ( 0.0000000000000000000, 0.0000000000000000000, 1.000000000000000000 ) ) ;
#202 = CARTESIAN_POINT ( 'NONE',  ( 0.0000000000000000000, 0.0000000000000000000, 0.0000000000000000000 ) ) ;
#203 = APPLICATION_CONTEXT ( 'automotive_design' ) ;
#204 = DIRECTION ( 'NONE',  ( 0.0000000000000000000, 0.0000000000000000000, -1.000000000000000000 ) ) ;
#205 = AXIS2_PLACEMENT_3D ( 'NONE', #212, #47, #86 ) ;
#206 = CARTESIAN_POINT ( 'NONE',  ( 0.0000000000000000000, 0.0000000000000000000, 2.000000000000000000 ) ) ;
#207 = LENGTH_MEASURE_WITH_UNIT ( LENGTH_MEASURE( 0.02539999999999999897 ), #117 );
#208 = SURFACE_STYLE_USAGE ( .BOTH. , #176 ) ;
#209 = CIRCLE ( 'NONE', #25, 0.09375000000000001388 ) ;
#210 = ORIENTED_EDGE ( 'NONE', *, *, #91, .F. ) ;
#211 = ORIENTED_EDGE ( 'NONE', *, *, #40, .T. ) ;
#212 = CARTESIAN_POINT ( 'NONE',  ( 0.0000000000000000000, 0.0000000000000000000, 1.984999999999999654 ) ) ;
#213 = CARTESIAN_POINT ( 'NONE',  ( 0.09375000000000001388, 1.148106374200643863E-17, 1.984999999999999654 ) ) ;
#214 = CIRCLE ( 'NONE', #128, 0.003999999999999999216 ) ;
#215 =( LENGTH_UNIT ( ) NAMED_UNIT ( * ) SI_UNIT ( $, .METRE. ) );
#216 = FACE_OUTER_BOUND ( 'NONE', #77, .T. ) ;
#217 = DIRECTION ( 'NONE',  ( -1.000000000000000000, 0.0000000000000000000, 0.0000000000000000000 ) ) ;
#218 = AXIS2_PLACEMENT_3D ( 'NONE', #206, #204, #53 ) ;
#219 = DIRECTION ( 'NONE',  ( 1.000000000000000000, 0.0000000000000000000, 0.0000000000000000000 ) ) ;
#220 = CYLINDRICAL_SURFACE ( 'NONE', #3, 0.09375000000000001388 ) ;
#221 = DIRECTION ( 'NONE',  ( -1.000000000000000000, 0.0000000000000000000, 0.0000000000000000000 ) ) ;
#222 = AXIS2_PLACEMENT_3D ( 'NONE', #167, #34, #219 ) ;
#223 = DIRECTION ( 'NONE',  ( 1.000000000000000000, 0.0000000000000000000, 0.0000000000000000000 ) ) ;
#224 = DIRECTION ( 'NONE',  ( -1.000000000000000000, 0.0000000000000000000, 0.0000000000000000000 ) ) ;
#225 = EDGE_CURVE ( 'NONE', #136, #97, #133, .T. ) ;
#226 = APPLICATION_PROTOCOL_DEFINITION ( 'draft international standard', 'automotive_design', 1998, #35 ) ;
#227 = PRODUCT_DEFINITION_CONTEXT ( 'detailed design', #203, 'design' ) ;
#228 = EDGE_LOOP ( 'NONE', ( #28, #248, #164, #102 ) ) ;
#229 = CARTESIAN_POINT ( 'NONE',  ( 0.0000000000000000000, 0.0000000000000000000, 0.0000000000000000000 ) ) ;
#230 = ORIENTED_EDGE ( 'NONE', *, *, #231, .F. ) ;
#231 = EDGE_CURVE ( 'NONE', #249, #57, #52, .T. ) ;
#232 = PRESENTATION_LAYER_ASSIGNMENT (  '', '', ( #183 ) ) ;
#233 = DIRECTION ( 'NONE',  ( 1.000000000000000000, 0.0000000000000000000, -0.0000000000000000000 ) ) ;
#234 = EDGE_CURVE ( 'NONE', #57, #97, #209, .T. ) ;
#235 = ADVANCED_FACE ( 'NONE', ( #153 ), #100, .T. ) ;
#236 = SURFACE_STYLE_USAGE ( .BOTH. , #48 ) ;
#237 = VECTOR ( 'NONE', #93, 39.37007874015748854 ) ;
#238 = CARTESIAN_POINT ( 'NONE',  ( 0.003999999999999999216, 0.0000000000000000000, 0.0000000000000000000 ) ) ;
#239 = FILL_AREA_STYLE_COLOUR ( '', #190 ) ;
#240 = DIRECTION ( 'NONE',  ( 0.0000000000000000000, 0.0000000000000000000, 1.000000000000000000 ) ) ;
#241 = CARTESIAN_POINT ( 'NONE',  ( 0.0000000000000000000, 0.0000000000000000000, 2.000000000000000000 ) ) ;
#242 = DIMENSIONAL_EXPONENTS ( 1.000000000000000000, 0.0000000000000000000, 0.0000000000000000000, 0.0000000000000000000, 0.0000000000000000000, 0.0000000000000000000, 0.0000000000000000000 ) ;
#243 = DIRECTION ( 'NONE',  ( 1.000000000000000000, 0.0000000000000000000, 0.0000000000000000000 ) ) ;
#244 = CARTESIAN_POINT ( 'NONE',  ( 0.0000000000000000000, 0.0000000000000000000, 0.1554515599793062086 ) ) ;
#245 = MECHANICAL_DESIGN_GEOMETRIC_PRESENTATION_REPRESENTATION (  '', ( #183 ), #187 ) ;
#246 = DIRECTION ( 'NONE',  ( 0.0000000000000000000, 0.0000000000000000000, 1.000000000000000000 ) ) ;
#247 = DIRECTION ( 'NONE',  ( 0.0000000000000000000, 0.0000000000000000000, 1.000000000000000000 ) ) ;
#248 = ORIENTED_EDGE ( 'NONE', *, *, #96, .T. ) ;
#249 = VERTEX_POINT ( 'NONE', #132 ) ;
ENDSEC;
END-ISO-10303-21;
