ISO-10303-21;
HEADER;
FILE_DESCRIPTION (( 'STEP AP214' ),
    '1' );
FILE_NAME ('05427.STEP',
    '2023-06-22T16:07:09',
    ( '' ),
    ( '' ),
    'SwSTEP 2.0',
    'SolidWorks 2023',
    '' );
FILE_SCHEMA (( 'AUTOMOTIVE_DESIGN' ));
ENDSEC;

DATA;
#1 =( NAMED_UNIT ( * ) SI_UNIT ( $, .STERADIAN. ) SOLID_ANGLE_UNIT ( ) );
#2 = PRESENTATION_STYLE_ASSIGNMENT (( #219 ) ) ;
#3 = LINE ( 'NONE', #71, #230 ) ;
#4 = CARTESIAN_POINT ( 'NONE',  ( -1.530808498934191817E-16, 4.000000000000000000, 0.000000000000000000 ) ) ;
#5 = MECHANICAL_DESIGN_GEOMETRIC_PRESENTATION_REPRESENTATION (  '', ( #65 ), #224 ) ;
#6 = DIRECTION ( 'NONE',  ( 0.000000000000000000, 0.000000000000000000, -1.000000000000000000 ) ) ;
#7 = DIRECTION ( 'NONE',  ( -7.654042494670959086E-17, 1.000000000000000000, -0.000000000000000000 ) ) ;
#8 = CARTESIAN_POINT ( 'NONE',  ( 0.000000000000000000, 0.000000000000000000, 0.000000000000000000 ) ) ;
#9 = MECHANICAL_DESIGN_GEOMETRIC_PRESENTATION_REPRESENTATION (  '', ( #125 ), #220 ) ;
#10 =( CONVERSION_BASED_UNIT ( 'INCH', #129 ) LENGTH_UNIT ( ) NAMED_UNIT ( #155 ) );
#11 =( NAMED_UNIT ( * ) PLANE_ANGLE_UNIT ( ) SI_UNIT ( $, .RADIAN. ) );
#12 = VERTEX_POINT ( 'NONE', #19 ) ;
#13 = DIRECTION ( 'NONE',  ( 0.000000000000000000, 0.000000000000000000, -1.000000000000000000 ) ) ;
#14 =( GEOMETRIC_REPRESENTATION_CONTEXT ( 3 ) GLOBAL_UNCERTAINTY_ASSIGNED_CONTEXT ( ( #149 ) ) GLOBAL_UNIT_ASSIGNED_CONTEXT ( ( #128, #11, #293 ) ) REPRESENTATION_CONTEXT ( 'NONE', 'WORKASPACE' ) );
#15 = ADVANCED_FACE ( 'NONE', ( #115 ), #273, .F. ) ;
#16 = CARTESIAN_POINT ( 'NONE',  ( 0.000000000000000000, 0.000000000000000000, 0.000000000000000000 ) ) ;
#17 = ORIENTED_EDGE ( 'NONE', *, *, #82, .T. ) ;
#18 = AXIS2_PLACEMENT_3D ( 'NONE', #63, #7, #263 ) ;
#19 = CARTESIAN_POINT ( 'NONE',  ( 0.000000000000000000, 0.000000000000000000, -0.2187500000000000000 ) ) ;
#20 = SURFACE_SIDE_STYLE ('',( #276 ) ) ;
#21 = FACE_OUTER_BOUND ( 'NONE', #274, .T. ) ;
#22 = LINE ( 'NONE', #118, #120 ) ;
#23 = ADVANCED_FACE ( 'NONE', ( #21 ), #211, .T. ) ;
#24 =( NAMED_UNIT ( * ) PLANE_ANGLE_UNIT ( ) SI_UNIT ( $, .RADIAN. ) );
#25 = FILL_AREA_STYLE_COLOUR ( '', #121 ) ;
#26 = SURFACE_SIDE_STYLE ('',( #170 ) ) ;
#27 = SURFACE_STYLE_FILL_AREA ( #214 ) ;
#28 =( LENGTH_UNIT ( ) NAMED_UNIT ( * ) SI_UNIT ( $, .METRE. ) );
#29 =( LENGTH_UNIT ( ) NAMED_UNIT ( * ) SI_UNIT ( $, .METRE. ) );
#30 = FILL_AREA_STYLE_COLOUR ( '', #61 ) ;
#31 = CYLINDRICAL_SURFACE ( 'NONE', #38, 0.2187500000000000000 ) ;
#32 = MECHANICAL_DESIGN_GEOMETRIC_PRESENTATION_REPRESENTATION (  '', ( #288 ), #14 ) ;
#33 = LENGTH_MEASURE_WITH_UNIT ( LENGTH_MEASURE( 0.02539999999999999897 ), #151 );
#34 = LINE ( 'NONE', #86, #246 ) ;
#35 = CARTESIAN_POINT ( 'NONE',  ( 0.000000000000000000, 2.000000000000000000, 0.000000000000000000 ) ) ;
#36 = DIMENSIONAL_EXPONENTS ( 1.000000000000000000, 0.000000000000000000, 0.000000000000000000, 0.000000000000000000, 0.000000000000000000, 0.000000000000000000, 0.000000000000000000 ) ;
#37 = DIRECTION ( 'NONE',  ( -1.000000000000000000, 0.000000000000000000, 0.000000000000000000 ) ) ;
#38 = AXIS2_PLACEMENT_3D ( 'NONE', #44, #171, #137 ) ;
#39 = ORIENTED_EDGE ( 'NONE', *, *, #309, .F. ) ;
#40 = CARTESIAN_POINT ( 'NONE',  ( 2.678914873134835064E-17, 2.000000000000000000, 0.2187500000000000000 ) ) ;
#41 = PRESENTATION_LAYER_ASSIGNMENT (  '', '', ( #125 ) ) ;
#42 = EDGE_LOOP ( 'NONE', ( #277, #146, #169, #302 ) ) ;
#43 = ORIENTED_EDGE ( 'NONE', *, *, #239, .T. ) ;
#44 = CARTESIAN_POINT ( 'NONE',  ( 0.000000000000000000, 0.000000000000000000, 0.000000000000000000 ) ) ;
#45 = EDGE_CURVE ( 'NONE', #269, #12, #22, .T. ) ;
#46 = VERTEX_POINT ( 'NONE', #285 ) ;
#47 = FILL_AREA_STYLE ('',( #173 ) ) ;
#48 = MECHANICAL_DESIGN_GEOMETRIC_PRESENTATION_REPRESENTATION (  '', ( #303 ), #289 ) ;
#49 = FILL_AREA_STYLE_COLOUR ( '', #260 ) ;
#50 = ORIENTED_EDGE ( 'NONE', *, *, #270, .F. ) ;
#51 = EDGE_CURVE ( 'NONE', #117, #202, #3, .T. ) ;
#52 = ORIENTED_EDGE ( 'NONE', *, *, #111, .F. ) ;
#53 = FACE_OUTER_BOUND ( 'NONE', #142, .T. ) ;
#54 =( LENGTH_UNIT ( ) NAMED_UNIT ( * ) SI_UNIT ( $, .METRE. ) );
#55 = SURFACE_SIDE_STYLE ('',( #69 ) ) ;
#56 = DIRECTION ( 'NONE',  ( -0.000000000000000000, -1.000000000000000000, -0.000000000000000000 ) ) ;
#57 = DIRECTION ( 'NONE',  ( -1.000000000000000000, 0.000000000000000000, 0.000000000000000000 ) ) ;
#58 = SURFACE_STYLE_USAGE ( .BOTH. , #20 ) ;
#59 = AXIS2_PLACEMENT_3D ( 'NONE', #307, #56, #237 ) ;
#60 = CYLINDRICAL_SURFACE ( 'NONE', #174, 0.2187500000000000555 ) ;
#61 = COLOUR_RGB ( '',0.7921568627450980005, 0.8196078431372548767, 0.9333333333333333481 ) ;
#62 = AXIS2_PLACEMENT_3D ( 'NONE', #258, #114, #57 ) ;
#63 = CARTESIAN_POINT ( 'NONE',  ( -1.530808498934191817E-16, 4.000000000000000000, 0.000000000000000000 ) ) ;
#64 = DIMENSIONAL_EXPONENTS ( 1.000000000000000000, 0.000000000000000000, 0.000000000000000000, 0.000000000000000000, 0.000000000000000000, 0.000000000000000000, 0.000000000000000000 ) ;
#65 = STYLED_ITEM ( 'NONE', ( #187 ), #184 ) ;
#66 = CARTESIAN_POINT ( 'NONE',  ( -1.530808498934191817E-16, 4.000000000000000000, 0.000000000000000000 ) ) ;
#67 = UNCERTAINTY_MEASURE_WITH_UNIT (LENGTH_MEASURE( 1.000000000000000082E-05 ), #233, 'distance_accuracy_value', 'NONE');
#68 = PRESENTATION_LAYER_ASSIGNMENT (  '', '', ( #100 ) ) ;
#69 = SURFACE_STYLE_FILL_AREA ( #183 ) ;
#70 = LENGTH_MEASURE_WITH_UNIT ( LENGTH_MEASURE( 0.02539999999999999897 ), #175 );
#71 = CARTESIAN_POINT ( 'NONE',  ( 2.678914873134835064E-17, 0.000000000000000000, 0.2187500000000000000 ) ) ;
#72 = SURFACE_SIDE_STYLE ('',( #27 ) ) ;
#73 = SURFACE_STYLE_USAGE ( .BOTH. , #55 ) ;
#74 = DIRECTION ( 'NONE',  ( 0.000000000000000000, 0.000000000000000000, 1.000000000000000000 ) ) ;
#75 = DIRECTION ( 'NONE',  ( -0.000000000000000000, -1.000000000000000000, -0.000000000000000000 ) ) ;
#76 = FILL_AREA_STYLE ('',( #49 ) ) ;
#77 = PRODUCT ( '05427', '05427', '', ( #188 ) ) ;
#78 = APPLICATION_CONTEXT ( 'automotive_design' ) ;
#79 = AXIS2_PLACEMENT_3D ( 'NONE', #198, #153, #291 ) ;
#80 = CARTESIAN_POINT ( 'NONE',  ( 6.407665087056279448E-34, 2.000000000000000000, 0.000000000000000000 ) ) ;
#81 = DIRECTION ( 'NONE',  ( -7.654042494670959086E-17, 1.000000000000000000, -0.000000000000000000 ) ) ;
#82 = EDGE_CURVE ( 'NONE', #269, #117, #215, .T. ) ;
#83 = UNCERTAINTY_MEASURE_WITH_UNIT (LENGTH_MEASURE( 1.000000000000000082E-05 ), #212, 'distance_accuracy_value', 'NONE');
#84 = CARTESIAN_POINT ( 'NONE',  ( 0.2187500000000000000, 4.000000000000000000, 2.678914873134836604E-17 ) ) ;
#85 = DIRECTION ( 'NONE',  ( 0.000000000000000000, 0.000000000000000000, -1.000000000000000000 ) ) ;
#86 = CARTESIAN_POINT ( 'NONE',  ( 0.2187499999999999167, 4.000000000000000000, 2.678914873134835988E-17 ) ) ;
#87 = AXIS2_PLACEMENT_3D ( 'NONE', #16, #257, #143 ) ;
#88 = ORIENTED_EDGE ( 'NONE', *, *, #82, .F. ) ;
#89 = AXIS2_PLACEMENT_3D ( 'NONE', #35, #127, #223 ) ;
#90 = CIRCLE ( 'NONE', #279, 0.2187500000000001388 ) ;
#91 = CLOSED_SHELL ( 'NONE', ( #250, #176, #159, #15 ) ) ;
#92 =( GEOMETRIC_REPRESENTATION_CONTEXT ( 3 ) GLOBAL_UNCERTAINTY_ASSIGNED_CONTEXT ( ( #101 ) ) GLOBAL_UNIT_ASSIGNED_CONTEXT ( ( #10, #107, #290 ) ) REPRESENTATION_CONTEXT ( 'NONE', 'WORKASPACE' ) );
#93 = DIRECTION ( 'NONE',  ( 7.654042494670959086E-17, -1.000000000000000000, 0.000000000000000000 ) ) ;
#94 = MANIFOLD_SOLID_BREP ( 'Revolve - Cutting Edge', #160 ) ;
#95 = PRESENTATION_STYLE_ASSIGNMENT (( #216 ) ) ;
#96 = PRESENTATION_STYLE_ASSIGNMENT (( #58 ) ) ;
#97 = FILL_AREA_STYLE_COLOUR ( '', #294 ) ;
#98 = SURFACE_STYLE_USAGE ( .BOTH. , #72 ) ;
#99 =( CONVERSION_BASED_UNIT ( 'INCH', #283 ) LENGTH_UNIT ( ) NAMED_UNIT ( #36 ) );
#100 = STYLED_ITEM ( 'NONE', ( #95 ), #94 ) ;
#101 = UNCERTAINTY_MEASURE_WITH_UNIT (LENGTH_MEASURE( 1.000000000000000082E-05 ), #10, 'distance_accuracy_value', 'NONE');
#102 = FACE_OUTER_BOUND ( 'NONE', #42, .T. ) ;
#103 = ADVANCED_FACE ( 'NONE', ( #53 ), #213, .T. ) ;
#104 = DIRECTION ( 'NONE',  ( -0.000000000000000000, -1.000000000000000000, -0.000000000000000000 ) ) ;
#105 = PRESENTATION_LAYER_ASSIGNMENT (  '', '', ( #65 ) ) ;
#106 = ORIENTED_EDGE ( 'NONE', *, *, #301, .F. ) ;
#107 =( NAMED_UNIT ( * ) PLANE_ANGLE_UNIT ( ) SI_UNIT ( $, .RADIAN. ) );
#108 = ORIENTED_EDGE ( 'NONE', *, *, #270, .T. ) ;
#109 = AXIS2_PLACEMENT_3D ( 'NONE', #241, #203, #6 ) ;
#110 = AXIS2_PLACEMENT_3D ( 'NONE', #178, #74, #162 ) ;
#111 = EDGE_CURVE ( 'NONE', #12, #202, #200, .T. ) ;
#112 = EDGE_LOOP ( 'NONE', ( #88, #165 ) ) ;
#113 = CIRCLE ( 'NONE', #190, 0.2187500000000000000 ) ;
#114 = DIRECTION ( 'NONE',  ( -7.654042494670959086E-17, 1.000000000000000000, -0.000000000000000000 ) ) ;
#115 = FACE_OUTER_BOUND ( 'NONE', #280, .T. ) ;
#116 = SURFACE_SIDE_STYLE ('',( #123 ) ) ;
#117 = VERTEX_POINT ( 'NONE', #40 ) ;
#118 = CARTESIAN_POINT ( 'NONE',  ( 0.000000000000000000, 0.000000000000000000, -0.2187500000000000000 ) ) ;
#119 = FACE_OUTER_BOUND ( 'NONE', #163, .T. ) ;
#120 = VECTOR ( 'NONE', #235, 39.37007874015748143 ) ;
#121 = COLOUR_RGB ( '',1.000000000000000000, 0.000000000000000000, 0.000000000000000000 ) ;
#122 = LENGTH_MEASURE_WITH_UNIT ( LENGTH_MEASURE( 0.02539999999999999897 ), #28 );
#123 = SURFACE_STYLE_FILL_AREA ( #76 ) ;
#124 = DIRECTION ( 'NONE',  ( -1.000000000000000000, 0.000000000000000000, 0.000000000000000000 ) ) ;
#125 = STYLED_ITEM ( 'NONE', ( #138 ), #23 ) ;
#126 = DIMENSIONAL_EXPONENTS ( 1.000000000000000000, 0.000000000000000000, 0.000000000000000000, 0.000000000000000000, 0.000000000000000000, 0.000000000000000000, 0.000000000000000000 ) ;
#127 = DIRECTION ( 'NONE',  ( -7.654042494670959086E-17, 1.000000000000000000, -0.000000000000000000 ) ) ;
#128 =( CONVERSION_BASED_UNIT ( 'INCH', #33 ) LENGTH_UNIT ( ) NAMED_UNIT ( #264 ) );
#129 = LENGTH_MEASURE_WITH_UNIT ( LENGTH_MEASURE( 0.02539999999999999897 ), #244 );
#130 = MECHANICAL_DESIGN_GEOMETRIC_PRESENTATION_REPRESENTATION (  '', ( #179 ), #210 ) ;
#131 = DIRECTION ( 'NONE',  ( 0.000000000000000000, 0.000000000000000000, -1.000000000000000000 ) ) ;
#132 = AXIS2_PLACEMENT_3D ( 'NONE', #8, #104, #131 ) ;
#133 = CARTESIAN_POINT ( 'NONE',  ( -0.2187500000000002498, 4.000000000000000000, 0.000000000000000000 ) ) ;
#134 = UNCERTAINTY_MEASURE_WITH_UNIT (LENGTH_MEASURE( 1.000000000000000082E-05 ), #218, 'distance_accuracy_value', 'NONE');
#135 = ORIENTED_EDGE ( 'NONE', *, *, #139, .F. ) ;
#136 = VERTEX_POINT ( 'NONE', #133 ) ;
#137 = DIRECTION ( 'NONE',  ( 0.000000000000000000, 0.000000000000000000, -1.000000000000000000 ) ) ;
#138 = PRESENTATION_STYLE_ASSIGNMENT (( #73 ) ) ;
#139 = EDGE_CURVE ( 'NONE', #227, #136, #90, .T. ) ;
#140 = PRESENTATION_LAYER_ASSIGNMENT (  '', '', ( #288 ) ) ;
#141 = CIRCLE ( 'NONE', #89, 0.2187500000000000000 ) ;
#142 = EDGE_LOOP ( 'NONE', ( #296, #304, #158, #106 ) ) ;
#143 = DIRECTION ( 'NONE',  ( 0.000000000000000000, 0.000000000000000000, -1.000000000000000000 ) ) ;
#144 = LENGTH_MEASURE_WITH_UNIT ( LENGTH_MEASURE( 0.02539999999999999897 ), #256 );
#145 = SURFACE_SIDE_STYLE ('',( #282 ) ) ;
#146 = ORIENTED_EDGE ( 'NONE', *, *, #222, .T. ) ;
#147 = COLOUR_RGB ( '',1.000000000000000000, 0.000000000000000000, 0.000000000000000000 ) ;
#148 = FACE_OUTER_BOUND ( 'NONE', #112, .T. ) ;
#149 = UNCERTAINTY_MEASURE_WITH_UNIT (LENGTH_MEASURE( 1.000000000000000082E-05 ), #128, 'distance_accuracy_value', 'NONE');
#150 = CARTESIAN_POINT ( 'NONE',  ( -0.2187500000000001943, 4.000000000000000000, 0.000000000000000000 ) ) ;
#151 =( LENGTH_UNIT ( ) NAMED_UNIT ( * ) SI_UNIT ( $, .METRE. ) );
#152 = CIRCLE ( 'NONE', #18, 0.2187500000000001388 ) ;
#153 = DIRECTION ( 'NONE',  ( 0.000000000000000000, 1.000000000000000000, 0.000000000000000000 ) ) ;
#154 = ORIENTED_EDGE ( 'NONE', *, *, #45, .F. ) ;
#155 = DIMENSIONAL_EXPONENTS ( 1.000000000000000000, 0.000000000000000000, 0.000000000000000000, 0.000000000000000000, 0.000000000000000000, 0.000000000000000000, 0.000000000000000000 ) ;
#156 = DIRECTION ( 'NONE',  ( -1.000000000000000000, 0.000000000000000000, 0.000000000000000000 ) ) ;
#157 = EDGE_CURVE ( 'NONE', #117, #269, #113, .T. ) ;
#158 = ORIENTED_EDGE ( 'NONE', *, *, #45, .T. ) ;
#159 = ADVANCED_FACE ( 'NONE', ( #205 ), #298, .T. ) ;
#160 = CLOSED_SHELL ( 'NONE', ( #305, #189, #103, #23 ) ) ;
#161 = ORIENTED_EDGE ( 'NONE', *, *, #111, .T. ) ;
#162 = DIRECTION ( 'NONE',  ( 1.000000000000000000, 0.000000000000000000, 0.000000000000000000 ) ) ;
#163 = EDGE_LOOP ( 'NONE', ( #39, #50 ) ) ;
#164 = SHAPE_DEFINITION_REPRESENTATION ( #228, #286 ) ;
#165 = ORIENTED_EDGE ( 'NONE', *, *, #157, .F. ) ;
#166 = MECHANICAL_DESIGN_GEOMETRIC_PRESENTATION_REPRESENTATION (  '', ( #100 ), #268 ) ;
#167 =( CONVERSION_BASED_UNIT ( 'INCH', #70 ) LENGTH_UNIT ( ) NAMED_UNIT ( #64 ) );
#168 = FILL_AREA_STYLE ('',( #25 ) ) ;
#169 = ORIENTED_EDGE ( 'NONE', *, *, #239, .F. ) ;
#170 = SURFACE_STYLE_FILL_AREA ( #47 ) ;
#171 = DIRECTION ( 'NONE',  ( -0.000000000000000000, -1.000000000000000000, -0.000000000000000000 ) ) ;
#172 =( NAMED_UNIT ( * ) PLANE_ANGLE_UNIT ( ) SI_UNIT ( $, .RADIAN. ) );
#173 = FILL_AREA_STYLE_COLOUR ( '', #254 ) ;
#174 = AXIS2_PLACEMENT_3D ( 'NONE', #266, #240, #37 ) ;
#175 =( LENGTH_UNIT ( ) NAMED_UNIT ( * ) SI_UNIT ( $, .METRE. ) );
#176 = ADVANCED_FACE ( 'NONE', ( #119 ), #217, .F. ) ;
#177 = DIRECTION ( 'NONE',  ( -7.654042494670959086E-17, 1.000000000000000000, -0.000000000000000000 ) ) ;
#178 = CARTESIAN_POINT ( 'NONE',  ( 0.000000000000000000, 0.000000000000000000, 0.000000000000000000 ) ) ;
#179 = STYLED_ITEM ( 'NONE', ( #2 ), #189 ) ;
#180 = CIRCLE ( 'NONE', #132, 0.2187500000000000000 ) ;
#181 = DIMENSIONAL_EXPONENTS ( 1.000000000000000000, 0.000000000000000000, 0.000000000000000000, 0.000000000000000000, 0.000000000000000000, 0.000000000000000000, 0.000000000000000000 ) ;
#182 = ORIENTED_EDGE ( 'NONE', *, *, #222, .F. ) ;
#183 = FILL_AREA_STYLE ('',( #284 ) ) ;
#184 = MANIFOLD_SOLID_BREP ( 'Revolve - Tool Body (Straight Shanked)', #91 ) ;
#185 = EDGE_LOOP ( 'NONE', ( #182, #108, #209, #135 ) ) ;
#186 = PRODUCT_DEFINITION ( 'UNKNOWN', '', #300, #206 ) ;
#187 = PRESENTATION_STYLE_ASSIGNMENT (( #98 ) ) ;
#188 = PRODUCT_CONTEXT ( 'NONE', #197, 'mechanical' ) ;
#189 = ADVANCED_FACE ( 'NONE', ( #148 ), #221, .T. ) ;
#190 = AXIS2_PLACEMENT_3D ( 'NONE', #226, #267, #13 ) ;
#191 = FILL_AREA_STYLE ('',( #97 ) ) ;
#192 =( NAMED_UNIT ( * ) SI_UNIT ( $, .STERADIAN. ) SOLID_ANGLE_UNIT ( ) );
#193 = DIRECTION ( 'NONE',  ( 1.000000000000000000, 7.654042494670959086E-17, 0.000000000000000000 ) ) ;
#194 =( NAMED_UNIT ( * ) PLANE_ANGLE_UNIT ( ) SI_UNIT ( $, .RADIAN. ) );
#195 = VECTOR ( 'NONE', #242, 39.37007874015748143 ) ;
#196 = CARTESIAN_POINT ( 'NONE',  ( 0.000000000000000000, 0.000000000000000000, 0.000000000000000000 ) ) ;
#197 = APPLICATION_CONTEXT ( 'automotive_design' ) ;
#198 = CARTESIAN_POINT ( 'NONE',  ( 0.000000000000000000, 2.000000000000000000, 0.000000000000000000 ) ) ;
#199 = LINE ( 'NONE', #150, #195 ) ;
#200 = CIRCLE ( 'NONE', #234, 0.2187500000000000000 ) ;
#201 = FACE_OUTER_BOUND ( 'NONE', #249, .T. ) ;
#202 = VERTEX_POINT ( 'NONE', #245 ) ;
#203 = DIRECTION ( 'NONE',  ( -0.000000000000000000, -1.000000000000000000, -0.000000000000000000 ) ) ;
#204 = ORIENTED_EDGE ( 'NONE', *, *, #51, .T. ) ;
#205 = FACE_OUTER_BOUND ( 'NONE', #185, .T. ) ;
#206 = PRODUCT_DEFINITION_CONTEXT ( 'detailed design', #78, 'design' ) ;
#207 =( NAMED_UNIT ( * ) PLANE_ANGLE_UNIT ( ) SI_UNIT ( $, .RADIAN. ) );
#208 = DIMENSIONAL_EXPONENTS ( 1.000000000000000000, 0.000000000000000000, 0.000000000000000000, 0.000000000000000000, 0.000000000000000000, 0.000000000000000000, 0.000000000000000000 ) ;
#209 = ORIENTED_EDGE ( 'NONE', *, *, #251, .T. ) ;
#210 =( GEOMETRIC_REPRESENTATION_CONTEXT ( 3 ) GLOBAL_UNCERTAINTY_ASSIGNED_CONTEXT ( ( #265 ) ) GLOBAL_UNIT_ASSIGNED_CONTEXT ( ( #167, #207, #1 ) ) REPRESENTATION_CONTEXT ( 'NONE', 'WORKASPACE' ) );
#211 = PLANE ( 'NONE',  #87 ) ;
#212 =( CONVERSION_BASED_UNIT ( 'INCH', #253 ) LENGTH_UNIT ( ) NAMED_UNIT ( #208 ) );
#213 = CYLINDRICAL_SURFACE ( 'NONE', #109, 0.2187500000000000000 ) ;
#214 = FILL_AREA_STYLE ('',( #30 ) ) ;
#215 = CIRCLE ( 'NONE', #59, 0.2187500000000000000 ) ;
#216 = SURFACE_STYLE_USAGE ( .BOTH. , #26 ) ;
#217 = PLANE ( 'NONE',  #299 ) ;
#218 =( CONVERSION_BASED_UNIT ( 'INCH', #122 ) LENGTH_UNIT ( ) NAMED_UNIT ( #181 ) );
#219 = SURFACE_STYLE_USAGE ( .BOTH. , #116 ) ;
#220 =( GEOMETRIC_REPRESENTATION_CONTEXT ( 3 ) GLOBAL_UNCERTAINTY_ASSIGNED_CONTEXT ( ( #67 ) ) GLOBAL_UNIT_ASSIGNED_CONTEXT ( ( #233, #172, #292 ) ) REPRESENTATION_CONTEXT ( 'NONE', 'WORKASPACE' ) );
#221 = PLANE ( 'NONE',  #79 ) ;
#222 = EDGE_CURVE ( 'NONE', #306, #227, #34, .T. ) ;
#223 = DIRECTION ( 'NONE',  ( -1.000000000000000000, 0.000000000000000000, 0.000000000000000000 ) ) ;
#224 =( GEOMETRIC_REPRESENTATION_CONTEXT ( 3 ) GLOBAL_UNCERTAINTY_ASSIGNED_CONTEXT ( ( #295 ) ) GLOBAL_UNIT_ASSIGNED_CONTEXT ( ( #99, #24, #236 ) ) REPRESENTATION_CONTEXT ( 'NONE', 'WORKASPACE' ) );
#225 = CARTESIAN_POINT ( 'NONE',  ( 0.000000000000000000, 2.000000000000000000, -0.2187500000000000000 ) ) ;
#226 = CARTESIAN_POINT ( 'NONE',  ( 0.000000000000000000, 2.000000000000000000, 0.000000000000000000 ) ) ;
#227 = VERTEX_POINT ( 'NONE', #84 ) ;
#228 = PRODUCT_DEFINITION_SHAPE ( 'NONE', 'NONE',  #186 ) ;
#229 = CARTESIAN_POINT ( 'NONE',  ( 0.2187500000000000000, 2.000000000000000000, 2.678914873134836604E-17 ) ) ;
#230 = VECTOR ( 'NONE', #75, 39.37007874015748143 ) ;
#231 = CARTESIAN_POINT ( 'NONE',  ( 0.2187500000000000000, 4.000000000000000000, 0.000000000000000000 ) ) ;
#232 = DIRECTION ( 'NONE',  ( -1.000000000000000000, -7.654042494670959086E-17, 0.000000000000000000 ) ) ;
#233 =( CONVERSION_BASED_UNIT ( 'INCH', #144 ) LENGTH_UNIT ( ) NAMED_UNIT ( #126 ) );
#234 = AXIS2_PLACEMENT_3D ( 'NONE', #196, #297, #85 ) ;
#235 = DIRECTION ( 'NONE',  ( -0.000000000000000000, -1.000000000000000000, -0.000000000000000000 ) ) ;
#236 =( NAMED_UNIT ( * ) SI_UNIT ( $, .STERADIAN. ) SOLID_ANGLE_UNIT ( ) );
#237 = DIRECTION ( 'NONE',  ( 0.000000000000000000, 0.000000000000000000, -1.000000000000000000 ) ) ;
#238 = DIRECTION ( 'NONE',  ( -7.654042494670959086E-17, 1.000000000000000000, -0.000000000000000000 ) ) ;
#239 = EDGE_CURVE ( 'NONE', #136, #227, #152, .T. ) ;
#240 = DIRECTION ( 'NONE',  ( -7.654042494670959086E-17, 1.000000000000000000, -0.000000000000000000 ) ) ;
#241 = CARTESIAN_POINT ( 'NONE',  ( 0.000000000000000000, 0.000000000000000000, 0.000000000000000000 ) ) ;
#242 = DIRECTION ( 'NONE',  ( -7.654042494670959086E-17, 1.000000000000000000, -0.000000000000000000 ) ) ;
#243 = SURFACE_STYLE_USAGE ( .BOTH. , #145 ) ;
#244 =( LENGTH_UNIT ( ) NAMED_UNIT ( * ) SI_UNIT ( $, .METRE. ) );
#245 = CARTESIAN_POINT ( 'NONE',  ( 2.678914873134835064E-17, 0.000000000000000000, 0.2187500000000000000 ) ) ;
#246 = VECTOR ( 'NONE', #81, 39.37007874015748143 ) ;
#247 = PRESENTATION_LAYER_ASSIGNMENT (  '', '', ( #303 ) ) ;
#248 = ORIENTED_EDGE ( 'NONE', *, *, #301, .T. ) ;
#249 = EDGE_LOOP ( 'NONE', ( #17, #204, #52, #154 ) ) ;
#250 = ADVANCED_FACE ( 'NONE', ( #102 ), #60, .T. ) ;
#251 = EDGE_CURVE ( 'NONE', #46, #136, #199, .T. ) ;
#252 = ORIENTED_EDGE ( 'NONE', *, *, #139, .T. ) ;
#253 = LENGTH_MEASURE_WITH_UNIT ( LENGTH_MEASURE( 0.02539999999999999897 ), #54 );
#254 = COLOUR_RGB ( '',0.7921568627450980005, 0.8196078431372548767, 0.9333333333333333481 ) ;
#255 = PRODUCT_RELATED_PRODUCT_CATEGORY ( 'part', '', ( #77 ) ) ;
#256 =( LENGTH_UNIT ( ) NAMED_UNIT ( * ) SI_UNIT ( $, .METRE. ) );
#257 = DIRECTION ( 'NONE',  ( 0.000000000000000000, -1.000000000000000000, -0.000000000000000000 ) ) ;
#258 = CARTESIAN_POINT ( 'NONE',  ( 0.000000000000000000, 2.000000000000000000, 0.000000000000000000 ) ) ;
#259 = PRESENTATION_LAYER_ASSIGNMENT (  '', '', ( #179 ) ) ;
#260 = COLOUR_RGB ( '',1.000000000000000000, 0.000000000000000000, 0.000000000000000000 ) ;
#261 = PRESENTATION_STYLE_ASSIGNMENT (( #243 ) ) ;
#262 = APPLICATION_PROTOCOL_DEFINITION ( 'draft international standard', 'automotive_design', 1998, #197 ) ;
#263 = DIRECTION ( 'NONE',  ( -1.000000000000000000, 0.000000000000000000, 0.000000000000000000 ) ) ;
#264 = DIMENSIONAL_EXPONENTS ( 1.000000000000000000, 0.000000000000000000, 0.000000000000000000, 0.000000000000000000, 0.000000000000000000, 0.000000000000000000, 0.000000000000000000 ) ;
#265 = UNCERTAINTY_MEASURE_WITH_UNIT (LENGTH_MEASURE( 1.000000000000000082E-05 ), #167, 'distance_accuracy_value', 'NONE');
#266 = CARTESIAN_POINT ( 'NONE',  ( -1.530808498934191817E-16, 4.000000000000000000, 0.000000000000000000 ) ) ;
#267 = DIRECTION ( 'NONE',  ( -0.000000000000000000, -1.000000000000000000, -0.000000000000000000 ) ) ;
#268 =( GEOMETRIC_REPRESENTATION_CONTEXT ( 3 ) GLOBAL_UNCERTAINTY_ASSIGNED_CONTEXT ( ( #134 ) ) GLOBAL_UNIT_ASSIGNED_CONTEXT ( ( #218, #194, #278 ) ) REPRESENTATION_CONTEXT ( 'NONE', 'WORKASPACE' ) );
#269 = VERTEX_POINT ( 'NONE', #225 ) ;
#270 = EDGE_CURVE ( 'NONE', #306, #46, #141, .T. ) ;
#271 = AXIS2_PLACEMENT_3D ( 'NONE', #4, #238, #124 ) ;
#272 = CIRCLE ( 'NONE', #62, 0.2187500000000000000 ) ;
#273 = PLANE ( 'NONE',  #308 ) ;
#274 = EDGE_LOOP ( 'NONE', ( #161, #248 ) ) ;
#275 = DIRECTION ( 'NONE',  ( -7.654042494670959086E-17, 1.000000000000000000, 0.000000000000000000 ) ) ;
#276 = SURFACE_STYLE_FILL_AREA ( #168 ) ;
#277 = ORIENTED_EDGE ( 'NONE', *, *, #309, .T. ) ;
#278 =( NAMED_UNIT ( * ) SI_UNIT ( $, .STERADIAN. ) SOLID_ANGLE_UNIT ( ) );
#279 = AXIS2_PLACEMENT_3D ( 'NONE', #66, #177, #156 ) ;
#280 = EDGE_LOOP ( 'NONE', ( #43, #252 ) ) ;
#281 = APPLICATION_PROTOCOL_DEFINITION ( 'draft international standard', 'automotive_design', 1998, #78 ) ;
#282 = SURFACE_STYLE_FILL_AREA ( #191 ) ;
#283 = LENGTH_MEASURE_WITH_UNIT ( LENGTH_MEASURE( 0.02539999999999999897 ), #29 );
#284 = FILL_AREA_STYLE_COLOUR ( '', #147 ) ;
#285 = CARTESIAN_POINT ( 'NONE',  ( -0.2187500000000000000, 2.000000000000000000, 0.000000000000000000 ) ) ;
#286 = ADVANCED_BREP_SHAPE_REPRESENTATION ( '05427', ( #94, #184, #110 ), #92 ) ;
#287 =( NAMED_UNIT ( * ) PLANE_ANGLE_UNIT ( ) SI_UNIT ( $, .RADIAN. ) );
#288 = STYLED_ITEM ( 'NONE', ( #261 ), #103 ) ;
#289 =( GEOMETRIC_REPRESENTATION_CONTEXT ( 3 ) GLOBAL_UNCERTAINTY_ASSIGNED_CONTEXT ( ( #83 ) ) GLOBAL_UNIT_ASSIGNED_CONTEXT ( ( #212, #287, #192 ) ) REPRESENTATION_CONTEXT ( 'NONE', 'WORKASPACE' ) );
#290 =( NAMED_UNIT ( * ) SI_UNIT ( $, .STERADIAN. ) SOLID_ANGLE_UNIT ( ) );
#291 = DIRECTION ( 'NONE',  ( 0.000000000000000000, -0.000000000000000000, 1.000000000000000000 ) ) ;
#292 =( NAMED_UNIT ( * ) SI_UNIT ( $, .STERADIAN. ) SOLID_ANGLE_UNIT ( ) );
#293 =( NAMED_UNIT ( * ) SI_UNIT ( $, .STERADIAN. ) SOLID_ANGLE_UNIT ( ) );
#294 = COLOUR_RGB ( '',1.000000000000000000, 0.000000000000000000, 0.000000000000000000 ) ;
#295 = UNCERTAINTY_MEASURE_WITH_UNIT (LENGTH_MEASURE( 1.000000000000000082E-05 ), #99, 'distance_accuracy_value', 'NONE');
#296 = ORIENTED_EDGE ( 'NONE', *, *, #51, .F. ) ;
#297 = DIRECTION ( 'NONE',  ( -0.000000000000000000, -1.000000000000000000, -0.000000000000000000 ) ) ;
#298 = CYLINDRICAL_SURFACE ( 'NONE', #271, 0.2187500000000000555 ) ;
#299 = AXIS2_PLACEMENT_3D ( 'NONE', #80, #275, #232 ) ;
#300 = PRODUCT_DEFINITION_FORMATION_WITH_SPECIFIED_SOURCE ( 'ANY', '', #77, .NOT_KNOWN. ) ;
#301 = EDGE_CURVE ( 'NONE', #202, #12, #180, .T. ) ;
#302 = ORIENTED_EDGE ( 'NONE', *, *, #251, .F. ) ;
#303 = STYLED_ITEM ( 'NONE', ( #96 ), #305 ) ;
#304 = ORIENTED_EDGE ( 'NONE', *, *, #157, .T. ) ;
#305 = ADVANCED_FACE ( 'NONE', ( #201 ), #31, .T. ) ;
#306 = VERTEX_POINT ( 'NONE', #229 ) ;
#307 = CARTESIAN_POINT ( 'NONE',  ( 0.000000000000000000, 2.000000000000000000, 0.000000000000000000 ) ) ;
#308 = AXIS2_PLACEMENT_3D ( 'NONE', #231, #93, #193 ) ;
#309 = EDGE_CURVE ( 'NONE', #46, #306, #272, .T. ) ;
ENDSEC;
END-ISO-10303-21;
