ISO-10303-21;
HEADER;
FILE_DESCRIPTION (( 'STEP AP214' ),
    '1' );
FILE_NAME ('23120.STEP',
    '2023-06-22T16:34:34',
    ( '' ),
    ( '' ),
    'SwSTEP 2.0',
    'SolidWorks 2023',
    '' );
FILE_SCHEMA (( 'AUTOMOTIVE_DESIGN' ));
ENDSEC;

DATA;
#1 = PRESENTATION_LAYER_ASSIGNMENT (  '', '', ( #270 ) ) ;
#2 = SURFACE_STYLE_USAGE ( .BOTH. , #223 ) ;
#3 = PRODUCT ( '23120', '23120', '', ( #121 ) ) ;
#4 = PLANE ( 'NONE',  #149 ) ;
#5 = SURFACE_SIDE_STYLE ('',( #175 ) ) ;
#6 = AXIS2_PLACEMENT_3D ( 'NONE', #158, #230, #248 ) ;
#7 = CIRCLE ( 'NONE', #96, 0.1562500000000000000 ) ;
#8 =( NAMED_UNIT ( * ) SI_UNIT ( $, .STERADIAN. ) SOLID_ANGLE_UNIT ( ) );
#9 = LINE ( 'NONE', #28, #18 ) ;
#10 = CARTESIAN_POINT ( 'NONE',  ( 0.000000000000000000, 0.000000000000000000, 0.000000000000000000 ) ) ;
#11 = DIRECTION ( 'NONE',  ( 0.000000000000000000, 0.000000000000000000, -1.000000000000000000 ) ) ;
#12 =( CONVERSION_BASED_UNIT ( 'INCH', #116 ) LENGTH_UNIT ( ) NAMED_UNIT ( #277 ) );
#13 = CARTESIAN_POINT ( 'NONE',  ( 0.000000000000000000, 0.4375000000000000000, 0.000000000000000000 ) ) ;
#14 = DIRECTION ( 'NONE',  ( -1.000000000000000000, 7.837739514543064125E-17, 0.000000000000000000 ) ) ;
#15 = SURFACE_STYLE_USAGE ( .BOTH. , #173 ) ;
#16 =( CONVERSION_BASED_UNIT ( 'INCH', #259 ) LENGTH_UNIT ( ) NAMED_UNIT ( #134 ) );
#17 = PRODUCT_DEFINITION_SHAPE ( 'NONE', 'NONE',  #289 ) ;
#18 = VECTOR ( 'NONE', #200, 39.37007874015748143 ) ;
#19 = EDGE_LOOP ( 'NONE', ( #120, #285 ) ) ;
#20 = EDGE_LOOP ( 'NONE', ( #301, #101, #34, #241 ) ) ;
#21 = DIRECTION ( 'NONE',  ( 0.000000000000000000, 0.000000000000000000, 1.000000000000000000 ) ) ;
#22 = ADVANCED_FACE ( 'NONE', ( #38 ), #282, .T. ) ;
#23 = VERTEX_POINT ( 'NONE', #156 ) ;
#24 = COLOUR_RGB ( '',0.7921568627450980005, 0.8196078431372548767, 0.9333333333333333481 ) ;
#25 = ORIENTED_EDGE ( 'NONE', *, *, #210, .F. ) ;
#26 = MANIFOLD_SOLID_BREP ( 'Revolve - Tool Body (Straight Shanked)', #78 ) ;
#27 = CARTESIAN_POINT ( 'NONE',  ( 0.000000000000000000, 0.000000000000000000, -0.1562500000000000000 ) ) ;
#28 = CARTESIAN_POINT ( 'NONE',  ( 0.1562500000000000833, 2.000000000000000000, 1.913510623667738539E-17 ) ) ;
#29 = CARTESIAN_POINT ( 'NONE',  ( 0.000000000000000000, 0.000000000000000000, 0.000000000000000000 ) ) ;
#30 = DIRECTION ( 'NONE',  ( -0.000000000000000000, -1.000000000000000000, -0.000000000000000000 ) ) ;
#31 = PRODUCT_DEFINITION_FORMATION_WITH_SPECIFIED_SOURCE ( 'ANY', '', #3, .NOT_KNOWN. ) ;
#32 = PRESENTATION_STYLE_ASSIGNMENT (( #269 ) ) ;
#33 = DIRECTION ( 'NONE',  ( -1.000000000000000000, 0.000000000000000000, 0.000000000000000000 ) ) ;
#34 = ORIENTED_EDGE ( 'NONE', *, *, #42, .F. ) ;
#35 = FILL_AREA_STYLE_COLOUR ( '', #94 ) ;
#36 =( LENGTH_UNIT ( ) NAMED_UNIT ( * ) SI_UNIT ( $, .METRE. ) );
#37 = UNCERTAINTY_MEASURE_WITH_UNIT (LENGTH_MEASURE( 1.000000000000000082E-05 ), #165, 'distance_accuracy_value', 'NONE');
#38 = FACE_OUTER_BOUND ( 'NONE', #74, .T. ) ;
#39 = MECHANICAL_DESIGN_GEOMETRIC_PRESENTATION_REPRESENTATION (  '', ( #46 ), #123 ) ;
#40 =( LENGTH_UNIT ( ) NAMED_UNIT ( * ) SI_UNIT ( $, .METRE. ) );
#41 = PRODUCT_DEFINITION_CONTEXT ( 'detailed design', #144, 'design' ) ;
#42 = EDGE_CURVE ( 'NONE', #23, #169, #297, .T. ) ;
#43 = CARTESIAN_POINT ( 'NONE',  ( 1.913510623667739463E-17, 0.4375000000000000000, 0.1562500000000000000 ) ) ;
#44 = DIRECTION ( 'NONE',  ( -7.837739514543064125E-17, -1.000000000000000000, 0.000000000000000000 ) ) ;
#45 = UNCERTAINTY_MEASURE_WITH_UNIT (LENGTH_MEASURE( 1.000000000000000082E-05 ), #16, 'distance_accuracy_value', 'NONE');
#46 = STYLED_ITEM ( 'NONE', ( #212 ), #26 ) ;
#47 = ORIENTED_EDGE ( 'NONE', *, *, #114, .T. ) ;
#48 =( NAMED_UNIT ( * ) SI_UNIT ( $, .STERADIAN. ) SOLID_ANGLE_UNIT ( ) );
#49 =( NAMED_UNIT ( * ) PLANE_ANGLE_UNIT ( ) SI_UNIT ( $, .RADIAN. ) );
#50 =( NAMED_UNIT ( * ) PLANE_ANGLE_UNIT ( ) SI_UNIT ( $, .RADIAN. ) );
#51 = AXIS2_PLACEMENT_3D ( 'NONE', #128, #155, #105 ) ;
#52 = AXIS2_PLACEMENT_3D ( 'NONE', #215, #258, #201 ) ;
#53 =( NAMED_UNIT ( * ) PLANE_ANGLE_UNIT ( ) SI_UNIT ( $, .RADIAN. ) );
#54 = CYLINDRICAL_SURFACE ( 'NONE', #182, 0.1562500000000000000 ) ;
#55 = AXIS2_PLACEMENT_3D ( 'NONE', #151, #130, #197 ) ;
#56 = CARTESIAN_POINT ( 'NONE',  ( 1.224646799147353700E-16, 2.000000000000000000, 0.000000000000000000 ) ) ;
#57 = DIMENSIONAL_EXPONENTS ( 1.000000000000000000, 0.000000000000000000, 0.000000000000000000, 0.000000000000000000, 0.000000000000000000, 0.000000000000000000, 0.000000000000000000 ) ;
#58 = FILL_AREA_STYLE ('',( #174 ) ) ;
#59 = DIRECTION ( 'NONE',  ( 0.000000000000000000, 0.000000000000000000, -1.000000000000000000 ) ) ;
#60 = CARTESIAN_POINT ( 'NONE',  ( 0.000000000000000000, 0.4375000000000000000, 0.000000000000000000 ) ) ;
#61 = EDGE_CURVE ( 'NONE', #309, #202, #67, .T. ) ;
#62 = MECHANICAL_DESIGN_GEOMETRIC_PRESENTATION_REPRESENTATION (  '', ( #160 ), #190 ) ;
#63 =( NAMED_UNIT ( * ) PLANE_ANGLE_UNIT ( ) SI_UNIT ( $, .RADIAN. ) );
#64 = DIRECTION ( 'NONE',  ( -0.000000000000000000, -1.000000000000000000, -0.000000000000000000 ) ) ;
#65 = PRESENTATION_STYLE_ASSIGNMENT (( #273 ) ) ;
#66 = FILL_AREA_STYLE ('',( #300 ) ) ;
#67 = CIRCLE ( 'NONE', #138, 0.1562500000000000000 ) ;
#68 = DIRECTION ( 'NONE',  ( -0.000000000000000000, -1.000000000000000000, -0.000000000000000000 ) ) ;
#69 = EDGE_CURVE ( 'NONE', #202, #23, #153, .T. ) ;
#70 = PRODUCT_RELATED_PRODUCT_CATEGORY ( 'part', '', ( #3 ) ) ;
#71 = VECTOR ( 'NONE', #224, 39.37007874015748143 ) ;
#72 = SURFACE_STYLE_USAGE ( .BOTH. , #170 ) ;
#73 = AXIS2_PLACEMENT_3D ( 'NONE', #239, #21, #257 ) ;
#74 = EDGE_LOOP ( 'NONE', ( #236, #283, #122, #193 ) ) ;
#75 = CARTESIAN_POINT ( 'NONE',  ( 0.000000000000000000, 0.4375000000000000000, -0.1562500000000000000 ) ) ;
#76 = EDGE_LOOP ( 'NONE', ( #143, #213 ) ) ;
#77 = EDGE_CURVE ( 'NONE', #247, #260, #157, .T. ) ;
#78 = CLOSED_SHELL ( 'NONE', ( #148, #168, #22, #274 ) ) ;
#79 =( CONVERSION_BASED_UNIT ( 'INCH', #288 ) LENGTH_UNIT ( ) NAMED_UNIT ( #235 ) );
#80 = CYLINDRICAL_SURFACE ( 'NONE', #55, 0.1562499999999999445 ) ;
#81 = CARTESIAN_POINT ( 'NONE',  ( 0.000000000000000000, 0.4374999999999998890, 0.000000000000000000 ) ) ;
#82 = LENGTH_MEASURE_WITH_UNIT ( LENGTH_MEASURE( 0.02539999999999999897 ), #266 );
#83 = LENGTH_MEASURE_WITH_UNIT ( LENGTH_MEASURE( 0.02539999999999999897 ), #293 );
#84 = ORIENTED_EDGE ( 'NONE', *, *, #210, .T. ) ;
#85 =( GEOMETRIC_REPRESENTATION_CONTEXT ( 3 ) GLOBAL_UNCERTAINTY_ASSIGNED_CONTEXT ( ( #256 ) ) GLOBAL_UNIT_ASSIGNED_CONTEXT ( ( #12, #63, #303 ) ) REPRESENTATION_CONTEXT ( 'NONE', 'WORKASPACE' ) );
#86 = EDGE_CURVE ( 'NONE', #309, #169, #9, .T. ) ;
#87 = FACE_OUTER_BOUND ( 'NONE', #264, .T. ) ;
#88 = ORIENTED_EDGE ( 'NONE', *, *, #222, .F. ) ;
#89 = DIRECTION ( 'NONE',  ( 0.000000000000000000, 0.000000000000000000, -1.000000000000000000 ) ) ;
#90 =( NAMED_UNIT ( * ) SI_UNIT ( $, .STERADIAN. ) SOLID_ANGLE_UNIT ( ) );
#91 = VERTEX_POINT ( 'NONE', #198 ) ;
#92 = ADVANCED_FACE ( 'NONE', ( #87 ), #4, .T. ) ;
#93 = CARTESIAN_POINT ( 'NONE',  ( 0.1562500000000000000, 2.000000000000000000, 0.000000000000000000 ) ) ;
#94 = COLOUR_RGB ( '',1.000000000000000000, 0.000000000000000000, 0.000000000000000000 ) ;
#95 = FACE_OUTER_BOUND ( 'NONE', #19, .T. ) ;
#96 = AXIS2_PLACEMENT_3D ( 'NONE', #13, #68, #216 ) ;
#97 = EDGE_LOOP ( 'NONE', ( #304, #47, #88, #307 ) ) ;
#98 = DIRECTION ( 'NONE',  ( -1.000000000000000000, 0.000000000000000000, 0.000000000000000000 ) ) ;
#99 =( CONVERSION_BASED_UNIT ( 'INCH', #279 ) LENGTH_UNIT ( ) NAMED_UNIT ( #109 ) );
#100 = ORIENTED_EDGE ( 'NONE', *, *, #114, .F. ) ;
#101 = ORIENTED_EDGE ( 'NONE', *, *, #86, .T. ) ;
#102 = FACE_OUTER_BOUND ( 'NONE', #147, .T. ) ;
#103 = AXIS2_PLACEMENT_3D ( 'NONE', #29, #295, #59 ) ;
#104 = CIRCLE ( 'NONE', #139, 0.1562499999999998612 ) ;
#105 = DIRECTION ( 'NONE',  ( -1.000000000000000000, 0.000000000000000000, 0.000000000000000000 ) ) ;
#106 = SURFACE_STYLE_FILL_AREA ( #66 ) ;
#107 = UNCERTAINTY_MEASURE_WITH_UNIT (LENGTH_MEASURE( 1.000000000000000082E-05 ), #99, 'distance_accuracy_value', 'NONE');
#108 =( NAMED_UNIT ( * ) SI_UNIT ( $, .STERADIAN. ) SOLID_ANGLE_UNIT ( ) );
#109 = DIMENSIONAL_EXPONENTS ( 1.000000000000000000, 0.000000000000000000, 0.000000000000000000, 0.000000000000000000, 0.000000000000000000, 0.000000000000000000, 0.000000000000000000 ) ;
#110 = CARTESIAN_POINT ( 'NONE',  ( -0.1562499999999998057, 2.000000000000000000, 0.000000000000000000 ) ) ;
#111 = DIRECTION ( 'NONE',  ( -0.000000000000000000, -1.000000000000000000, -0.000000000000000000 ) ) ;
#112 = FILL_AREA_STYLE_COLOUR ( '', #24 ) ;
#113 = STYLED_ITEM ( 'NONE', ( #65 ), #240 ) ;
#114 = EDGE_CURVE ( 'NONE', #247, #91, #220, .T. ) ;
#115 = CARTESIAN_POINT ( 'NONE',  ( 0.1562500000000000000, 0.4374999999999998890, 1.913510623667738847E-17 ) ) ;
#116 = LENGTH_MEASURE_WITH_UNIT ( LENGTH_MEASURE( 0.02539999999999999897 ), #40 );
#117 = ADVANCED_FACE ( 'NONE', ( #102 ), #188, .T. ) ;
#118 = PRESENTATION_LAYER_ASSIGNMENT (  '', '', ( #113 ) ) ;
#119 = CARTESIAN_POINT ( 'NONE',  ( 1.224646799147353700E-16, 2.000000000000000000, 0.000000000000000000 ) ) ;
#120 = ORIENTED_EDGE ( 'NONE', *, *, #127, .F. ) ;
#121 = PRODUCT_CONTEXT ( 'NONE', #278, 'mechanical' ) ;
#122 = ORIENTED_EDGE ( 'NONE', *, *, #69, .T. ) ;
#123 =( GEOMETRIC_REPRESENTATION_CONTEXT ( 3 ) GLOBAL_UNCERTAINTY_ASSIGNED_CONTEXT ( ( #37 ) ) GLOBAL_UNIT_ASSIGNED_CONTEXT ( ( #165, #50, #108 ) ) REPRESENTATION_CONTEXT ( 'NONE', 'WORKASPACE' ) );
#124 = FILL_AREA_STYLE ('',( #245 ) ) ;
#125 = VECTOR ( 'NONE', #154, 39.37007874015748143 ) ;
#126 = DIRECTION ( 'NONE',  ( -0.000000000000000000, -1.000000000000000000, -0.000000000000000000 ) ) ;
#127 = EDGE_CURVE ( 'NONE', #202, #309, #227, .T. ) ;
#128 = CARTESIAN_POINT ( 'NONE',  ( 0.000000000000000000, 0.4374999999999998890, 0.000000000000000000 ) ) ;
#129 =( GEOMETRIC_REPRESENTATION_CONTEXT ( 3 ) GLOBAL_UNCERTAINTY_ASSIGNED_CONTEXT ( ( #107 ) ) GLOBAL_UNIT_ASSIGNED_CONTEXT ( ( #99, #184, #214 ) ) REPRESENTATION_CONTEXT ( 'NONE', 'WORKASPACE' ) );
#130 = DIRECTION ( 'NONE',  ( 7.837739514543064125E-17, 1.000000000000000000, -0.000000000000000000 ) ) ;
#131 = FACE_OUTER_BOUND ( 'NONE', #97, .T. ) ;
#132 = CARTESIAN_POINT ( 'NONE',  ( 0.000000000000000000, 0.4375000000000000000, 0.000000000000000000 ) ) ;
#133 = UNCERTAINTY_MEASURE_WITH_UNIT (LENGTH_MEASURE( 1.000000000000000082E-05 ), #252, 'distance_accuracy_value', 'NONE');
#134 = DIMENSIONAL_EXPONENTS ( 1.000000000000000000, 0.000000000000000000, 0.000000000000000000, 0.000000000000000000, 0.000000000000000000, 0.000000000000000000, 0.000000000000000000 ) ;
#135 = AXIS2_PLACEMENT_3D ( 'NONE', #93, #44, #302 ) ;
#136 = LINE ( 'NONE', #27, #125 ) ;
#137 = SURFACE_STYLE_FILL_AREA ( #186 ) ;
#138 = AXIS2_PLACEMENT_3D ( 'NONE', #81, #152, #33 ) ;
#139 = AXIS2_PLACEMENT_3D ( 'NONE', #119, #209, #98 ) ;
#140 = DIRECTION ( 'NONE',  ( 7.837739514543064125E-17, 1.000000000000000000, -0.000000000000000000 ) ) ;
#141 = SURFACE_STYLE_USAGE ( .BOTH. , #231 ) ;
#142 = ORIENTED_EDGE ( 'NONE', *, *, #77, .F. ) ;
#143 = ORIENTED_EDGE ( 'NONE', *, *, #42, .T. ) ;
#144 = APPLICATION_CONTEXT ( 'automotive_design' ) ;
#145 = AXIS2_PLACEMENT_3D ( 'NONE', #56, #280, #196 ) ;
#146 = CIRCLE ( 'NONE', #52, 0.1562500000000000000 ) ;
#147 = EDGE_LOOP ( 'NONE', ( #166, #84 ) ) ;
#148 = ADVANCED_FACE ( 'NONE', ( #290 ), #80, .T. ) ;
#149 = AXIS2_PLACEMENT_3D ( 'NONE', #132, #159, #192 ) ;
#150 = MECHANICAL_DESIGN_GEOMETRIC_PRESENTATION_REPRESENTATION (  '', ( #113 ), #129 ) ;
#151 = CARTESIAN_POINT ( 'NONE',  ( 1.224646799147353700E-16, 2.000000000000000000, 0.000000000000000000 ) ) ;
#152 = DIRECTION ( 'NONE',  ( 7.837739514543064125E-17, 1.000000000000000000, -0.000000000000000000 ) ) ;
#153 = LINE ( 'NONE', #110, #71 ) ;
#154 = DIRECTION ( 'NONE',  ( -0.000000000000000000, -1.000000000000000000, -0.000000000000000000 ) ) ;
#155 = DIRECTION ( 'NONE',  ( 7.837739514543064125E-17, 1.000000000000000000, -0.000000000000000000 ) ) ;
#156 = CARTESIAN_POINT ( 'NONE',  ( -0.1562499999999997224, 2.000000000000000000, 0.000000000000000000 ) ) ;
#157 = CIRCLE ( 'NONE', #194, 0.1562500000000000000 ) ;
#158 = CARTESIAN_POINT ( 'NONE',  ( 1.224646799147353700E-16, 2.000000000000000000, 0.000000000000000000 ) ) ;
#159 = DIRECTION ( 'NONE',  ( 0.000000000000000000, 1.000000000000000000, 0.000000000000000000 ) ) ;
#160 = STYLED_ITEM ( 'NONE', ( #167 ), #117 ) ;
#161 = AXIS2_PLACEMENT_3D ( 'NONE', #10, #111, #89 ) ;
#162 = STYLED_ITEM ( 'NONE', ( #32 ), #92 ) ;
#163 = CARTESIAN_POINT ( 'NONE',  ( 0.000000000000000000, 0.000000000000000000, -0.1562500000000000000 ) ) ;
#164 = ADVANCED_FACE ( 'NONE', ( #267 ), #54, .T. ) ;
#165 =( CONVERSION_BASED_UNIT ( 'INCH', #189 ) LENGTH_UNIT ( ) NAMED_UNIT ( #185 ) );
#166 = ORIENTED_EDGE ( 'NONE', *, *, #222, .T. ) ;
#167 = PRESENTATION_STYLE_ASSIGNMENT (( #72 ) ) ;
#168 = ADVANCED_FACE ( 'NONE', ( #95 ), #207, .F. ) ;
#169 = VERTEX_POINT ( 'NONE', #183 ) ;
#170 = SURFACE_SIDE_STYLE ('',( #217 ) ) ;
#171 = PRESENTATION_STYLE_ASSIGNMENT (( #2 ) ) ;
#172 = COLOUR_RGB ( '',1.000000000000000000, 0.000000000000000000, 0.000000000000000000 ) ;
#173 = SURFACE_SIDE_STYLE ('',( #106 ) ) ;
#174 = FILL_AREA_STYLE_COLOUR ( '', #263 ) ;
#175 = SURFACE_STYLE_FILL_AREA ( #203 ) ;
#176 = MECHANICAL_DESIGN_GEOMETRIC_PRESENTATION_REPRESENTATION (  '', ( #270 ), #85 ) ;
#177 = AXIS2_PLACEMENT_3D ( 'NONE', #180, #140, #14 ) ;
#178 = CARTESIAN_POINT ( 'NONE',  ( 0.000000000000000000, 0.000000000000000000, 0.000000000000000000 ) ) ;
#179 = SURFACE_SIDE_STYLE ('',( #299 ) ) ;
#180 = CARTESIAN_POINT ( 'NONE',  ( 4.799231304517948929E-34, 0.4375000000000000000, 0.000000000000000000 ) ) ;
#181 = COLOUR_RGB ( '',1.000000000000000000, 0.000000000000000000, 0.000000000000000000 ) ;
#182 = AXIS2_PLACEMENT_3D ( 'NONE', #178, #298, #204 ) ;
#183 = CARTESIAN_POINT ( 'NONE',  ( 0.1562500000000000000, 2.000000000000000000, 1.913510623667738847E-17 ) ) ;
#184 =( NAMED_UNIT ( * ) PLANE_ANGLE_UNIT ( ) SI_UNIT ( $, .RADIAN. ) );
#185 = DIMENSIONAL_EXPONENTS ( 1.000000000000000000, 0.000000000000000000, 0.000000000000000000, 0.000000000000000000, 0.000000000000000000, 0.000000000000000000, 0.000000000000000000 ) ;
#186 = FILL_AREA_STYLE ('',( #35 ) ) ;
#187 = FACE_OUTER_BOUND ( 'NONE', #76, .T. ) ;
#188 = PLANE ( 'NONE',  #103 ) ;
#189 = LENGTH_MEASURE_WITH_UNIT ( LENGTH_MEASURE( 0.02539999999999999897 ), #191 );
#190 =( GEOMETRIC_REPRESENTATION_CONTEXT ( 3 ) GLOBAL_UNCERTAINTY_ASSIGNED_CONTEXT ( ( #249 ) ) GLOBAL_UNIT_ASSIGNED_CONTEXT ( ( #79, #49, #8 ) ) REPRESENTATION_CONTEXT ( 'NONE', 'WORKASPACE' ) );
#191 =( LENGTH_UNIT ( ) NAMED_UNIT ( * ) SI_UNIT ( $, .METRE. ) );
#192 = DIRECTION ( 'NONE',  ( 0.000000000000000000, -0.000000000000000000, 1.000000000000000000 ) ) ;
#193 = ORIENTED_EDGE ( 'NONE', *, *, #265, .F. ) ;
#194 = AXIS2_PLACEMENT_3D ( 'NONE', #60, #30, #11 ) ;
#195 =( LENGTH_UNIT ( ) NAMED_UNIT ( * ) SI_UNIT ( $, .METRE. ) );
#196 = DIRECTION ( 'NONE',  ( -1.000000000000000000, 0.000000000000000000, 0.000000000000000000 ) ) ;
#197 = DIRECTION ( 'NONE',  ( -1.000000000000000000, 0.000000000000000000, 0.000000000000000000 ) ) ;
#198 = CARTESIAN_POINT ( 'NONE',  ( 1.913510623667739463E-17, 0.000000000000000000, 0.1562500000000000000 ) ) ;
#199 = COLOUR_RGB ( '',0.7921568627450980005, 0.8196078431372548767, 0.9333333333333333481 ) ;
#200 = DIRECTION ( 'NONE',  ( 7.837739514543064125E-17, 1.000000000000000000, -0.000000000000000000 ) ) ;
#201 = DIRECTION ( 'NONE',  ( 0.000000000000000000, 0.000000000000000000, -1.000000000000000000 ) ) ;
#202 = VERTEX_POINT ( 'NONE', #276 ) ;
#203 = FILL_AREA_STYLE ('',( #253 ) ) ;
#204 = DIRECTION ( 'NONE',  ( 0.000000000000000000, 0.000000000000000000, -1.000000000000000000 ) ) ;
#205 = FILL_AREA_STYLE ('',( #112 ) ) ;
#206 = CLOSED_SHELL ( 'NONE', ( #238, #92, #164, #117 ) ) ;
#207 = PLANE ( 'NONE',  #177 ) ;
#208 = DIRECTION ( 'NONE',  ( 0.000000000000000000, 0.000000000000000000, -1.000000000000000000 ) ) ;
#209 = DIRECTION ( 'NONE',  ( 7.837739514543064125E-17, 1.000000000000000000, -0.000000000000000000 ) ) ;
#210 = EDGE_CURVE ( 'NONE', #91, #221, #237, .T. ) ;
#211 = DIMENSIONAL_EXPONENTS ( 1.000000000000000000, 0.000000000000000000, 0.000000000000000000, 0.000000000000000000, 0.000000000000000000, 0.000000000000000000, 0.000000000000000000 ) ;
#212 = PRESENTATION_STYLE_ASSIGNMENT (( #15 ) ) ;
#213 = ORIENTED_EDGE ( 'NONE', *, *, #265, .T. ) ;
#214 =( NAMED_UNIT ( * ) SI_UNIT ( $, .STERADIAN. ) SOLID_ANGLE_UNIT ( ) );
#215 = CARTESIAN_POINT ( 'NONE',  ( 0.000000000000000000, 0.000000000000000000, 0.000000000000000000 ) ) ;
#216 = DIRECTION ( 'NONE',  ( 0.000000000000000000, 0.000000000000000000, -1.000000000000000000 ) ) ;
#217 = SURFACE_STYLE_FILL_AREA ( #124 ) ;
#218 = EDGE_LOOP ( 'NONE', ( #100, #262, #308, #25 ) ) ;
#219 = MECHANICAL_DESIGN_GEOMETRIC_PRESENTATION_REPRESENTATION (  '', ( #271 ), #228 ) ;
#220 = LINE ( 'NONE', #284, #246 ) ;
#221 = VERTEX_POINT ( 'NONE', #163 ) ;
#222 = EDGE_CURVE ( 'NONE', #221, #91, #146, .T. ) ;
#223 = SURFACE_SIDE_STYLE ('',( #294 ) ) ;
#224 = DIRECTION ( 'NONE',  ( 7.837739514543064125E-17, 1.000000000000000000, -0.000000000000000000 ) ) ;
#225 = EDGE_CURVE ( 'NONE', #260, #221, #136, .T. ) ;
#226 =( NAMED_UNIT ( * ) PLANE_ANGLE_UNIT ( ) SI_UNIT ( $, .RADIAN. ) );
#227 = CIRCLE ( 'NONE', #51, 0.1562500000000000000 ) ;
#228 =( GEOMETRIC_REPRESENTATION_CONTEXT ( 3 ) GLOBAL_UNCERTAINTY_ASSIGNED_CONTEXT ( ( #275 ) ) GLOBAL_UNIT_ASSIGNED_CONTEXT ( ( #242, #53, #90 ) ) REPRESENTATION_CONTEXT ( 'NONE', 'WORKASPACE' ) );
#229 = CYLINDRICAL_SURFACE ( 'NONE', #161, 0.1562500000000000000 ) ;
#230 = DIRECTION ( 'NONE',  ( 7.837739514543064125E-17, 1.000000000000000000, -0.000000000000000000 ) ) ;
#231 = SURFACE_SIDE_STYLE ('',( #137 ) ) ;
#232 =( NAMED_UNIT ( * ) PLANE_ANGLE_UNIT ( ) SI_UNIT ( $, .RADIAN. ) );
#233 = PRESENTATION_STYLE_ASSIGNMENT (( #141 ) ) ;
#234 = APPLICATION_PROTOCOL_DEFINITION ( 'draft international standard', 'automotive_design', 1998, #144 ) ;
#235 = DIMENSIONAL_EXPONENTS ( 1.000000000000000000, 0.000000000000000000, 0.000000000000000000, 0.000000000000000000, 0.000000000000000000, 0.000000000000000000, 0.000000000000000000 ) ;
#236 = ORIENTED_EDGE ( 'NONE', *, *, #86, .F. ) ;
#237 = CIRCLE ( 'NONE', #268, 0.1562500000000000000 ) ;
#238 = ADVANCED_FACE ( 'NONE', ( #131 ), #229, .T. ) ;
#239 = CARTESIAN_POINT ( 'NONE',  ( 0.000000000000000000, 0.000000000000000000, 0.000000000000000000 ) ) ;
#240 = MANIFOLD_SOLID_BREP ( 'Revolve - Cutting Edge', #206 ) ;
#241 = ORIENTED_EDGE ( 'NONE', *, *, #69, .F. ) ;
#242 =( CONVERSION_BASED_UNIT ( 'INCH', #82 ) LENGTH_UNIT ( ) NAMED_UNIT ( #57 ) );
#243 = APPLICATION_PROTOCOL_DEFINITION ( 'draft international standard', 'automotive_design', 1998, #278 ) ;
#244 = ORIENTED_EDGE ( 'NONE', *, *, #261, .F. ) ;
#245 = FILL_AREA_STYLE_COLOUR ( '', #172 ) ;
#246 = VECTOR ( 'NONE', #126, 39.37007874015748143 ) ;
#247 = VERTEX_POINT ( 'NONE', #43 ) ;
#248 = DIRECTION ( 'NONE',  ( -1.000000000000000000, 0.000000000000000000, 0.000000000000000000 ) ) ;
#249 = UNCERTAINTY_MEASURE_WITH_UNIT (LENGTH_MEASURE( 1.000000000000000082E-05 ), #79, 'distance_accuracy_value', 'NONE');
#250 = MECHANICAL_DESIGN_GEOMETRIC_PRESENTATION_REPRESENTATION (  '', ( #162 ), #306 ) ;
#251 = PRESENTATION_LAYER_ASSIGNMENT (  '', '', ( #271 ) ) ;
#252 =( CONVERSION_BASED_UNIT ( 'INCH', #83 ) LENGTH_UNIT ( ) NAMED_UNIT ( #211 ) );
#253 = FILL_AREA_STYLE_COLOUR ( '', #181 ) ;
#254 = PRESENTATION_LAYER_ASSIGNMENT (  '', '', ( #46 ) ) ;
#255 = SHAPE_DEFINITION_REPRESENTATION ( #17, #291 ) ;
#256 = UNCERTAINTY_MEASURE_WITH_UNIT (LENGTH_MEASURE( 1.000000000000000082E-05 ), #12, 'distance_accuracy_value', 'NONE');
#257 = DIRECTION ( 'NONE',  ( 1.000000000000000000, 0.000000000000000000, 0.000000000000000000 ) ) ;
#258 = DIRECTION ( 'NONE',  ( -0.000000000000000000, -1.000000000000000000, -0.000000000000000000 ) ) ;
#259 = LENGTH_MEASURE_WITH_UNIT ( LENGTH_MEASURE( 0.02539999999999999897 ), #305 );
#260 = VERTEX_POINT ( 'NONE', #75 ) ;
#261 = EDGE_CURVE ( 'NONE', #260, #247, #7, .T. ) ;
#262 = ORIENTED_EDGE ( 'NONE', *, *, #77, .T. ) ;
#263 = COLOUR_RGB ( '',1.000000000000000000, 0.000000000000000000, 0.000000000000000000 ) ;
#264 = EDGE_LOOP ( 'NONE', ( #244, #142 ) ) ;
#265 = EDGE_CURVE ( 'NONE', #169, #23, #104, .T. ) ;
#266 =( LENGTH_UNIT ( ) NAMED_UNIT ( * ) SI_UNIT ( $, .METRE. ) );
#267 = FACE_OUTER_BOUND ( 'NONE', #218, .T. ) ;
#268 = AXIS2_PLACEMENT_3D ( 'NONE', #272, #64, #208 ) ;
#269 = SURFACE_STYLE_USAGE ( .BOTH. , #5 ) ;
#270 = STYLED_ITEM ( 'NONE', ( #233 ), #164 ) ;
#271 = STYLED_ITEM ( 'NONE', ( #171 ), #238 ) ;
#272 = CARTESIAN_POINT ( 'NONE',  ( 0.000000000000000000, 0.000000000000000000, 0.000000000000000000 ) ) ;
#273 = SURFACE_STYLE_USAGE ( .BOTH. , #179 ) ;
#274 = ADVANCED_FACE ( 'NONE', ( #187 ), #281, .F. ) ;
#275 = UNCERTAINTY_MEASURE_WITH_UNIT (LENGTH_MEASURE( 1.000000000000000082E-05 ), #242, 'distance_accuracy_value', 'NONE');
#276 = CARTESIAN_POINT ( 'NONE',  ( -0.1562500000000000000, 0.4374999999999998890, 0.000000000000000000 ) ) ;
#277 = DIMENSIONAL_EXPONENTS ( 1.000000000000000000, 0.000000000000000000, 0.000000000000000000, 0.000000000000000000, 0.000000000000000000, 0.000000000000000000, 0.000000000000000000 ) ;
#278 = APPLICATION_CONTEXT ( 'automotive_design' ) ;
#279 = LENGTH_MEASURE_WITH_UNIT ( LENGTH_MEASURE( 0.02539999999999999897 ), #36 );
#280 = DIRECTION ( 'NONE',  ( 7.837739514543064125E-17, 1.000000000000000000, -0.000000000000000000 ) ) ;
#281 = PLANE ( 'NONE',  #135 ) ;
#282 = CYLINDRICAL_SURFACE ( 'NONE', #145, 0.1562499999999999445 ) ;
#283 = ORIENTED_EDGE ( 'NONE', *, *, #61, .T. ) ;
#284 = CARTESIAN_POINT ( 'NONE',  ( 1.913510623667739463E-17, 0.000000000000000000, 0.1562500000000000000 ) ) ;
#285 = ORIENTED_EDGE ( 'NONE', *, *, #61, .F. ) ;
#286 = PRESENTATION_LAYER_ASSIGNMENT (  '', '', ( #160 ) ) ;
#287 =( GEOMETRIC_REPRESENTATION_CONTEXT ( 3 ) GLOBAL_UNCERTAINTY_ASSIGNED_CONTEXT ( ( #45 ) ) GLOBAL_UNIT_ASSIGNED_CONTEXT ( ( #16, #232, #48 ) ) REPRESENTATION_CONTEXT ( 'NONE', 'WORKASPACE' ) );
#288 = LENGTH_MEASURE_WITH_UNIT ( LENGTH_MEASURE( 0.02539999999999999897 ), #195 );
#289 = PRODUCT_DEFINITION ( 'UNKNOWN', '', #31, #41 ) ;
#290 = FACE_OUTER_BOUND ( 'NONE', #20, .T. ) ;
#291 = ADVANCED_BREP_SHAPE_REPRESENTATION ( '23120', ( #240, #26, #73 ), #287 ) ;
#292 = PRESENTATION_LAYER_ASSIGNMENT (  '', '', ( #162 ) ) ;
#293 =( LENGTH_UNIT ( ) NAMED_UNIT ( * ) SI_UNIT ( $, .METRE. ) );
#294 = SURFACE_STYLE_FILL_AREA ( #58 ) ;
#295 = DIRECTION ( 'NONE',  ( 0.000000000000000000, -1.000000000000000000, -0.000000000000000000 ) ) ;
#296 =( NAMED_UNIT ( * ) SI_UNIT ( $, .STERADIAN. ) SOLID_ANGLE_UNIT ( ) );
#297 = CIRCLE ( 'NONE', #6, 0.1562499999999998612 ) ;
#298 = DIRECTION ( 'NONE',  ( -0.000000000000000000, -1.000000000000000000, -0.000000000000000000 ) ) ;
#299 = SURFACE_STYLE_FILL_AREA ( #205 ) ;
#300 = FILL_AREA_STYLE_COLOUR ( '', #199 ) ;
#301 = ORIENTED_EDGE ( 'NONE', *, *, #127, .T. ) ;
#302 = DIRECTION ( 'NONE',  ( 1.000000000000000000, -7.837739514543064125E-17, 0.000000000000000000 ) ) ;
#303 =( NAMED_UNIT ( * ) SI_UNIT ( $, .STERADIAN. ) SOLID_ANGLE_UNIT ( ) );
#304 = ORIENTED_EDGE ( 'NONE', *, *, #261, .T. ) ;
#305 =( LENGTH_UNIT ( ) NAMED_UNIT ( * ) SI_UNIT ( $, .METRE. ) );
#306 =( GEOMETRIC_REPRESENTATION_CONTEXT ( 3 ) GLOBAL_UNCERTAINTY_ASSIGNED_CONTEXT ( ( #133 ) ) GLOBAL_UNIT_ASSIGNED_CONTEXT ( ( #252, #226, #296 ) ) REPRESENTATION_CONTEXT ( 'NONE', 'WORKASPACE' ) );
#307 = ORIENTED_EDGE ( 'NONE', *, *, #225, .F. ) ;
#308 = ORIENTED_EDGE ( 'NONE', *, *, #225, .T. ) ;
#309 = VERTEX_POINT ( 'NONE', #115 ) ;
ENDSEC;
END-ISO-10303-21;
