ISO-10303-21;
HEADER;
FILE_DESCRIPTION (( 'STEP AP214' ),
    '1' );
FILE_NAME ('48511.STEP',
    '2023-06-22T21:44:52',
    ( '' ),
    ( '' ),
    'SwSTEP 2.0',
    'SolidWorks 2023',
    '' );
FILE_SCHEMA (( 'AUTOMOTIVE_DESIGN' ));
ENDSEC;

DATA;
#1 = AXIS2_PLACEMENT_3D ( 'NONE', #273, #10, #105 ) ;
#2 =( NAMED_UNIT ( * ) SI_UNIT ( $, .STERADIAN. ) SOLID_ANGLE_UNIT ( ) );
#3 = PRODUCT ( '48511', '48511', '', ( #281 ) ) ;
#4 = DIMENSIONAL_EXPONENTS ( 1.000000000000000000, 0.000000000000000000, 0.000000000000000000, 0.000000000000000000, 0.000000000000000000, 0.000000000000000000, 0.000000000000000000 ) ;
#5 = EDGE_CURVE ( 'NONE', #7, #223, #74, .T. ) ;
#6 = PRESENTATION_LAYER_ASSIGNMENT (  '', '', ( #178 ) ) ;
#7 = VERTEX_POINT ( 'NONE', #276 ) ;
#8 = EDGE_CURVE ( 'NONE', #39, #14, #119, .T. ) ;
#9 = CARTESIAN_POINT ( 'NONE',  ( -6.123233995736759873E-17, 3.500000000000000000, 0.000000000000000000 ) ) ;
#10 = DIRECTION ( 'NONE',  ( -0.000000000000000000, -1.000000000000000000, -0.000000000000000000 ) ) ;
#11 = LINE ( 'NONE', #107, #167 ) ;
#12 = ADVANCED_FACE ( 'NONE', ( #177 ), #218, .T. ) ;
#13 = FACE_OUTER_BOUND ( 'NONE', #110, .T. ) ;
#14 = VERTEX_POINT ( 'NONE', #129 ) ;
#15 = FILL_AREA_STYLE_COLOUR ( '', #196 ) ;
#16 = DIRECTION ( 'NONE',  ( -2.721437331438560389E-17, 1.000000000000000000, -0.000000000000000000 ) ) ;
#17 = DIRECTION ( 'NONE',  ( -1.000000000000000000, 0.000000000000000000, 0.000000000000000000 ) ) ;
#18 =( NAMED_UNIT ( * ) SI_UNIT ( $, .STERADIAN. ) SOLID_ANGLE_UNIT ( ) );
#19 = EDGE_CURVE ( 'NONE', #39, #7, #11, .T. ) ;
#20 = CARTESIAN_POINT ( 'NONE',  ( 0.000000000000000000, 0.000000000000000000, 0.000000000000000000 ) ) ;
#21 = STYLED_ITEM ( 'NONE', ( #212 ), #147 ) ;
#22 = AXIS2_PLACEMENT_3D ( 'NONE', #136, #179, #60 ) ;
#23 = SURFACE_SIDE_STYLE ('',( #122 ) ) ;
#24 = ORIENTED_EDGE ( 'NONE', *, *, #139, .F. ) ;
#25 = MECHANICAL_DESIGN_GEOMETRIC_PRESENTATION_REPRESENTATION (  '', ( #61 ), #165 ) ;
#26 = APPLICATION_CONTEXT ( 'automotive_design' ) ;
#27 = FILL_AREA_STYLE_COLOUR ( '', #101 ) ;
#28 = CYLINDRICAL_SURFACE ( 'NONE', #307, 0.3125000000000000000 ) ;
#29 = ORIENTED_EDGE ( 'NONE', *, *, #254, .T. ) ;
#30 = DIMENSIONAL_EXPONENTS ( 1.000000000000000000, 0.000000000000000000, 0.000000000000000000, 0.000000000000000000, 0.000000000000000000, 0.000000000000000000, 0.000000000000000000 ) ;
#31 = FILL_AREA_STYLE ('',( #15 ) ) ;
#32 = DIRECTION ( 'NONE',  ( -2.721437331438560389E-17, 1.000000000000000000, -0.000000000000000000 ) ) ;
#33 = PRODUCT_DEFINITION ( 'UNKNOWN', '', #183, #55 ) ;
#34 = CLOSED_SHELL ( 'NONE', ( #12, #286, #112, #213 ) ) ;
#35 = DIMENSIONAL_EXPONENTS ( 1.000000000000000000, 0.000000000000000000, 0.000000000000000000, 0.000000000000000000, 0.000000000000000000, 0.000000000000000000, 0.000000000000000000 ) ;
#36 = VERTEX_POINT ( 'NONE', #195 ) ;
#37 = FACE_OUTER_BOUND ( 'NONE', #220, .T. ) ;
#38 = ORIENTED_EDGE ( 'NONE', *, *, #75, .T. ) ;
#39 = VERTEX_POINT ( 'NONE', #299 ) ;
#40 = PRESENTATION_LAYER_ASSIGNMENT (  '', '', ( #42 ) ) ;
#41 =( NAMED_UNIT ( * ) PLANE_ANGLE_UNIT ( ) SI_UNIT ( $, .RADIAN. ) );
#42 = STYLED_ITEM ( 'NONE', ( #245 ), #185 ) ;
#43 = CARTESIAN_POINT ( 'NONE',  ( -0.3125000000000000000, 1.250000000000000000, 0.000000000000000000 ) ) ;
#44 = EDGE_LOOP ( 'NONE', ( #29, #188 ) ) ;
#45 = LENGTH_MEASURE_WITH_UNIT ( LENGTH_MEASURE( 0.02539999999999999897 ), #282 );
#46 = DIRECTION ( 'NONE',  ( -2.721437331438560697E-17, 1.000000000000000000, -0.000000000000000000 ) ) ;
#47 = APPLICATION_PROTOCOL_DEFINITION ( 'draft international standard', 'automotive_design', 1998, #26 ) ;
#48 =( NAMED_UNIT ( * ) PLANE_ANGLE_UNIT ( ) SI_UNIT ( $, .RADIAN. ) );
#49 = DIRECTION ( 'NONE',  ( 1.000000000000000000, 2.721437331438560697E-17, 0.000000000000000000 ) ) ;
#50 = CIRCLE ( 'NONE', #231, 0.3125000000000000000 ) ;
#51 = SURFACE_STYLE_USAGE ( .BOTH. , #23 ) ;
#52 = FILL_AREA_STYLE ('',( #27 ) ) ;
#53 = ORIENTED_EDGE ( 'NONE', *, *, #189, .T. ) ;
#54 = MECHANICAL_DESIGN_GEOMETRIC_PRESENTATION_REPRESENTATION (  '', ( #21 ), #187 ) ;
#55 = PRODUCT_DEFINITION_CONTEXT ( 'detailed design', #164, 'design' ) ;
#56 =( NAMED_UNIT ( * ) PLANE_ANGLE_UNIT ( ) SI_UNIT ( $, .RADIAN. ) );
#57 = CARTESIAN_POINT ( 'NONE',  ( 0.000000000000000000, 1.250000000000000000, 0.000000000000000000 ) ) ;
#58 = UNCERTAINTY_MEASURE_WITH_UNIT (LENGTH_MEASURE( 1.000000000000000082E-05 ), #270, 'distance_accuracy_value', 'NONE');
#59 = VERTEX_POINT ( 'NONE', #43 ) ;
#60 = DIRECTION ( 'NONE',  ( 0.000000000000000000, 0.000000000000000000, -1.000000000000000000 ) ) ;
#61 = STYLED_ITEM ( 'NONE', ( #80 ), #159 ) ;
#62 = DIRECTION ( 'NONE',  ( -2.721437331438560697E-17, 1.000000000000000000, -0.000000000000000000 ) ) ;
#63 = EDGE_CURVE ( 'NONE', #59, #215, #289, .T. ) ;
#64 = DIRECTION ( 'NONE',  ( -0.000000000000000000, -1.000000000000000000, -0.000000000000000000 ) ) ;
#65 =( CONVERSION_BASED_UNIT ( 'INCH', #232 ) LENGTH_UNIT ( ) NAMED_UNIT ( #135 ) );
#66 = CARTESIAN_POINT ( 'NONE',  ( 0.3124999999999999445, 3.500000000000000000, 3.827021247335478926E-17 ) ) ;
#67 = APPLICATION_PROTOCOL_DEFINITION ( 'draft international standard', 'automotive_design', 1998, #164 ) ;
#68 = FACE_OUTER_BOUND ( 'NONE', #186, .T. ) ;
#69 = MECHANICAL_DESIGN_GEOMETRIC_PRESENTATION_REPRESENTATION (  '', ( #121 ), #222 ) ;
#70 =( CONVERSION_BASED_UNIT ( 'INCH', #45 ) LENGTH_UNIT ( ) NAMED_UNIT ( #88 ) );
#71 =( NAMED_UNIT ( * ) SI_UNIT ( $, .STERADIAN. ) SOLID_ANGLE_UNIT ( ) );
#72 =( GEOMETRIC_REPRESENTATION_CONTEXT ( 3 ) GLOBAL_UNCERTAINTY_ASSIGNED_CONTEXT ( ( #221 ) ) GLOBAL_UNIT_ASSIGNED_CONTEXT ( ( #65, #140, #2 ) ) REPRESENTATION_CONTEXT ( 'NONE', 'WORKASPACE' ) );
#73 = CARTESIAN_POINT ( 'NONE',  ( 0.000000000000000000, 0.000000000000000000, -0.3125000000000000000 ) ) ;
#74 = CIRCLE ( 'NONE', #22, 0.3125000000000000000 ) ;
#75 = EDGE_CURVE ( 'NONE', #59, #172, #87, .T. ) ;
#76 = FACE_OUTER_BOUND ( 'NONE', #113, .T. ) ;
#77 = SURFACE_SIDE_STYLE ('',( #161 ) ) ;
#78 = AXIS2_PLACEMENT_3D ( 'NONE', #256, #91, #17 ) ;
#79 = COLOUR_RGB ( '',1.000000000000000000, 0.000000000000000000, 0.000000000000000000 ) ;
#80 = PRESENTATION_STYLE_ASSIGNMENT (( #263 ) ) ;
#81 =( LENGTH_UNIT ( ) NAMED_UNIT ( * ) SI_UNIT ( $, .METRE. ) );
#82 = LENGTH_MEASURE_WITH_UNIT ( LENGTH_MEASURE( 0.02539999999999999897 ), #81 );
#83 = COLOUR_RGB ( '',1.000000000000000000, 0.000000000000000000, 0.000000000000000000 ) ;
#84 = PRESENTATION_STYLE_ASSIGNMENT (( #108 ) ) ;
#85 = UNCERTAINTY_MEASURE_WITH_UNIT (LENGTH_MEASURE( 1.000000000000000082E-05 ), #261, 'distance_accuracy_value', 'NONE');
#86 = CARTESIAN_POINT ( 'NONE',  ( 0.000000000000000000, 0.000000000000000000, 0.000000000000000000 ) ) ;
#87 = LINE ( 'NONE', #280, #100 ) ;
#88 = DIMENSIONAL_EXPONENTS ( 1.000000000000000000, 0.000000000000000000, 0.000000000000000000, 0.000000000000000000, 0.000000000000000000, 0.000000000000000000, 0.000000000000000000 ) ;
#89 = EDGE_CURVE ( 'NONE', #36, #172, #207, .T. ) ;
#90 = AXIS2_PLACEMENT_3D ( 'NONE', #86, #148, #244 ) ;
#91 = DIRECTION ( 'NONE',  ( -2.721437331438560389E-17, 1.000000000000000000, -0.000000000000000000 ) ) ;
#92 = ORIENTED_EDGE ( 'NONE', *, *, #278, .T. ) ;
#93 =( NAMED_UNIT ( * ) SI_UNIT ( $, .STERADIAN. ) SOLID_ANGLE_UNIT ( ) );
#94 = SURFACE_STYLE_FILL_AREA ( #203 ) ;
#95 = AXIS2_PLACEMENT_3D ( 'NONE', #305, #64, #118 ) ;
#96 = SHAPE_DEFINITION_REPRESENTATION ( #130, #191 ) ;
#97 = ORIENTED_EDGE ( 'NONE', *, *, #5, .F. ) ;
#98 = UNCERTAINTY_MEASURE_WITH_UNIT (LENGTH_MEASURE( 1.000000000000000082E-05 ), #275, 'distance_accuracy_value', 'NONE');
#99 = DIRECTION ( 'NONE',  ( -1.000000000000000000, 0.000000000000000000, 0.000000000000000000 ) ) ;
#100 = VECTOR ( 'NONE', #62, 39.37007874015748143 ) ;
#101 = COLOUR_RGB ( '',0.7921568627450980005, 0.8196078431372548767, 0.9333333333333333481 ) ;
#102 = LENGTH_MEASURE_WITH_UNIT ( LENGTH_MEASURE( 0.02539999999999999897 ), #198 );
#103 = DIMENSIONAL_EXPONENTS ( 1.000000000000000000, 0.000000000000000000, 0.000000000000000000, 0.000000000000000000, 0.000000000000000000, 0.000000000000000000, 0.000000000000000000 ) ;
#104 = ORIENTED_EDGE ( 'NONE', *, *, #89, .F. ) ;
#105 = DIRECTION ( 'NONE',  ( 0.000000000000000000, 0.000000000000000000, -1.000000000000000000 ) ) ;
#106 = CARTESIAN_POINT ( 'NONE',  ( -0.3125000000000001665, 3.500000000000000000, 0.000000000000000000 ) ) ;
#107 = CARTESIAN_POINT ( 'NONE',  ( 3.827021247335478926E-17, 0.000000000000000000, 0.3125000000000000000 ) ) ;
#108 = SURFACE_STYLE_USAGE ( .BOTH. , #216 ) ;
#109 = SURFACE_STYLE_USAGE ( .BOTH. , #293 ) ;
#110 = EDGE_LOOP ( 'NONE', ( #262, #267, #156, #97 ) ) ;
#111 = ORIENTED_EDGE ( 'NONE', *, *, #151, .F. ) ;
#112 = ADVANCED_FACE ( 'NONE', ( #144 ), #28, .T. ) ;
#113 = EDGE_LOOP ( 'NONE', ( #92, #162, #240, #111 ) ) ;
#114 = DIRECTION ( 'NONE',  ( 2.721437331438560697E-17, -1.000000000000000000, 0.000000000000000000 ) ) ;
#115 = FACE_OUTER_BOUND ( 'NONE', #44, .T. ) ;
#116 = CARTESIAN_POINT ( 'NONE',  ( 0.3125000000000000000, 3.500000000000000000, 0.000000000000000000 ) ) ;
#117 = DIRECTION ( 'NONE',  ( 1.000000000000000000, 0.000000000000000000, 0.000000000000000000 ) ) ;
#118 = DIRECTION ( 'NONE',  ( 0.000000000000000000, 0.000000000000000000, -1.000000000000000000 ) ) ;
#119 = CIRCLE ( 'NONE', #142, 0.3125000000000000000 ) ;
#120 = AXIS2_PLACEMENT_3D ( 'NONE', #202, #137, #180 ) ;
#121 = STYLED_ITEM ( 'NONE', ( #84 ), #257 ) ;
#122 = SURFACE_STYLE_FILL_AREA ( #52 ) ;
#123 = DIRECTION ( 'NONE',  ( -2.721437331438560389E-17, 1.000000000000000000, -0.000000000000000000 ) ) ;
#124 = ORIENTED_EDGE ( 'NONE', *, *, #247, .T. ) ;
#125 = PLANE ( 'NONE',  #120 ) ;
#126 = CARTESIAN_POINT ( 'NONE',  ( 0.000000000000000000, 0.000000000000000000, 0.000000000000000000 ) ) ;
#127 = ORIENTED_EDGE ( 'NONE', *, *, #8, .F. ) ;
#128 = DIRECTION ( 'NONE',  ( -0.000000000000000000, -1.000000000000000000, -0.000000000000000000 ) ) ;
#129 = CARTESIAN_POINT ( 'NONE',  ( 0.000000000000000000, 1.250000000000000000, -0.3125000000000000000 ) ) ;
#130 = PRODUCT_DEFINITION_SHAPE ( 'NONE', 'NONE',  #33 ) ;
#131 = CARTESIAN_POINT ( 'NONE',  ( 1.157222054523036369E-34, 1.250000000000000000, 0.000000000000000000 ) ) ;
#132 = CARTESIAN_POINT ( 'NONE',  ( 0.000000000000000000, 1.250000000000000000, 0.000000000000000000 ) ) ;
#133 = CIRCLE ( 'NONE', #78, 0.3125000000000000000 ) ;
#134 = FILL_AREA_STYLE ('',( #152 ) ) ;
#135 = DIMENSIONAL_EXPONENTS ( 1.000000000000000000, 0.000000000000000000, 0.000000000000000000, 0.000000000000000000, 0.000000000000000000, 0.000000000000000000, 0.000000000000000000 ) ;
#136 = CARTESIAN_POINT ( 'NONE',  ( 0.000000000000000000, 0.000000000000000000, 0.000000000000000000 ) ) ;
#137 = DIRECTION ( 'NONE',  ( 0.000000000000000000, 1.000000000000000000, 0.000000000000000000 ) ) ;
#138 = CARTESIAN_POINT ( 'NONE',  ( 0.3125000000000000000, 1.250000000000000000, 3.827021247335478926E-17 ) ) ;
#139 = EDGE_CURVE ( 'NONE', #172, #36, #264, .T. ) ;
#140 =( NAMED_UNIT ( * ) PLANE_ANGLE_UNIT ( ) SI_UNIT ( $, .RADIAN. ) );
#141 = AXIS2_PLACEMENT_3D ( 'NONE', #116, #114, #49 ) ;
#142 = AXIS2_PLACEMENT_3D ( 'NONE', #57, #199, #154 ) ;
#143 =( NAMED_UNIT ( * ) SI_UNIT ( $, .STERADIAN. ) SOLID_ANGLE_UNIT ( ) );
#144 = FACE_OUTER_BOUND ( 'NONE', #192, .T. ) ;
#145 = AXIS2_PLACEMENT_3D ( 'NONE', #208, #32, #290 ) ;
#146 = DIRECTION ( 'NONE',  ( -1.000000000000000000, -2.721437331438560697E-17, 0.000000000000000000 ) ) ;
#147 = MANIFOLD_SOLID_BREP ( 'Revolve - Cutting Edge', #201 ) ;
#148 = DIRECTION ( 'NONE',  ( 0.000000000000000000, -1.000000000000000000, -0.000000000000000000 ) ) ;
#149 = DIRECTION ( 'NONE',  ( -0.000000000000000000, -1.000000000000000000, -0.000000000000000000 ) ) ;
#150 = DIRECTION ( 'NONE',  ( -2.721437331438560389E-17, 1.000000000000000000, -0.000000000000000000 ) ) ;
#151 = EDGE_CURVE ( 'NONE', #14, #223, #266, .T. ) ;
#152 = FILL_AREA_STYLE_COLOUR ( '', #83 ) ;
#153 =( NAMED_UNIT ( * ) SI_UNIT ( $, .STERADIAN. ) SOLID_ANGLE_UNIT ( ) );
#154 = DIRECTION ( 'NONE',  ( 0.000000000000000000, 0.000000000000000000, -1.000000000000000000 ) ) ;
#155 = AXIS2_PLACEMENT_3D ( 'NONE', #132, #16, #303 ) ;
#156 = ORIENTED_EDGE ( 'NONE', *, *, #151, .T. ) ;
#157 = FILL_AREA_STYLE_COLOUR ( '', #251 ) ;
#158 = PRODUCT_RELATED_PRODUCT_CATEGORY ( 'part', '', ( #3 ) ) ;
#159 = ADVANCED_FACE ( 'NONE', ( #76 ), #163, .T. ) ;
#160 = FILL_AREA_STYLE ('',( #287 ) ) ;
#161 = SURFACE_STYLE_FILL_AREA ( #160 ) ;
#162 = ORIENTED_EDGE ( 'NONE', *, *, #19, .T. ) ;
#163 = CYLINDRICAL_SURFACE ( 'NONE', #288, 0.3125000000000000000 ) ;
#164 = APPLICATION_CONTEXT ( 'automotive_design' ) ;
#165 =( GEOMETRIC_REPRESENTATION_CONTEXT ( 3 ) GLOBAL_UNCERTAINTY_ASSIGNED_CONTEXT ( ( #98 ) ) GLOBAL_UNIT_ASSIGNED_CONTEXT ( ( #275, #194, #153 ) ) REPRESENTATION_CONTEXT ( 'NONE', 'WORKASPACE' ) );
#166 = CARTESIAN_POINT ( 'NONE',  ( -6.123233995736759873E-17, 3.500000000000000000, 0.000000000000000000 ) ) ;
#167 = VECTOR ( 'NONE', #253, 39.37007874015748143 ) ;
#168 = UNCERTAINTY_MEASURE_WITH_UNIT (LENGTH_MEASURE( 1.000000000000000082E-05 ), #297, 'distance_accuracy_value', 'NONE');
#169 = LENGTH_MEASURE_WITH_UNIT ( LENGTH_MEASURE( 0.02539999999999999897 ), #265 );
#170 = ORIENTED_EDGE ( 'NONE', *, *, #139, .T. ) ;
#171 = CIRCLE ( 'NONE', #1, 0.3125000000000000000 ) ;
#172 = VERTEX_POINT ( 'NONE', #106 ) ;
#173 = FACE_OUTER_BOUND ( 'NONE', #200, .T. ) ;
#174 =( CONVERSION_BASED_UNIT ( 'INCH', #301 ) LENGTH_UNIT ( ) NAMED_UNIT ( #271 ) );
#175 = ORIENTED_EDGE ( 'NONE', *, *, #89, .T. ) ;
#176 = SURFACE_SIDE_STYLE ('',( #294 ) ) ;
#177 = FACE_OUTER_BOUND ( 'NONE', #246, .T. ) ;
#178 = STYLED_ITEM ( 'NONE', ( #182 ), #250 ) ;
#179 = DIRECTION ( 'NONE',  ( -0.000000000000000000, -1.000000000000000000, -0.000000000000000000 ) ) ;
#180 = DIRECTION ( 'NONE',  ( 0.000000000000000000, -0.000000000000000000, 1.000000000000000000 ) ) ;
#181 = DIRECTION ( 'NONE',  ( 0.000000000000000000, 0.000000000000000000, 1.000000000000000000 ) ) ;
#182 = PRESENTATION_STYLE_ASSIGNMENT (( #309 ) ) ;
#183 = PRODUCT_DEFINITION_FORMATION_WITH_SPECIFIED_SOURCE ( 'ANY', '', #3, .NOT_KNOWN. ) ;
#184 = PRESENTATION_LAYER_ASSIGNMENT (  '', '', ( #21 ) ) ;
#185 = ADVANCED_FACE ( 'NONE', ( #13 ), #255, .T. ) ;
#186 = EDGE_LOOP ( 'NONE', ( #170, #175 ) ) ;
#187 =( GEOMETRIC_REPRESENTATION_CONTEXT ( 3 ) GLOBAL_UNCERTAINTY_ASSIGNED_CONTEXT ( ( #85 ) ) GLOBAL_UNIT_ASSIGNED_CONTEXT ( ( #261, #56, #143 ) ) REPRESENTATION_CONTEXT ( 'NONE', 'WORKASPACE' ) );
#188 = ORIENTED_EDGE ( 'NONE', *, *, #5, .T. ) ;
#189 = EDGE_CURVE ( 'NONE', #215, #36, #230, .T. ) ;
#190 = SURFACE_STYLE_FILL_AREA ( #296 ) ;
#191 = ADVANCED_BREP_SHAPE_REPRESENTATION ( '48511', ( #147, #257, #252 ), #72 ) ;
#192 = EDGE_LOOP ( 'NONE', ( #272, #124, #38, #104 ) ) ;
#193 = SURFACE_STYLE_FILL_AREA ( #31 ) ;
#194 =( NAMED_UNIT ( * ) PLANE_ANGLE_UNIT ( ) SI_UNIT ( $, .RADIAN. ) );
#195 = CARTESIAN_POINT ( 'NONE',  ( 0.3125000000000000000, 3.500000000000000000, 3.827021247335478926E-17 ) ) ;
#196 = COLOUR_RGB ( '',0.7921568627450980005, 0.8196078431372548767, 0.9333333333333333481 ) ;
#197 =( NAMED_UNIT ( * ) SI_UNIT ( $, .STERADIAN. ) SOLID_ANGLE_UNIT ( ) );
#198 =( LENGTH_UNIT ( ) NAMED_UNIT ( * ) SI_UNIT ( $, .METRE. ) );
#199 = DIRECTION ( 'NONE',  ( -0.000000000000000000, -1.000000000000000000, -0.000000000000000000 ) ) ;
#200 = EDGE_LOOP ( 'NONE', ( #306, #127 ) ) ;
#201 = CLOSED_SHELL ( 'NONE', ( #159, #295, #185, #250 ) ) ;
#202 = CARTESIAN_POINT ( 'NONE',  ( 0.000000000000000000, 1.250000000000000000, 0.000000000000000000 ) ) ;
#203 = FILL_AREA_STYLE ('',( #157 ) ) ;
#204 = PLANE ( 'NONE',  #90 ) ;
#205 = MECHANICAL_DESIGN_GEOMETRIC_PRESENTATION_REPRESENTATION (  '', ( #42 ), #235 ) ;
#206 =( LENGTH_UNIT ( ) NAMED_UNIT ( * ) SI_UNIT ( $, .METRE. ) );
#207 = CIRCLE ( 'NONE', #145, 0.3125000000000000555 ) ;
#208 = CARTESIAN_POINT ( 'NONE',  ( -6.123233995736759873E-17, 3.500000000000000000, 0.000000000000000000 ) ) ;
#209 = AXIS2_PLACEMENT_3D ( 'NONE', #131, #300, #146 ) ;
#210 = VECTOR ( 'NONE', #46, 39.37007874015748143 ) ;
#211 = DIRECTION ( 'NONE',  ( -1.000000000000000000, 0.000000000000000000, 0.000000000000000000 ) ) ;
#212 = PRESENTATION_STYLE_ASSIGNMENT (( #51 ) ) ;
#213 = ADVANCED_FACE ( 'NONE', ( #68 ), #308, .F. ) ;
#214 = MECHANICAL_DESIGN_GEOMETRIC_PRESENTATION_REPRESENTATION (  '', ( #178 ), #237 ) ;
#215 = VERTEX_POINT ( 'NONE', #138 ) ;
#216 = SURFACE_SIDE_STYLE ('',( #193 ) ) ;
#217 = DIRECTION ( 'NONE',  ( 0.000000000000000000, 0.000000000000000000, -1.000000000000000000 ) ) ;
#218 = CYLINDRICAL_SURFACE ( 'NONE', #242, 0.3125000000000000000 ) ;
#219 = PRESENTATION_STYLE_ASSIGNMENT (( #225 ) ) ;
#220 = EDGE_LOOP ( 'NONE', ( #228, #291 ) ) ;
#221 = UNCERTAINTY_MEASURE_WITH_UNIT (LENGTH_MEASURE( 1.000000000000000082E-05 ), #65, 'distance_accuracy_value', 'NONE');
#222 =( GEOMETRIC_REPRESENTATION_CONTEXT ( 3 ) GLOBAL_UNCERTAINTY_ASSIGNED_CONTEXT ( ( #168 ) ) GLOBAL_UNIT_ASSIGNED_CONTEXT ( ( #297, #41, #197 ) ) REPRESENTATION_CONTEXT ( 'NONE', 'WORKASPACE' ) );
#223 = VERTEX_POINT ( 'NONE', #233 ) ;
#224 = COLOUR_RGB ( '',1.000000000000000000, 0.000000000000000000, 0.000000000000000000 ) ;
#225 = SURFACE_STYLE_USAGE ( .BOTH. , #176 ) ;
#226 = ORIENTED_EDGE ( 'NONE', *, *, #75, .F. ) ;
#227 = FILL_AREA_STYLE_COLOUR ( '', #224 ) ;
#228 = ORIENTED_EDGE ( 'NONE', *, *, #63, .F. ) ;
#229 =( NAMED_UNIT ( * ) PLANE_ANGLE_UNIT ( ) SI_UNIT ( $, .RADIAN. ) );
#230 = LINE ( 'NONE', #66, #210 ) ;
#231 = AXIS2_PLACEMENT_3D ( 'NONE', #248, #128, #292 ) ;
#232 = LENGTH_MEASURE_WITH_UNIT ( LENGTH_MEASURE( 0.02539999999999999897 ), #206 );
#233 = CARTESIAN_POINT ( 'NONE',  ( 0.000000000000000000, 0.000000000000000000, -0.3125000000000000000 ) ) ;
#234 =( NAMED_UNIT ( * ) PLANE_ANGLE_UNIT ( ) SI_UNIT ( $, .RADIAN. ) );
#235 =( GEOMETRIC_REPRESENTATION_CONTEXT ( 3 ) GLOBAL_UNCERTAINTY_ASSIGNED_CONTEXT ( ( #274 ) ) GLOBAL_UNIT_ASSIGNED_CONTEXT ( ( #174, #234, #18 ) ) REPRESENTATION_CONTEXT ( 'NONE', 'WORKASPACE' ) );
#236 =( GEOMETRIC_REPRESENTATION_CONTEXT ( 3 ) GLOBAL_UNCERTAINTY_ASSIGNED_CONTEXT ( ( #58 ) ) GLOBAL_UNIT_ASSIGNED_CONTEXT ( ( #270, #229, #93 ) ) REPRESENTATION_CONTEXT ( 'NONE', 'WORKASPACE' ) );
#237 =( GEOMETRIC_REPRESENTATION_CONTEXT ( 3 ) GLOBAL_UNCERTAINTY_ASSIGNED_CONTEXT ( ( #304 ) ) GLOBAL_UNIT_ASSIGNED_CONTEXT ( ( #70, #48, #71 ) ) REPRESENTATION_CONTEXT ( 'NONE', 'WORKASPACE' ) );
#238 =( LENGTH_UNIT ( ) NAMED_UNIT ( * ) SI_UNIT ( $, .METRE. ) );
#239 = DIRECTION ( 'NONE',  ( -2.721437331438560389E-17, 1.000000000000000000, -0.000000000000000000 ) ) ;
#240 = ORIENTED_EDGE ( 'NONE', *, *, #254, .F. ) ;
#241 = MECHANICAL_DESIGN_GEOMETRIC_PRESENTATION_REPRESENTATION (  '', ( #269 ), #236 ) ;
#242 = AXIS2_PLACEMENT_3D ( 'NONE', #9, #150, #249 ) ;
#243 = CARTESIAN_POINT ( 'NONE',  ( -6.123233995736759873E-17, 3.500000000000000000, 0.000000000000000000 ) ) ;
#244 = DIRECTION ( 'NONE',  ( 0.000000000000000000, 0.000000000000000000, -1.000000000000000000 ) ) ;
#245 = PRESENTATION_STYLE_ASSIGNMENT (( #109 ) ) ;
#246 = EDGE_LOOP ( 'NONE', ( #277, #53, #24, #226 ) ) ;
#247 = EDGE_CURVE ( 'NONE', #215, #59, #133, .T. ) ;
#248 = CARTESIAN_POINT ( 'NONE',  ( 0.000000000000000000, 1.250000000000000000, 0.000000000000000000 ) ) ;
#249 = DIRECTION ( 'NONE',  ( -1.000000000000000000, 0.000000000000000000, 0.000000000000000000 ) ) ;
#250 = ADVANCED_FACE ( 'NONE', ( #115 ), #204, .T. ) ;
#251 = COLOUR_RGB ( '',1.000000000000000000, 0.000000000000000000, 0.000000000000000000 ) ;
#252 = AXIS2_PLACEMENT_3D ( 'NONE', #20, #181, #117 ) ;
#253 = DIRECTION ( 'NONE',  ( -0.000000000000000000, -1.000000000000000000, -0.000000000000000000 ) ) ;
#254 = EDGE_CURVE ( 'NONE', #223, #7, #171, .T. ) ;
#255 = CYLINDRICAL_SURFACE ( 'NONE', #95, 0.3125000000000000000 ) ;
#256 = CARTESIAN_POINT ( 'NONE',  ( 0.000000000000000000, 1.250000000000000000, 0.000000000000000000 ) ) ;
#257 = MANIFOLD_SOLID_BREP ( 'Revolve - Tool Body (Straight Shanked)', #34 ) ;
#258 = PRESENTATION_LAYER_ASSIGNMENT (  '', '', ( #269 ) ) ;
#259 = PRESENTATION_LAYER_ASSIGNMENT (  '', '', ( #61 ) ) ;
#260 = VECTOR ( 'NONE', #285, 39.37007874015748143 ) ;
#261 =( CONVERSION_BASED_UNIT ( 'INCH', #169 ) LENGTH_UNIT ( ) NAMED_UNIT ( #4 ) );
#262 = ORIENTED_EDGE ( 'NONE', *, *, #19, .F. ) ;
#263 = SURFACE_STYLE_USAGE ( .BOTH. , #77 ) ;
#264 = CIRCLE ( 'NONE', #279, 0.3125000000000000555 ) ;
#265 =( LENGTH_UNIT ( ) NAMED_UNIT ( * ) SI_UNIT ( $, .METRE. ) );
#266 = LINE ( 'NONE', #73, #260 ) ;
#267 = ORIENTED_EDGE ( 'NONE', *, *, #8, .T. ) ;
#268 =( LENGTH_UNIT ( ) NAMED_UNIT ( * ) SI_UNIT ( $, .METRE. ) );
#269 = STYLED_ITEM ( 'NONE', ( #219 ), #295 ) ;
#270 =( CONVERSION_BASED_UNIT ( 'INCH', #82 ) LENGTH_UNIT ( ) NAMED_UNIT ( #35 ) );
#271 = DIMENSIONAL_EXPONENTS ( 1.000000000000000000, 0.000000000000000000, 0.000000000000000000, 0.000000000000000000, 0.000000000000000000, 0.000000000000000000, 0.000000000000000000 ) ;
#272 = ORIENTED_EDGE ( 'NONE', *, *, #189, .F. ) ;
#273 = CARTESIAN_POINT ( 'NONE',  ( 0.000000000000000000, 0.000000000000000000, 0.000000000000000000 ) ) ;
#274 = UNCERTAINTY_MEASURE_WITH_UNIT (LENGTH_MEASURE( 1.000000000000000082E-05 ), #174, 'distance_accuracy_value', 'NONE');
#275 =( CONVERSION_BASED_UNIT ( 'INCH', #284 ) LENGTH_UNIT ( ) NAMED_UNIT ( #30 ) );
#276 = CARTESIAN_POINT ( 'NONE',  ( 3.827021247335478926E-17, 0.000000000000000000, 0.3125000000000000000 ) ) ;
#277 = ORIENTED_EDGE ( 'NONE', *, *, #63, .T. ) ;
#278 = EDGE_CURVE ( 'NONE', #14, #39, #50, .T. ) ;
#279 = AXIS2_PLACEMENT_3D ( 'NONE', #243, #239, #211 ) ;
#280 = CARTESIAN_POINT ( 'NONE',  ( -0.3125000000000000555, 3.500000000000000000, 0.000000000000000000 ) ) ;
#281 = PRODUCT_CONTEXT ( 'NONE', #26, 'mechanical' ) ;
#282 =( LENGTH_UNIT ( ) NAMED_UNIT ( * ) SI_UNIT ( $, .METRE. ) );
#283 = SURFACE_SIDE_STYLE ('',( #94 ) ) ;
#284 = LENGTH_MEASURE_WITH_UNIT ( LENGTH_MEASURE( 0.02539999999999999897 ), #238 );
#285 = DIRECTION ( 'NONE',  ( -0.000000000000000000, -1.000000000000000000, -0.000000000000000000 ) ) ;
#286 = ADVANCED_FACE ( 'NONE', ( #37 ), #302, .F. ) ;
#287 = FILL_AREA_STYLE_COLOUR ( '', #79 ) ;
#288 = AXIS2_PLACEMENT_3D ( 'NONE', #126, #149, #217 ) ;
#289 = CIRCLE ( 'NONE', #155, 0.3125000000000000000 ) ;
#290 = DIRECTION ( 'NONE',  ( -1.000000000000000000, 0.000000000000000000, 0.000000000000000000 ) ) ;
#291 = ORIENTED_EDGE ( 'NONE', *, *, #247, .F. ) ;
#292 = DIRECTION ( 'NONE',  ( 0.000000000000000000, 0.000000000000000000, -1.000000000000000000 ) ) ;
#293 = SURFACE_SIDE_STYLE ('',( #190 ) ) ;
#294 = SURFACE_STYLE_FILL_AREA ( #134 ) ;
#295 = ADVANCED_FACE ( 'NONE', ( #173 ), #125, .T. ) ;
#296 = FILL_AREA_STYLE ('',( #227 ) ) ;
#297 =( CONVERSION_BASED_UNIT ( 'INCH', #102 ) LENGTH_UNIT ( ) NAMED_UNIT ( #103 ) );
#298 = PRESENTATION_LAYER_ASSIGNMENT (  '', '', ( #121 ) ) ;
#299 = CARTESIAN_POINT ( 'NONE',  ( 3.827021247335478926E-17, 1.250000000000000000, 0.3125000000000000000 ) ) ;
#300 = DIRECTION ( 'NONE',  ( -2.721437331438560697E-17, 1.000000000000000000, 0.000000000000000000 ) ) ;
#301 = LENGTH_MEASURE_WITH_UNIT ( LENGTH_MEASURE( 0.02539999999999999897 ), #268 );
#302 = PLANE ( 'NONE',  #209 ) ;
#303 = DIRECTION ( 'NONE',  ( -1.000000000000000000, 0.000000000000000000, 0.000000000000000000 ) ) ;
#304 = UNCERTAINTY_MEASURE_WITH_UNIT (LENGTH_MEASURE( 1.000000000000000082E-05 ), #70, 'distance_accuracy_value', 'NONE');
#305 = CARTESIAN_POINT ( 'NONE',  ( 0.000000000000000000, 0.000000000000000000, 0.000000000000000000 ) ) ;
#306 = ORIENTED_EDGE ( 'NONE', *, *, #278, .F. ) ;
#307 = AXIS2_PLACEMENT_3D ( 'NONE', #166, #123, #99 ) ;
#308 = PLANE ( 'NONE',  #141 ) ;
#309 = SURFACE_STYLE_USAGE ( .BOTH. , #283 ) ;
ENDSEC;
END-ISO-10303-21;
