ISO-10303-21;
HEADER;
FILE_DESCRIPTION (( 'STEP AP214' ),
    '1' );
FILE_NAME ('84685.STEP',
    '2023-06-23T14:28:24',
    ( '' ),
    ( '' ),
    'SwSTEP 2.0',
    'SolidWorks 2023',
    '' );
FILE_SCHEMA (( 'AUTOMOTIVE_DESIGN' ));
ENDSEC;

DATA;
#1 = CYLINDRICAL_SURFACE ( 'NONE', #290, 0.06249999999999980571 ) ;
#2 = AXIS2_PLACEMENT_3D ( 'NONE', #14, #174, #194 ) ;
#3 = FILL_AREA_STYLE ('',( #222 ) ) ;
#4 =( NAMED_UNIT ( * ) SI_UNIT ( $, .STERADIAN. ) SOLID_ANGLE_UNIT ( ) );
#5 = VECTOR ( 'NONE', #262, 39.37007874015748143 ) ;
#6 = COLOUR_RGB ( '',1.000000000000000000, 0.000000000000000000, 0.000000000000000000 ) ;
#7 = PRESENTATION_STYLE_ASSIGNMENT (( #224 ) ) ;
#8 = CARTESIAN_POINT ( 'NONE',  ( 0.000000000000000000, 1.000000000000000000, 0.000000000000000000 ) ) ;
#9 = MECHANICAL_DESIGN_GEOMETRIC_PRESENTATION_REPRESENTATION (  '', ( #100 ), #95 ) ;
#10 = VERTEX_POINT ( 'NONE', #279 ) ;
#11 = MECHANICAL_DESIGN_GEOMETRIC_PRESENTATION_REPRESENTATION (  '', ( #145 ), #217 ) ;
#12 = CARTESIAN_POINT ( 'NONE',  ( 0.000000000000000000, 1.000000000000000000, 0.000000000000000000 ) ) ;
#13 = EDGE_LOOP ( 'NONE', ( #228, #272, #167, #183 ) ) ;
#14 = CARTESIAN_POINT ( 'NONE',  ( 4.286263797015738074E-16, 2.500000000000000000, 0.000000000000000000 ) ) ;
#15 = DIRECTION ( 'NONE',  ( 0.000000000000000000, 1.000000000000000000, 0.000000000000000000 ) ) ;
#16 = CARTESIAN_POINT ( 'NONE',  ( 0.000000000000000000, 0.000000000000000000, 0.000000000000000000 ) ) ;
#17 = ORIENTED_EDGE ( 'NONE', *, *, #151, .T. ) ;
#18 = DIRECTION ( 'NONE',  ( 0.000000000000000000, 0.000000000000000000, -1.000000000000000000 ) ) ;
#19 = FILL_AREA_STYLE ('',( #135 ) ) ;
#20 = DIMENSIONAL_EXPONENTS ( 1.000000000000000000, 0.000000000000000000, 0.000000000000000000, 0.000000000000000000, 0.000000000000000000, 0.000000000000000000, 0.000000000000000000 ) ;
#21 = FILL_AREA_STYLE ('',( #47 ) ) ;
#22 = DIRECTION ( 'NONE',  ( 0.000000000000000000, -0.000000000000000000, 1.000000000000000000 ) ) ;
#23 = DIMENSIONAL_EXPONENTS ( 1.000000000000000000, 0.000000000000000000, 0.000000000000000000, 0.000000000000000000, 0.000000000000000000, 0.000000000000000000, 0.000000000000000000 ) ;
#24 = UNCERTAINTY_MEASURE_WITH_UNIT (LENGTH_MEASURE( 1.000000000000000082E-05 ), #33, 'distance_accuracy_value', 'NONE');
#25 = CIRCLE ( 'NONE', #201, 0.06250000000000001388 ) ;
#26 = AXIS2_PLACEMENT_3D ( 'NONE', #303, #86, #280 ) ;
#27 = EDGE_CURVE ( 'NONE', #10, #298, #25, .T. ) ;
#28 = UNCERTAINTY_MEASURE_WITH_UNIT (LENGTH_MEASURE( 1.000000000000000082E-05 ), #71, 'distance_accuracy_value', 'NONE');
#29 = DIMENSIONAL_EXPONENTS ( 1.000000000000000000, 0.000000000000000000, 0.000000000000000000, 0.000000000000000000, 0.000000000000000000, 0.000000000000000000, 0.000000000000000000 ) ;
#30 = DIRECTION ( 'NONE',  ( -1.000000000000000000, 0.000000000000000000, 0.000000000000000000 ) ) ;
#31 = DIRECTION ( 'NONE',  ( -0.000000000000000000, -1.000000000000000000, -0.000000000000000000 ) ) ;
#32 = COLOUR_RGB ( '',0.7921568627450980005, 0.8196078431372548767, 0.9333333333333333481 ) ;
#33 =( CONVERSION_BASED_UNIT ( 'INCH', #146 ) LENGTH_UNIT ( ) NAMED_UNIT ( #114 ) );
#34 =( CONVERSION_BASED_UNIT ( 'INCH', #247 ) LENGTH_UNIT ( ) NAMED_UNIT ( #189 ) );
#35 = EDGE_CURVE ( 'NONE', #85, #163, #294, .T. ) ;
#36 = CARTESIAN_POINT ( 'NONE',  ( 0.000000000000000000, 0.000000000000000000, -0.06250000000000001388 ) ) ;
#37 =( NAMED_UNIT ( * ) SI_UNIT ( $, .STERADIAN. ) SOLID_ANGLE_UNIT ( ) );
#38 =( GEOMETRIC_REPRESENTATION_CONTEXT ( 3 ) GLOBAL_UNCERTAINTY_ASSIGNED_CONTEXT ( ( #24 ) ) GLOBAL_UNIT_ASSIGNED_CONTEXT ( ( #33, #241, #37 ) ) REPRESENTATION_CONTEXT ( 'NONE', 'WORKASPACE' ) );
#39 =( LENGTH_UNIT ( ) NAMED_UNIT ( * ) SI_UNIT ( $, .METRE. ) );
#40 = VERTEX_POINT ( 'NONE', #274 ) ;
#41 = CIRCLE ( 'NONE', #139, 0.06250000000000001388 ) ;
#42 = PLANE ( 'NONE',  #120 ) ;
#43 = VERTEX_POINT ( 'NONE', #227 ) ;
#44 = DIRECTION ( 'NONE',  ( 0.000000000000000000, 0.000000000000000000, -1.000000000000000000 ) ) ;
#45 = PRESENTATION_LAYER_ASSIGNMENT (  '', '', ( #153 ) ) ;
#46 = EDGE_CURVE ( 'NONE', #43, #40, #74, .T. ) ;
#47 = FILL_AREA_STYLE_COLOUR ( '', #242 ) ;
#48 = EDGE_LOOP ( 'NONE', ( #175, #132 ) ) ;
#49 = SURFACE_STYLE_USAGE ( .BOTH. , #89 ) ;
#50 = FACE_OUTER_BOUND ( 'NONE', #157, .T. ) ;
#51 = PRESENTATION_LAYER_ASSIGNMENT (  '', '', ( #173 ) ) ;
#52 = PRODUCT_DEFINITION_SHAPE ( 'NONE', 'NONE',  #172 ) ;
#53 =( NAMED_UNIT ( * ) PLANE_ANGLE_UNIT ( ) SI_UNIT ( $, .RADIAN. ) );
#54 = PLANE ( 'NONE',  #159 ) ;
#55 = ADVANCED_FACE ( 'NONE', ( #235 ), #198, .T. ) ;
#56 =( LENGTH_UNIT ( ) NAMED_UNIT ( * ) SI_UNIT ( $, .METRE. ) );
#57 = DIRECTION ( 'NONE',  ( 0.000000000000000000, 0.000000000000000000, -1.000000000000000000 ) ) ;
#58 = ORIENTED_EDGE ( 'NONE', *, *, #35, .T. ) ;
#59 = AXIS2_PLACEMENT_3D ( 'NONE', #258, #84, #112 ) ;
#60 = VERTEX_POINT ( 'NONE', #206 ) ;
#61 = CARTESIAN_POINT ( 'NONE',  ( 0.000000000000000000, 0.000000000000000000, 0.000000000000000000 ) ) ;
#62 = DIRECTION ( 'NONE',  ( 2.857509198010492214E-16, 1.000000000000000000, -0.000000000000000000 ) ) ;
#63 = VECTOR ( 'NONE', #220, 39.37007874015748143 ) ;
#64 = PRODUCT ( '84685', '84685', '', ( #65 ) ) ;
#65 = PRODUCT_CONTEXT ( 'NONE', #137, 'mechanical' ) ;
#66 = SURFACE_SIDE_STYLE ('',( #230 ) ) ;
#67 = ORIENTED_EDGE ( 'NONE', *, *, #180, .T. ) ;
#68 = FILL_AREA_STYLE_COLOUR ( '', #216 ) ;
#69 =( NAMED_UNIT ( * ) PLANE_ANGLE_UNIT ( ) SI_UNIT ( $, .RADIAN. ) );
#70 = SHAPE_DEFINITION_REPRESENTATION ( #52, #265 ) ;
#71 =( CONVERSION_BASED_UNIT ( 'INCH', #152 ) LENGTH_UNIT ( ) NAMED_UNIT ( #23 ) );
#72 =( CONVERSION_BASED_UNIT ( 'INCH', #238 ) LENGTH_UNIT ( ) NAMED_UNIT ( #161 ) );
#73 = DIMENSIONAL_EXPONENTS ( 1.000000000000000000, 0.000000000000000000, 0.000000000000000000, 0.000000000000000000, 0.000000000000000000, 0.000000000000000000, 0.000000000000000000 ) ;
#74 = CIRCLE ( 'NONE', #109, 0.06250000000000001388 ) ;
#75 = CIRCLE ( 'NONE', #283, 0.06250000000000001388 ) ;
#76 = DIRECTION ( 'NONE',  ( 2.857509198010492214E-16, 1.000000000000000000, -0.000000000000000000 ) ) ;
#77 = EDGE_CURVE ( 'NONE', #40, #43, #296, .T. ) ;
#78 = PRESENTATION_STYLE_ASSIGNMENT (( #213 ) ) ;
#79 = CYLINDRICAL_SURFACE ( 'NONE', #124, 0.06250000000000001388 ) ;
#80 = CARTESIAN_POINT ( 'NONE',  ( 0.000000000000000000, 0.000000000000000000, 0.000000000000000000 ) ) ;
#81 = MECHANICAL_DESIGN_GEOMETRIC_PRESENTATION_REPRESENTATION (  '', ( #153 ), #191 ) ;
#82 = DIRECTION ( 'NONE',  ( -1.000000000000000000, 0.000000000000000000, 0.000000000000000000 ) ) ;
#83 = PLANE ( 'NONE',  #289 ) ;
#84 = DIRECTION ( 'NONE',  ( 2.857509198010492214E-16, 1.000000000000000000, -0.000000000000000000 ) ) ;
#85 = VERTEX_POINT ( 'NONE', #255 ) ;
#86 = DIRECTION ( 'NONE',  ( -0.000000000000000000, -1.000000000000000000, -0.000000000000000000 ) ) ;
#87 = SURFACE_SIDE_STYLE ('',( #106 ) ) ;
#88 =( NAMED_UNIT ( * ) SI_UNIT ( $, .STERADIAN. ) SOLID_ANGLE_UNIT ( ) );
#89 = SURFACE_SIDE_STYLE ('',( #113 ) ) ;
#90 = FILL_AREA_STYLE ('',( #97 ) ) ;
#91 = CLOSED_SHELL ( 'NONE', ( #291, #125, #55, #218 ) ) ;
#92 = ORIENTED_EDGE ( 'NONE', *, *, #77, .T. ) ;
#93 = APPLICATION_PROTOCOL_DEFINITION ( 'draft international standard', 'automotive_design', 1998, #137 ) ;
#94 = DIRECTION ( 'NONE',  ( -1.000000000000000000, 0.000000000000000000, 0.000000000000000000 ) ) ;
#95 =( GEOMETRIC_REPRESENTATION_CONTEXT ( 3 ) GLOBAL_UNCERTAINTY_ASSIGNED_CONTEXT ( ( #215 ) ) GLOBAL_UNIT_ASSIGNED_CONTEXT ( ( #34, #53, #221 ) ) REPRESENTATION_CONTEXT ( 'NONE', 'WORKASPACE' ) );
#96 = LINE ( 'NONE', #186, #150 ) ;
#97 = FILL_AREA_STYLE_COLOUR ( '', #6 ) ;
#98 =( CONVERSION_BASED_UNIT ( 'INCH', #244 ) LENGTH_UNIT ( ) NAMED_UNIT ( #20 ) );
#99 = MECHANICAL_DESIGN_GEOMETRIC_PRESENTATION_REPRESENTATION (  '', ( #269 ), #246 ) ;
#100 = STYLED_ITEM ( 'NONE', ( #212 ), #256 ) ;
#101 = DIRECTION ( 'NONE',  ( -0.000000000000000000, -1.000000000000000000, -0.000000000000000000 ) ) ;
#102 = EDGE_CURVE ( 'NONE', #126, #163, #229, .T. ) ;
#103 = ORIENTED_EDGE ( 'NONE', *, *, #35, .F. ) ;
#104 = DIRECTION ( 'NONE',  ( 0.000000000000000000, 0.000000000000000000, -1.000000000000000000 ) ) ;
#105 = ORIENTED_EDGE ( 'NONE', *, *, #151, .F. ) ;
#106 = SURFACE_STYLE_FILL_AREA ( #19 ) ;
#107 =( NAMED_UNIT ( * ) SI_UNIT ( $, .STERADIAN. ) SOLID_ANGLE_UNIT ( ) );
#108 = CARTESIAN_POINT ( 'NONE',  ( 0.000000000000000000, 0.000000000000000000, -0.06250000000000001388 ) ) ;
#109 = AXIS2_PLACEMENT_3D ( 'NONE', #8, #101, #154 ) ;
#110 = MECHANICAL_DESIGN_GEOMETRIC_PRESENTATION_REPRESENTATION (  '', ( #144 ), #168 ) ;
#111 = ORIENTED_EDGE ( 'NONE', *, *, #243, .F. ) ;
#112 = DIRECTION ( 'NONE',  ( -1.000000000000000000, 0.000000000000000000, 0.000000000000000000 ) ) ;
#113 = SURFACE_STYLE_FILL_AREA ( #21 ) ;
#114 = DIMENSIONAL_EXPONENTS ( 1.000000000000000000, 0.000000000000000000, 0.000000000000000000, 0.000000000000000000, 0.000000000000000000, 0.000000000000000000, 0.000000000000000000 ) ;
#115 = ORIENTED_EDGE ( 'NONE', *, *, #27, .T. ) ;
#116 = PRODUCT_DEFINITION_CONTEXT ( 'detailed design', #236, 'design' ) ;
#117 = AXIS2_PLACEMENT_3D ( 'NONE', #214, #287, #94 ) ;
#118 = PRESENTATION_LAYER_ASSIGNMENT (  '', '', ( #145 ) ) ;
#119 = FACE_OUTER_BOUND ( 'NONE', #304, .T. ) ;
#120 = AXIS2_PLACEMENT_3D ( 'NONE', #176, #278, #18 ) ;
#121 = COLOUR_RGB ( '',1.000000000000000000, 0.000000000000000000, 0.000000000000000000 ) ;
#122 = CARTESIAN_POINT ( 'NONE',  ( 0.06250000000000001388, 2.500000000000000000, 0.000000000000000000 ) ) ;
#123 = FACE_OUTER_BOUND ( 'NONE', #48, .T. ) ;
#124 = AXIS2_PLACEMENT_3D ( 'NONE', #16, #284, #104 ) ;
#125 = ADVANCED_FACE ( 'NONE', ( #297 ), #83, .F. ) ;
#126 = VERTEX_POINT ( 'NONE', #169 ) ;
#127 = PRESENTATION_LAYER_ASSIGNMENT (  '', '', ( #269 ) ) ;
#128 = DIRECTION ( 'NONE',  ( -1.000000000000000000, 2.857509198010492214E-16, 0.000000000000000000 ) ) ;
#129 = ORIENTED_EDGE ( 'NONE', *, *, #270, .F. ) ;
#130 =( LENGTH_UNIT ( ) NAMED_UNIT ( * ) SI_UNIT ( $, .METRE. ) );
#131 = FILL_AREA_STYLE ('',( #68 ) ) ;
#132 = ORIENTED_EDGE ( 'NONE', *, *, #102, .T. ) ;
#133 = EDGE_LOOP ( 'NONE', ( #277, #263, #58, #155 ) ) ;
#134 = PRESENTATION_STYLE_ASSIGNMENT (( #233 ) ) ;
#135 = FILL_AREA_STYLE_COLOUR ( '', #121 ) ;
#136 = LINE ( 'NONE', #288, #210 ) ;
#137 = APPLICATION_CONTEXT ( 'automotive_design' ) ;
#138 = ORIENTED_EDGE ( 'NONE', *, *, #253, .F. ) ;
#139 = AXIS2_PLACEMENT_3D ( 'NONE', #266, #142, #30 ) ;
#140 = CARTESIAN_POINT ( 'NONE',  ( -0.06249999999999916039, 2.500000000000000000, 0.000000000000000000 ) ) ;
#141 = ADVANCED_FACE ( 'NONE', ( #259 ), #42, .T. ) ;
#142 = DIRECTION ( 'NONE',  ( 2.857509198010492214E-16, 1.000000000000000000, -0.000000000000000000 ) ) ;
#143 = DIRECTION ( 'NONE',  ( 2.857509198010492214E-16, 1.000000000000000000, -0.000000000000000000 ) ) ;
#144 = STYLED_ITEM ( 'NONE', ( #134 ), #141 ) ;
#145 = STYLED_ITEM ( 'NONE', ( #179 ), #306 ) ;
#146 = LENGTH_MEASURE_WITH_UNIT ( LENGTH_MEASURE( 0.02539999999999999897 ), #293 );
#147 = CARTESIAN_POINT ( 'NONE',  ( -0.06249999999999937550, 2.500000000000000000, 0.000000000000000000 ) ) ;
#148 = FACE_OUTER_BOUND ( 'NONE', #177, .T. ) ;
#149 = DIRECTION ( 'NONE',  ( -2.857509198010492214E-16, -1.000000000000000000, 0.000000000000000000 ) ) ;
#150 = VECTOR ( 'NONE', #76, 39.37007874015748143 ) ;
#151 = EDGE_CURVE ( 'NONE', #298, #10, #299, .T. ) ;
#152 = LENGTH_MEASURE_WITH_UNIT ( LENGTH_MEASURE( 0.02539999999999999897 ), #156 );
#153 = STYLED_ITEM ( 'NONE', ( #240 ), #188 ) ;
#154 = DIRECTION ( 'NONE',  ( 0.000000000000000000, 0.000000000000000000, -1.000000000000000000 ) ) ;
#155 = ORIENTED_EDGE ( 'NONE', *, *, #102, .F. ) ;
#156 =( LENGTH_UNIT ( ) NAMED_UNIT ( * ) SI_UNIT ( $, .METRE. ) );
#157 = EDGE_LOOP ( 'NONE', ( #92, #67, #105, #111 ) ) ;
#158 = DIRECTION ( 'NONE',  ( -0.000000000000000000, -1.000000000000000000, -0.000000000000000000 ) ) ;
#159 = AXIS2_PLACEMENT_3D ( 'NONE', #122, #149, #268 ) ;
#160 =( GEOMETRIC_REPRESENTATION_CONTEXT ( 3 ) GLOBAL_UNCERTAINTY_ASSIGNED_CONTEXT ( ( #260 ) ) GLOBAL_UNIT_ASSIGNED_CONTEXT ( ( #301, #69, #88 ) ) REPRESENTATION_CONTEXT ( 'NONE', 'WORKASPACE' ) );
#161 = DIMENSIONAL_EXPONENTS ( 1.000000000000000000, 0.000000000000000000, 0.000000000000000000, 0.000000000000000000, 0.000000000000000000, 0.000000000000000000, 0.000000000000000000 ) ;
#162 =( LENGTH_UNIT ( ) NAMED_UNIT ( * ) SI_UNIT ( $, .METRE. ) );
#163 = VERTEX_POINT ( 'NONE', #140 ) ;
#164 = FACE_OUTER_BOUND ( 'NONE', #13, .T. ) ;
#165 = SURFACE_SIDE_STYLE ('',( #208 ) ) ;
#166 = CIRCLE ( 'NONE', #117, 0.06249999999999959061 ) ;
#167 = ORIENTED_EDGE ( 'NONE', *, *, #243, .T. ) ;
#168 =( GEOMETRIC_REPRESENTATION_CONTEXT ( 3 ) GLOBAL_UNCERTAINTY_ASSIGNED_CONTEXT ( ( #28 ) ) GLOBAL_UNIT_ASSIGNED_CONTEXT ( ( #71, #178, #107 ) ) REPRESENTATION_CONTEXT ( 'NONE', 'WORKASPACE' ) );
#169 = CARTESIAN_POINT ( 'NONE',  ( 0.06250000000000001388, 2.500000000000000000, 7.654042494670946760E-18 ) ) ;
#170 = CARTESIAN_POINT ( 'NONE',  ( 2.551674630223302937E-33, 1.000000000000000000, 0.000000000000000000 ) ) ;
#171 = LENGTH_MEASURE_WITH_UNIT ( LENGTH_MEASURE( 0.02539999999999999897 ), #39 );
#172 = PRODUCT_DEFINITION ( 'UNKNOWN', '', #308, #116 ) ;
#173 = STYLED_ITEM ( 'NONE', ( #78 ), #295 ) ;
#174 = DIRECTION ( 'NONE',  ( 2.857509198010492214E-16, 1.000000000000000000, -0.000000000000000000 ) ) ;
#175 = ORIENTED_EDGE ( 'NONE', *, *, #264, .T. ) ;
#176 = CARTESIAN_POINT ( 'NONE',  ( 0.000000000000000000, 0.000000000000000000, 0.000000000000000000 ) ) ;
#177 = EDGE_LOOP ( 'NONE', ( #234, #232 ) ) ;
#178 =( NAMED_UNIT ( * ) PLANE_ANGLE_UNIT ( ) SI_UNIT ( $, .RADIAN. ) );
#179 = PRESENTATION_STYLE_ASSIGNMENT (( #199 ) ) ;
#180 = EDGE_CURVE ( 'NONE', #43, #10, #136, .T. ) ;
#181 = SURFACE_STYLE_FILL_AREA ( #90 ) ;
#182 = PRESENTATION_LAYER_ASSIGNMENT (  '', '', ( #144 ) ) ;
#183 = ORIENTED_EDGE ( 'NONE', *, *, #27, .F. ) ;
#184 = EDGE_CURVE ( 'NONE', #60, #126, #96, .T. ) ;
#185 = DIRECTION ( 'NONE',  ( 2.857509198010492214E-16, 1.000000000000000000, -0.000000000000000000 ) ) ;
#186 = CARTESIAN_POINT ( 'NONE',  ( 0.06250000000000023592, 2.500000000000000000, 7.654042494670934434E-18 ) ) ;
#187 = CARTESIAN_POINT ( 'NONE',  ( 4.286263797015738074E-16, 2.500000000000000000, 0.000000000000000000 ) ) ;
#188 = ADVANCED_FACE ( 'NONE', ( #164 ), #305, .T. ) ;
#189 = DIMENSIONAL_EXPONENTS ( 1.000000000000000000, 0.000000000000000000, 0.000000000000000000, 0.000000000000000000, 0.000000000000000000, 0.000000000000000000, 0.000000000000000000 ) ;
#190 = SURFACE_STYLE_FILL_AREA ( #3 ) ;
#191 =( GEOMETRIC_REPRESENTATION_CONTEXT ( 3 ) GLOBAL_UNCERTAINTY_ASSIGNED_CONTEXT ( ( #286 ) ) GLOBAL_UNIT_ASSIGNED_CONTEXT ( ( #98, #267, #292 ) ) REPRESENTATION_CONTEXT ( 'NONE', 'WORKASPACE' ) );
#192 = SURFACE_SIDE_STYLE ('',( #190 ) ) ;
#193 = DIRECTION ( 'NONE',  ( 1.000000000000000000, 0.000000000000000000, 0.000000000000000000 ) ) ;
#194 = DIRECTION ( 'NONE',  ( -1.000000000000000000, 0.000000000000000000, 0.000000000000000000 ) ) ;
#195 =( CONVERSION_BASED_UNIT ( 'INCH', #171 ) LENGTH_UNIT ( ) NAMED_UNIT ( #29 ) );
#196 = DIRECTION ( 'NONE',  ( 0.000000000000000000, 0.000000000000000000, -1.000000000000000000 ) ) ;
#197 = ORIENTED_EDGE ( 'NONE', *, *, #264, .F. ) ;
#198 = CYLINDRICAL_SURFACE ( 'NONE', #59, 0.06249999999999980571 ) ;
#199 = SURFACE_STYLE_USAGE ( .BOTH. , #87 ) ;
#200 = EDGE_LOOP ( 'NONE', ( #17, #115 ) ) ;
#201 = AXIS2_PLACEMENT_3D ( 'NONE', #239, #281, #44 ) ;
#202 = FILL_AREA_STYLE ('',( #219 ) ) ;
#203 = PLANE ( 'NONE',  #273 ) ;
#204 = LENGTH_MEASURE_WITH_UNIT ( LENGTH_MEASURE( 0.02539999999999999897 ), #276 );
#205 = ORIENTED_EDGE ( 'NONE', *, *, #184, .T. ) ;
#206 = CARTESIAN_POINT ( 'NONE',  ( 0.06250000000000001388, 1.000000000000000000, 7.654042494670946760E-18 ) ) ;
#207 = ORIENTED_EDGE ( 'NONE', *, *, #253, .T. ) ;
#208 = SURFACE_STYLE_FILL_AREA ( #202 ) ;
#209 = CARTESIAN_POINT ( 'NONE',  ( 0.000000000000000000, 1.000000000000000000, 0.000000000000000000 ) ) ;
#210 = VECTOR ( 'NONE', #309, 39.37007874015748143 ) ;
#211 = UNCERTAINTY_MEASURE_WITH_UNIT (LENGTH_MEASURE( 1.000000000000000082E-05 ), #195, 'distance_accuracy_value', 'NONE');
#212 = PRESENTATION_STYLE_ASSIGNMENT (( #252 ) ) ;
#213 = SURFACE_STYLE_USAGE ( .BOTH. , #285 ) ;
#214 = CARTESIAN_POINT ( 'NONE',  ( 4.286263797015738074E-16, 2.500000000000000000, 0.000000000000000000 ) ) ;
#215 = UNCERTAINTY_MEASURE_WITH_UNIT (LENGTH_MEASURE( 1.000000000000000082E-05 ), #34, 'distance_accuracy_value', 'NONE');
#216 = COLOUR_RGB ( '',1.000000000000000000, 0.000000000000000000, 0.000000000000000000 ) ;
#217 =( GEOMETRIC_REPRESENTATION_CONTEXT ( 3 ) GLOBAL_UNCERTAINTY_ASSIGNED_CONTEXT ( ( #251 ) ) GLOBAL_UNIT_ASSIGNED_CONTEXT ( ( #72, #300, #226 ) ) REPRESENTATION_CONTEXT ( 'NONE', 'WORKASPACE' ) );
#218 = ADVANCED_FACE ( 'NONE', ( #123 ), #54, .F. ) ;
#219 = FILL_AREA_STYLE_COLOUR ( '', #275 ) ;
#220 = DIRECTION ( 'NONE',  ( -0.000000000000000000, -1.000000000000000000, -0.000000000000000000 ) ) ;
#221 =( NAMED_UNIT ( * ) SI_UNIT ( $, .STERADIAN. ) SOLID_ANGLE_UNIT ( ) );
#222 = FILL_AREA_STYLE_COLOUR ( '', #32 ) ;
#223 = MECHANICAL_DESIGN_GEOMETRIC_PRESENTATION_REPRESENTATION (  '', ( #173 ), #38 ) ;
#224 = SURFACE_STYLE_USAGE ( .BOTH. , #192 ) ;
#225 = DIRECTION ( 'NONE',  ( 0.000000000000000000, 0.000000000000000000, 1.000000000000000000 ) ) ;
#226 =( NAMED_UNIT ( * ) SI_UNIT ( $, .STERADIAN. ) SOLID_ANGLE_UNIT ( ) );
#227 = CARTESIAN_POINT ( 'NONE',  ( 7.654042494670959086E-18, 1.000000000000000000, 0.06250000000000001388 ) ) ;
#228 = ORIENTED_EDGE ( 'NONE', *, *, #180, .F. ) ;
#229 = CIRCLE ( 'NONE', #2, 0.06249999999999959061 ) ;
#230 = SURFACE_STYLE_FILL_AREA ( #131 ) ;
#231 = PRODUCT_RELATED_PRODUCT_CATEGORY ( 'part', '', ( #64 ) ) ;
#232 = ORIENTED_EDGE ( 'NONE', *, *, #46, .F. ) ;
#233 = SURFACE_STYLE_USAGE ( .BOTH. , #66 ) ;
#234 = ORIENTED_EDGE ( 'NONE', *, *, #77, .F. ) ;
#235 = FACE_OUTER_BOUND ( 'NONE', #133, .T. ) ;
#236 = APPLICATION_CONTEXT ( 'automotive_design' ) ;
#237 = APPLICATION_PROTOCOL_DEFINITION ( 'draft international standard', 'automotive_design', 1998, #236 ) ;
#238 = LENGTH_MEASURE_WITH_UNIT ( LENGTH_MEASURE( 0.02539999999999999897 ), #162 );
#239 = CARTESIAN_POINT ( 'NONE',  ( 0.000000000000000000, 0.000000000000000000, 0.000000000000000000 ) ) ;
#240 = PRESENTATION_STYLE_ASSIGNMENT (( #49 ) ) ;
#241 =( NAMED_UNIT ( * ) PLANE_ANGLE_UNIT ( ) SI_UNIT ( $, .RADIAN. ) );
#242 = COLOUR_RGB ( '',1.000000000000000000, 0.000000000000000000, 0.000000000000000000 ) ;
#243 = EDGE_CURVE ( 'NONE', #40, #298, #248, .T. ) ;
#244 = LENGTH_MEASURE_WITH_UNIT ( LENGTH_MEASURE( 0.02539999999999999897 ), #56 );
#245 = MANIFOLD_SOLID_BREP ( 'Revolve - Tool Body (Straight Shanked)', #91 ) ;
#246 =( GEOMETRIC_REPRESENTATION_CONTEXT ( 3 ) GLOBAL_UNCERTAINTY_ASSIGNED_CONTEXT ( ( #211 ) ) GLOBAL_UNIT_ASSIGNED_CONTEXT ( ( #195, #271, #4 ) ) REPRESENTATION_CONTEXT ( 'NONE', 'WORKASPACE' ) );
#247 = LENGTH_MEASURE_WITH_UNIT ( LENGTH_MEASURE( 0.02539999999999999897 ), #130 );
#248 = LINE ( 'NONE', #36, #63 ) ;
#249 = AXIS2_PLACEMENT_3D ( 'NONE', #12, #158, #196 ) ;
#250 = CARTESIAN_POINT ( 'NONE',  ( -6.065921084684207584E-32, 1.000000000000000000, 0.000000000000000000 ) ) ;
#251 = UNCERTAINTY_MEASURE_WITH_UNIT (LENGTH_MEASURE( 1.000000000000000082E-05 ), #72, 'distance_accuracy_value', 'NONE');
#252 = SURFACE_STYLE_USAGE ( .BOTH. , #165 ) ;
#253 = EDGE_CURVE ( 'NONE', #85, #60, #75, .T. ) ;
#254 = DIRECTION ( 'NONE',  ( -1.000000000000000000, 0.000000000000000000, 0.000000000000000000 ) ) ;
#255 = CARTESIAN_POINT ( 'NONE',  ( -0.06250000000000001388, 1.000000000000000000, 0.000000000000000000 ) ) ;
#256 = MANIFOLD_SOLID_BREP ( 'Revolve - Cutting Edge', #307 ) ;
#257 = AXIS2_PLACEMENT_3D ( 'NONE', #61, #225, #193 ) ;
#258 = CARTESIAN_POINT ( 'NONE',  ( 4.286263797015738074E-16, 2.500000000000000000, 0.000000000000000000 ) ) ;
#259 = FACE_OUTER_BOUND ( 'NONE', #200, .T. ) ;
#260 = UNCERTAINTY_MEASURE_WITH_UNIT (LENGTH_MEASURE( 1.000000000000000082E-05 ), #301, 'distance_accuracy_value', 'NONE');
#261 = AXIS2_PLACEMENT_3D ( 'NONE', #80, #31, #57 ) ;
#262 = DIRECTION ( 'NONE',  ( 2.857509198010492214E-16, 1.000000000000000000, -0.000000000000000000 ) ) ;
#263 = ORIENTED_EDGE ( 'NONE', *, *, #270, .T. ) ;
#264 = EDGE_CURVE ( 'NONE', #163, #126, #166, .T. ) ;
#265 = ADVANCED_BREP_SHAPE_REPRESENTATION ( '84685', ( #256, #245, #257 ), #160 ) ;
#266 = CARTESIAN_POINT ( 'NONE',  ( -6.065921084684207584E-32, 1.000000000000000000, 0.000000000000000000 ) ) ;
#267 =( NAMED_UNIT ( * ) PLANE_ANGLE_UNIT ( ) SI_UNIT ( $, .RADIAN. ) );
#268 = DIRECTION ( 'NONE',  ( 1.000000000000000000, -2.857509198010492214E-16, 0.000000000000000000 ) ) ;
#269 = STYLED_ITEM ( 'NONE', ( #7 ), #245 ) ;
#270 = EDGE_CURVE ( 'NONE', #60, #85, #41, .T. ) ;
#271 =( NAMED_UNIT ( * ) PLANE_ANGLE_UNIT ( ) SI_UNIT ( $, .RADIAN. ) );
#272 = ORIENTED_EDGE ( 'NONE', *, *, #46, .T. ) ;
#273 = AXIS2_PLACEMENT_3D ( 'NONE', #209, #15, #22 ) ;
#274 = CARTESIAN_POINT ( 'NONE',  ( 0.000000000000000000, 1.000000000000000000, -0.06250000000000001388 ) ) ;
#275 = COLOUR_RGB ( '',0.7921568627450980005, 0.8196078431372548767, 0.9333333333333333481 ) ;
#276 =( LENGTH_UNIT ( ) NAMED_UNIT ( * ) SI_UNIT ( $, .METRE. ) );
#277 = ORIENTED_EDGE ( 'NONE', *, *, #184, .F. ) ;
#278 = DIRECTION ( 'NONE',  ( 0.000000000000000000, -1.000000000000000000, -0.000000000000000000 ) ) ;
#279 = CARTESIAN_POINT ( 'NONE',  ( 7.654042494670959086E-18, 0.000000000000000000, 0.06250000000000001388 ) ) ;
#280 = DIRECTION ( 'NONE',  ( 0.000000000000000000, 0.000000000000000000, -1.000000000000000000 ) ) ;
#281 = DIRECTION ( 'NONE',  ( -0.000000000000000000, -1.000000000000000000, -0.000000000000000000 ) ) ;
#282 = PRESENTATION_LAYER_ASSIGNMENT (  '', '', ( #100 ) ) ;
#283 = AXIS2_PLACEMENT_3D ( 'NONE', #250, #185, #82 ) ;
#284 = DIRECTION ( 'NONE',  ( -0.000000000000000000, -1.000000000000000000, -0.000000000000000000 ) ) ;
#285 = SURFACE_SIDE_STYLE ('',( #181 ) ) ;
#286 = UNCERTAINTY_MEASURE_WITH_UNIT (LENGTH_MEASURE( 1.000000000000000082E-05 ), #98, 'distance_accuracy_value', 'NONE');
#287 = DIRECTION ( 'NONE',  ( 2.857509198010492214E-16, 1.000000000000000000, -0.000000000000000000 ) ) ;
#288 = CARTESIAN_POINT ( 'NONE',  ( 7.654042494670959086E-18, 0.000000000000000000, 0.06250000000000001388 ) ) ;
#289 = AXIS2_PLACEMENT_3D ( 'NONE', #170, #62, #128 ) ;
#290 = AXIS2_PLACEMENT_3D ( 'NONE', #187, #143, #254 ) ;
#291 = ADVANCED_FACE ( 'NONE', ( #119 ), #1, .T. ) ;
#292 =( NAMED_UNIT ( * ) SI_UNIT ( $, .STERADIAN. ) SOLID_ANGLE_UNIT ( ) );
#293 =( LENGTH_UNIT ( ) NAMED_UNIT ( * ) SI_UNIT ( $, .METRE. ) );
#294 = LINE ( 'NONE', #147, #5 ) ;
#295 = ADVANCED_FACE ( 'NONE', ( #148 ), #203, .T. ) ;
#296 = CIRCLE ( 'NONE', #249, 0.06250000000000001388 ) ;
#297 = FACE_OUTER_BOUND ( 'NONE', #302, .T. ) ;
#298 = VERTEX_POINT ( 'NONE', #108 ) ;
#299 = CIRCLE ( 'NONE', #26, 0.06250000000000001388 ) ;
#300 =( NAMED_UNIT ( * ) PLANE_ANGLE_UNIT ( ) SI_UNIT ( $, .RADIAN. ) );
#301 =( CONVERSION_BASED_UNIT ( 'INCH', #204 ) LENGTH_UNIT ( ) NAMED_UNIT ( #73 ) );
#302 = EDGE_LOOP ( 'NONE', ( #138, #129 ) ) ;
#303 = CARTESIAN_POINT ( 'NONE',  ( 0.000000000000000000, 0.000000000000000000, 0.000000000000000000 ) ) ;
#304 = EDGE_LOOP ( 'NONE', ( #207, #205, #197, #103 ) ) ;
#305 = CYLINDRICAL_SURFACE ( 'NONE', #261, 0.06250000000000001388 ) ;
#306 = ADVANCED_FACE ( 'NONE', ( #50 ), #79, .T. ) ;
#307 = CLOSED_SHELL ( 'NONE', ( #306, #295, #188, #141 ) ) ;
#308 = PRODUCT_DEFINITION_FORMATION_WITH_SPECIFIED_SOURCE ( 'ANY', '', #64, .NOT_KNOWN. ) ;
#309 = DIRECTION ( 'NONE',  ( -0.000000000000000000, -1.000000000000000000, -0.000000000000000000 ) ) ;
ENDSEC;
END-ISO-10303-21;
