ISO-10303-21;
HEADER;
FILE_DESCRIPTION (( 'STEP AP214' ),
    '1' );
FILE_NAME ('03157.STEP',
    '2023-06-22T14:59:27',
    ( '' ),
    ( '' ),
    'SwSTEP 2.0',
    'SolidWorks 2023',
    '' );
FILE_SCHEMA (( 'AUTOMOTIVE_DESIGN' ));
ENDSEC;

DATA;
#1 = DIMENSIONAL_EXPONENTS ( 1.000000000000000000, 0.000000000000000000, 0.000000000000000000, 0.000000000000000000, 0.000000000000000000, 0.000000000000000000, 0.000000000000000000 ) ;
#2 = AXIS2_PLACEMENT_3D ( 'NONE', #44, #46, #226 ) ;
#3 = DIRECTION ( 'NONE',  ( -1.000000000000000000, 0.000000000000000000, 0.000000000000000000 ) ) ;
#4 = ADVANCED_FACE ( 'NONE', ( #190 ), #27, .T. ) ;
#5 = DIRECTION ( 'NONE',  ( -0.000000000000000000, -1.000000000000000000, -0.000000000000000000 ) ) ;
#6 = COLOUR_RGB ( '',1.000000000000000000, 0.000000000000000000, 0.000000000000000000 ) ;
#7 = FILL_AREA_STYLE_COLOUR ( '', #289 ) ;
#8 = ADVANCED_BREP_SHAPE_REPRESENTATION ( '03157', ( #112, #234, #198 ), #245 ) ;
#9 = CYLINDRICAL_SURFACE ( 'NONE', #182, 0.1250000000000000278 ) ;
#10 = UNCERTAINTY_MEASURE_WITH_UNIT (LENGTH_MEASURE( 1.000000000000000082E-05 ), #136, 'distance_accuracy_value', 'NONE');
#11 = LENGTH_MEASURE_WITH_UNIT ( LENGTH_MEASURE( 0.02539999999999999897 ), #197 );
#12 = CARTESIAN_POINT ( 'NONE',  ( 0.000000000000000000, 0.5000000000000001110, 0.000000000000000000 ) ) ;
#13 = ADVANCED_FACE ( 'NONE', ( #229 ), #30, .T. ) ;
#14 = DIRECTION ( 'NONE',  ( 0.000000000000000000, 0.000000000000000000, -1.000000000000000000 ) ) ;
#15 = LENGTH_MEASURE_WITH_UNIT ( LENGTH_MEASURE( 0.02539999999999999897 ), #171 );
#16 =( NAMED_UNIT ( * ) SI_UNIT ( $, .STERADIAN. ) SOLID_ANGLE_UNIT ( ) );
#17 = DIRECTION ( 'NONE',  ( -0.000000000000000000, -1.000000000000000000, -0.000000000000000000 ) ) ;
#18 = AXIS2_PLACEMENT_3D ( 'NONE', #195, #201, #66 ) ;
#19 =( NAMED_UNIT ( * ) PLANE_ANGLE_UNIT ( ) SI_UNIT ( $, .RADIAN. ) );
#20 = ORIENTED_EDGE ( 'NONE', *, *, #285, .F. ) ;
#21 = CARTESIAN_POINT ( 'NONE',  ( 0.1250000000000000000, 0.5000000000000001110, 1.530808498934192125E-17 ) ) ;
#22 = ORIENTED_EDGE ( 'NONE', *, *, #251, .T. ) ;
#23 = VECTOR ( 'NONE', #59, 39.37007874015748143 ) ;
#24 =( NAMED_UNIT ( * ) SI_UNIT ( $, .STERADIAN. ) SOLID_ANGLE_UNIT ( ) );
#25 =( GEOMETRIC_REPRESENTATION_CONTEXT ( 3 ) GLOBAL_UNCERTAINTY_ASSIGNED_CONTEXT ( ( #238 ) ) GLOBAL_UNIT_ASSIGNED_CONTEXT ( ( #64, #298, #61 ) ) REPRESENTATION_CONTEXT ( 'NONE', 'WORKASPACE' ) );
#26 = EDGE_LOOP ( 'NONE', ( #183, #20 ) ) ;
#27 = CYLINDRICAL_SURFACE ( 'NONE', #185, 0.1250000000000000000 ) ;
#28 = SHAPE_DEFINITION_REPRESENTATION ( #210, #8 ) ;
#29 = EDGE_CURVE ( 'NONE', #179, #126, #51, .T. ) ;
#30 = PLANE ( 'NONE',  #299 ) ;
#31 = VECTOR ( 'NONE', #39, 39.37007874015748143 ) ;
#32 = UNCERTAINTY_MEASURE_WITH_UNIT (LENGTH_MEASURE( 1.000000000000000082E-05 ), #157, 'distance_accuracy_value', 'NONE');
#33 = CIRCLE ( 'NONE', #92, 0.1250000000000000555 ) ;
#34 = CARTESIAN_POINT ( 'NONE',  ( 0.1250000000000000000, 2.500000000000000000, 1.530808498934192125E-17 ) ) ;
#35 = STYLED_ITEM ( 'NONE', ( #79 ), #95 ) ;
#36 = DIRECTION ( 'NONE',  ( -3.061616997868383018E-17, 1.000000000000000000, -0.000000000000000000 ) ) ;
#37 = DIRECTION ( 'NONE',  ( 0.000000000000000000, 0.000000000000000000, -1.000000000000000000 ) ) ;
#38 = SURFACE_STYLE_FILL_AREA ( #215 ) ;
#39 = DIRECTION ( 'NONE',  ( -0.000000000000000000, -1.000000000000000000, -0.000000000000000000 ) ) ;
#40 = VECTOR ( 'NONE', #148, 39.37007874015748143 ) ;
#41 = PRESENTATION_LAYER_ASSIGNMENT (  '', '', ( #35 ) ) ;
#42 = DIRECTION ( 'NONE',  ( -1.000000000000000000, 0.000000000000000000, 0.000000000000000000 ) ) ;
#43 = DIRECTION ( 'NONE',  ( 0.000000000000000000, -1.000000000000000000, -0.000000000000000000 ) ) ;
#44 = CARTESIAN_POINT ( 'NONE',  ( 0.1249999999999999861, 2.500000000000000000, 0.000000000000000000 ) ) ;
#45 =( NAMED_UNIT ( * ) PLANE_ANGLE_UNIT ( ) SI_UNIT ( $, .RADIAN. ) );
#46 = DIRECTION ( 'NONE',  ( 3.061616997868383018E-17, -1.000000000000000000, 0.000000000000000000 ) ) ;
#47 =( GEOMETRIC_REPRESENTATION_CONTEXT ( 3 ) GLOBAL_UNCERTAINTY_ASSIGNED_CONTEXT ( ( #104 ) ) GLOBAL_UNIT_ASSIGNED_CONTEXT ( ( #103, #57, #253 ) ) REPRESENTATION_CONTEXT ( 'NONE', 'WORKASPACE' ) );
#48 = SURFACE_STYLE_USAGE ( .BOTH. , #266 ) ;
#49 = VERTEX_POINT ( 'NONE', #176 ) ;
#50 = ORIENTED_EDGE ( 'NONE', *, *, #120, .F. ) ;
#51 = CIRCLE ( 'NONE', #18, 0.1250000000000000555 ) ;
#52 = PRODUCT_DEFINITION_FORMATION_WITH_SPECIFIED_SOURCE ( 'ANY', '', #72, .NOT_KNOWN. ) ;
#53 = VERTEX_POINT ( 'NONE', #154 ) ;
#54 = CIRCLE ( 'NONE', #281, 0.1249999999999999861 ) ;
#55 = DIRECTION ( 'NONE',  ( 1.000000000000000000, 0.000000000000000000, 0.000000000000000000 ) ) ;
#56 = UNCERTAINTY_MEASURE_WITH_UNIT (LENGTH_MEASURE( 1.000000000000000082E-05 ), #118, 'distance_accuracy_value', 'NONE');
#57 =( NAMED_UNIT ( * ) PLANE_ANGLE_UNIT ( ) SI_UNIT ( $, .RADIAN. ) );
#58 = DIMENSIONAL_EXPONENTS ( 1.000000000000000000, 0.000000000000000000, 0.000000000000000000, 0.000000000000000000, 0.000000000000000000, 0.000000000000000000, 0.000000000000000000 ) ;
#59 = DIRECTION ( 'NONE',  ( -0.000000000000000000, -1.000000000000000000, -0.000000000000000000 ) ) ;
#60 = DIRECTION ( 'NONE',  ( 0.000000000000000000, 0.000000000000000000, -1.000000000000000000 ) ) ;
#61 =( NAMED_UNIT ( * ) SI_UNIT ( $, .STERADIAN. ) SOLID_ANGLE_UNIT ( ) );
#62 = PRESENTATION_STYLE_ASSIGNMENT (( #135 ) ) ;
#63 = MECHANICAL_DESIGN_GEOMETRIC_PRESENTATION_REPRESENTATION (  '', ( #151 ), #99 ) ;
#64 =( CONVERSION_BASED_UNIT ( 'INCH', #11 ) LENGTH_UNIT ( ) NAMED_UNIT ( #73 ) );
#65 = LENGTH_MEASURE_WITH_UNIT ( LENGTH_MEASURE( 0.02539999999999999897 ), #81 );
#66 = DIRECTION ( 'NONE',  ( -1.000000000000000000, 0.000000000000000000, 0.000000000000000000 ) ) ;
#67 = ORIENTED_EDGE ( 'NONE', *, *, #101, .T. ) ;
#68 = ORIENTED_EDGE ( 'NONE', *, *, #207, .F. ) ;
#69 = VECTOR ( 'NONE', #36, 39.37007874015748143 ) ;
#70 = VERTEX_POINT ( 'NONE', #21 ) ;
#71 = PRODUCT_CONTEXT ( 'NONE', #98, 'mechanical' ) ;
#72 = PRODUCT ( '03157', '03157', '', ( #71 ) ) ;
#73 = DIMENSIONAL_EXPONENTS ( 1.000000000000000000, 0.000000000000000000, 0.000000000000000000, 0.000000000000000000, 0.000000000000000000, 0.000000000000000000, 0.000000000000000000 ) ;
#74 = AXIS2_PLACEMENT_3D ( 'NONE', #256, #43, #37 ) ;
#75 = LINE ( 'NONE', #269, #69 ) ;
#76 = FACE_OUTER_BOUND ( 'NONE', #265, .T. ) ;
#77 = ADVANCED_FACE ( 'NONE', ( #228 ), #9, .T. ) ;
#78 = CARTESIAN_POINT ( 'NONE',  ( 0.000000000000000000, 0.000000000000000000, -0.1250000000000000000 ) ) ;
#79 = PRESENTATION_STYLE_ASSIGNMENT (( #143 ) ) ;
#80 = FILL_AREA_STYLE_COLOUR ( '', #184 ) ;
#81 =( LENGTH_UNIT ( ) NAMED_UNIT ( * ) SI_UNIT ( $, .METRE. ) );
#82 =( NAMED_UNIT ( * ) PLANE_ANGLE_UNIT ( ) SI_UNIT ( $, .RADIAN. ) );
#83 = APPLICATION_CONTEXT ( 'automotive_design' ) ;
#84 = SURFACE_STYLE_FILL_AREA ( #297 ) ;
#85 = FILL_AREA_STYLE ('',( #7 ) ) ;
#86 = STYLED_ITEM ( 'NONE', ( #200 ), #13 ) ;
#87 = SURFACE_STYLE_FILL_AREA ( #114 ) ;
#88 =( LENGTH_UNIT ( ) NAMED_UNIT ( * ) SI_UNIT ( $, .METRE. ) );
#89 = DIRECTION ( 'NONE',  ( 0.000000000000000000, 1.000000000000000000, 0.000000000000000000 ) ) ;
#90 = EDGE_LOOP ( 'NONE', ( #67, #230 ) ) ;
#91 = ORIENTED_EDGE ( 'NONE', *, *, #29, .F. ) ;
#92 = AXIS2_PLACEMENT_3D ( 'NONE', #191, #138, #254 ) ;
#93 = STYLED_ITEM ( 'NONE', ( #205 ), #4 ) ;
#94 = SURFACE_SIDE_STYLE ('',( #87 ) ) ;
#95 = ADVANCED_FACE ( 'NONE', ( #146 ), #111, .T. ) ;
#96 = VERTEX_POINT ( 'NONE', #261 ) ;
#97 = PRESENTATION_LAYER_ASSIGNMENT (  '', '', ( #86 ) ) ;
#98 = APPLICATION_CONTEXT ( 'automotive_design' ) ;
#99 =( GEOMETRIC_REPRESENTATION_CONTEXT ( 3 ) GLOBAL_UNCERTAINTY_ASSIGNED_CONTEXT ( ( #10 ) ) GLOBAL_UNIT_ASSIGNED_CONTEXT ( ( #136, #19, #222 ) ) REPRESENTATION_CONTEXT ( 'NONE', 'WORKASPACE' ) );
#100 =( GEOMETRIC_REPRESENTATION_CONTEXT ( 3 ) GLOBAL_UNCERTAINTY_ASSIGNED_CONTEXT ( ( #56 ) ) GLOBAL_UNIT_ASSIGNED_CONTEXT ( ( #118, #249, #145 ) ) REPRESENTATION_CONTEXT ( 'NONE', 'WORKASPACE' ) );
#101 = EDGE_CURVE ( 'NONE', #96, #264, #259, .T. ) ;
#102 = CARTESIAN_POINT ( 'NONE',  ( 0.000000000000000000, 0.5000000000000000000, 0.000000000000000000 ) ) ;
#103 =( CONVERSION_BASED_UNIT ( 'INCH', #173 ) LENGTH_UNIT ( ) NAMED_UNIT ( #239 ) );
#104 = UNCERTAINTY_MEASURE_WITH_UNIT (LENGTH_MEASURE( 1.000000000000000082E-05 ), #103, 'distance_accuracy_value', 'NONE');
#105 = LINE ( 'NONE', #78, #23 ) ;
#106 = DIRECTION ( 'NONE',  ( 0.000000000000000000, 0.000000000000000000, -1.000000000000000000 ) ) ;
#107 = SURFACE_SIDE_STYLE ('',( #194 ) ) ;
#108 = CARTESIAN_POINT ( 'NONE',  ( -6.123233995736766036E-17, 2.500000000000000000, 0.000000000000000000 ) ) ;
#109 = LENGTH_MEASURE_WITH_UNIT ( LENGTH_MEASURE( 0.02539999999999999897 ), #88 );
#110 = CARTESIAN_POINT ( 'NONE',  ( -0.1250000000000001110, 2.500000000000000000, 0.000000000000000000 ) ) ;
#111 = PLANE ( 'NONE',  #74 ) ;
#112 = MANIFOLD_SOLID_BREP ( 'Revolve - Cutting Edge', #243 ) ;
#113 = DIRECTION ( 'NONE',  ( -1.000000000000000000, 0.000000000000000000, 0.000000000000000000 ) ) ;
#114 = FILL_AREA_STYLE ('',( #304 ) ) ;
#115 = AXIS2_PLACEMENT_3D ( 'NONE', #241, #5, #106 ) ;
#116 = DIRECTION ( 'NONE',  ( 0.000000000000000000, 0.000000000000000000, -1.000000000000000000 ) ) ;
#117 = ORIENTED_EDGE ( 'NONE', *, *, #134, .T. ) ;
#118 =( CONVERSION_BASED_UNIT ( 'INCH', #247 ) LENGTH_UNIT ( ) NAMED_UNIT ( #1 ) );
#119 = CARTESIAN_POINT ( 'NONE',  ( 0.000000000000000000, 0.000000000000000000, 0.000000000000000000 ) ) ;
#120 = EDGE_CURVE ( 'NONE', #70, #126, #75, .T. ) ;
#121 = ORIENTED_EDGE ( 'NONE', *, *, #251, .F. ) ;
#122 = CIRCLE ( 'NONE', #180, 0.1249999999999999861 ) ;
#123 = AXIS2_PLACEMENT_3D ( 'NONE', #137, #147, #14 ) ;
#124 = SURFACE_STYLE_USAGE ( .BOTH. , #94 ) ;
#125 = ORIENTED_EDGE ( 'NONE', *, *, #163, .F. ) ;
#126 = VERTEX_POINT ( 'NONE', #34 ) ;
#127 = COLOUR_RGB ( '',1.000000000000000000, 0.000000000000000000, 0.000000000000000000 ) ;
#128 = DIRECTION ( 'NONE',  ( 0.000000000000000000, 0.000000000000000000, 1.000000000000000000 ) ) ;
#129 = SURFACE_SIDE_STYLE ('',( #84 ) ) ;
#130 = DIMENSIONAL_EXPONENTS ( 1.000000000000000000, 0.000000000000000000, 0.000000000000000000, 0.000000000000000000, 0.000000000000000000, 0.000000000000000000, 0.000000000000000000 ) ;
#131 = SURFACE_STYLE_FILL_AREA ( #169 ) ;
#132 = COLOUR_RGB ( '',1.000000000000000000, 0.000000000000000000, 0.000000000000000000 ) ;
#133 = CYLINDRICAL_SURFACE ( 'NONE', #115, 0.1250000000000000000 ) ;
#134 = EDGE_CURVE ( 'NONE', #49, #53, #170, .T. ) ;
#135 = SURFACE_STYLE_USAGE ( .BOTH. , #296 ) ;
#136 =( CONVERSION_BASED_UNIT ( 'INCH', #15 ) LENGTH_UNIT ( ) NAMED_UNIT ( #130 ) );
#137 = CARTESIAN_POINT ( 'NONE',  ( 0.000000000000000000, 0.000000000000000000, 0.000000000000000000 ) ) ;
#138 = DIRECTION ( 'NONE',  ( -3.061616997868383018E-17, 1.000000000000000000, -0.000000000000000000 ) ) ;
#139 = DIRECTION ( 'NONE',  ( 0.000000000000000000, -0.000000000000000000, 1.000000000000000000 ) ) ;
#140 = PRESENTATION_LAYER_ASSIGNMENT (  '', '', ( #151 ) ) ;
#141 = LINE ( 'NONE', #193, #40 ) ;
#142 = MECHANICAL_DESIGN_GEOMETRIC_PRESENTATION_REPRESENTATION (  '', ( #86 ), #100 ) ;
#143 = SURFACE_STYLE_USAGE ( .BOTH. , #129 ) ;
#144 = CARTESIAN_POINT ( 'NONE',  ( -0.1249999999999999861, 0.5000000000000001110, 0.000000000000000000 ) ) ;
#145 =( NAMED_UNIT ( * ) SI_UNIT ( $, .STERADIAN. ) SOLID_ANGLE_UNIT ( ) );
#146 = FACE_OUTER_BOUND ( 'NONE', #90, .T. ) ;
#147 = DIRECTION ( 'NONE',  ( -0.000000000000000000, -1.000000000000000000, -0.000000000000000000 ) ) ;
#148 = DIRECTION ( 'NONE',  ( -3.061616997868383018E-17, 1.000000000000000000, -0.000000000000000000 ) ) ;
#149 = EDGE_CURVE ( 'NONE', #206, #70, #209, .T. ) ;
#150 =( NAMED_UNIT ( * ) PLANE_ANGLE_UNIT ( ) SI_UNIT ( $, .RADIAN. ) );
#151 = STYLED_ITEM ( 'NONE', ( #260 ), #234 ) ;
#152 = SURFACE_SIDE_STYLE ('',( #300 ) ) ;
#153 = MECHANICAL_DESIGN_GEOMETRIC_PRESENTATION_REPRESENTATION (  '', ( #93 ), #237 ) ;
#154 = CARTESIAN_POINT ( 'NONE',  ( 0.000000000000000000, 0.5000000000000000000, -0.1249999999999999861 ) ) ;
#155 = ADVANCED_FACE ( 'NONE', ( #76 ), #164, .T. ) ;
#156 = ORIENTED_EDGE ( 'NONE', *, *, #163, .T. ) ;
#157 =( CONVERSION_BASED_UNIT ( 'INCH', #306 ) LENGTH_UNIT ( ) NAMED_UNIT ( #288 ) );
#158 = SURFACE_STYLE_USAGE ( .BOTH. , #152 ) ;
#159 =( LENGTH_UNIT ( ) NAMED_UNIT ( * ) SI_UNIT ( $, .METRE. ) );
#160 = EDGE_LOOP ( 'NONE', ( #121, #117, #156, #227 ) ) ;
#161 = CIRCLE ( 'NONE', #181, 0.1250000000000000000 ) ;
#162 = APPLICATION_PROTOCOL_DEFINITION ( 'draft international standard', 'automotive_design', 1998, #98 ) ;
#163 = EDGE_CURVE ( 'NONE', #53, #96, #105, .T. ) ;
#164 = CYLINDRICAL_SURFACE ( 'NONE', #242, 0.1250000000000000278 ) ;
#165 = DIRECTION ( 'NONE',  ( -1.000000000000000000, 0.000000000000000000, 0.000000000000000000 ) ) ;
#166 = FILL_AREA_STYLE_COLOUR ( '', #6 ) ;
#167 =( LENGTH_UNIT ( ) NAMED_UNIT ( * ) SI_UNIT ( $, .METRE. ) );
#168 = FACE_OUTER_BOUND ( 'NONE', #26, .T. ) ;
#169 = FILL_AREA_STYLE ('',( #166 ) ) ;
#170 = CIRCLE ( 'NONE', #252, 0.1249999999999999861 ) ;
#171 =( LENGTH_UNIT ( ) NAMED_UNIT ( * ) SI_UNIT ( $, .METRE. ) );
#172 = STYLED_ITEM ( 'NONE', ( #275 ), #112 ) ;
#173 = LENGTH_MEASURE_WITH_UNIT ( LENGTH_MEASURE( 0.02539999999999999897 ), #167 );
#174 = DIRECTION ( 'NONE',  ( -3.061616997868383018E-17, 1.000000000000000000, 0.000000000000000000 ) ) ;
#175 =( CONVERSION_BASED_UNIT ( 'INCH', #65 ) LENGTH_UNIT ( ) NAMED_UNIT ( #188 ) );
#176 = CARTESIAN_POINT ( 'NONE',  ( 1.530808498934191201E-17, 0.5000000000000000000, 0.1249999999999999861 ) ) ;
#177 = PRODUCT_DEFINITION ( 'UNKNOWN', '', #52, #199 ) ;
#178 = CARTESIAN_POINT ( 'NONE',  ( 0.000000000000000000, 0.5000000000000000000, 0.000000000000000000 ) ) ;
#179 = VERTEX_POINT ( 'NONE', #110 ) ;
#180 = AXIS2_PLACEMENT_3D ( 'NONE', #12, #295, #113 ) ;
#181 = AXIS2_PLACEMENT_3D ( 'NONE', #214, #220, #216 ) ;
#182 = AXIS2_PLACEMENT_3D ( 'NONE', #108, #258, #42 ) ;
#183 = ORIENTED_EDGE ( 'NONE', *, *, #149, .F. ) ;
#184 = COLOUR_RGB ( '',0.7921568627450980005, 0.8196078431372548767, 0.9333333333333333481 ) ;
#185 = AXIS2_PLACEMENT_3D ( 'NONE', #119, #17, #116 ) ;
#186 = DIRECTION ( 'NONE',  ( -0.000000000000000000, -1.000000000000000000, -0.000000000000000000 ) ) ;
#187 = CARTESIAN_POINT ( 'NONE',  ( -6.123233995736766036E-17, 2.500000000000000000, 0.000000000000000000 ) ) ;
#188 = DIMENSIONAL_EXPONENTS ( 1.000000000000000000, 0.000000000000000000, 0.000000000000000000, 0.000000000000000000, 0.000000000000000000, 0.000000000000000000, 0.000000000000000000 ) ;
#189 = PRODUCT_RELATED_PRODUCT_CATEGORY ( 'part', '', ( #72 ) ) ;
#190 = FACE_OUTER_BOUND ( 'NONE', #160, .T. ) ;
#191 = CARTESIAN_POINT ( 'NONE',  ( -6.123233995736766036E-17, 2.500000000000000000, 0.000000000000000000 ) ) ;
#192 = MECHANICAL_DESIGN_GEOMETRIC_PRESENTATION_REPRESENTATION (  '', ( #267 ), #47 ) ;
#193 = CARTESIAN_POINT ( 'NONE',  ( -0.1250000000000000833, 2.500000000000000000, 0.000000000000000000 ) ) ;
#194 = SURFACE_STYLE_FILL_AREA ( #85 ) ;
#195 = CARTESIAN_POINT ( 'NONE',  ( -6.123233995736766036E-17, 2.500000000000000000, 0.000000000000000000 ) ) ;
#196 = CARTESIAN_POINT ( 'NONE',  ( 1.530808498934191509E-17, 0.000000000000000000, 0.1250000000000000000 ) ) ;
#197 =( LENGTH_UNIT ( ) NAMED_UNIT ( * ) SI_UNIT ( $, .METRE. ) );
#198 = AXIS2_PLACEMENT_3D ( 'NONE', #236, #128, #55 ) ;
#199 = PRODUCT_DEFINITION_CONTEXT ( 'detailed design', #83, 'design' ) ;
#200 = PRESENTATION_STYLE_ASSIGNMENT (( #124 ) ) ;
#201 = DIRECTION ( 'NONE',  ( -3.061616997868383018E-17, 1.000000000000000000, -0.000000000000000000 ) ) ;
#202 = AXIS2_PLACEMENT_3D ( 'NONE', #217, #174, #262 ) ;
#203 = ORIENTED_EDGE ( 'NONE', *, *, #149, .T. ) ;
#204 = EDGE_LOOP ( 'NONE', ( #203, #248, #91, #208 ) ) ;
#205 = PRESENTATION_STYLE_ASSIGNMENT (( #48 ) ) ;
#206 = VERTEX_POINT ( 'NONE', #144 ) ;
#207 = EDGE_CURVE ( 'NONE', #126, #179, #33, .T. ) ;
#208 = ORIENTED_EDGE ( 'NONE', *, *, #308, .F. ) ;
#209 = CIRCLE ( 'NONE', #277, 0.1249999999999999861 ) ;
#210 = PRODUCT_DEFINITION_SHAPE ( 'NONE', 'NONE',  #177 ) ;
#211 = PRESENTATION_LAYER_ASSIGNMENT (  '', '', ( #267 ) ) ;
#212 = PRESENTATION_LAYER_ASSIGNMENT (  '', '', ( #172 ) ) ;
#213 = ORIENTED_EDGE ( 'NONE', *, *, #29, .T. ) ;
#214 = CARTESIAN_POINT ( 'NONE',  ( 0.000000000000000000, 0.000000000000000000, 0.000000000000000000 ) ) ;
#215 = FILL_AREA_STYLE ('',( #257 ) ) ;
#216 = DIRECTION ( 'NONE',  ( 0.000000000000000000, 0.000000000000000000, -1.000000000000000000 ) ) ;
#217 = CARTESIAN_POINT ( 'NONE',  ( 5.858436651022881281E-35, 0.5000000000000000000, 0.000000000000000000 ) ) ;
#218 = ADVANCED_FACE ( 'NONE', ( #276 ), #133, .T. ) ;
#219 = UNCERTAINTY_MEASURE_WITH_UNIT (LENGTH_MEASURE( 1.000000000000000082E-05 ), #273, 'distance_accuracy_value', 'NONE');
#220 = DIRECTION ( 'NONE',  ( -0.000000000000000000, -1.000000000000000000, -0.000000000000000000 ) ) ;
#221 = FILL_AREA_STYLE_COLOUR ( '', #127 ) ;
#222 =( NAMED_UNIT ( * ) SI_UNIT ( $, .STERADIAN. ) SOLID_ANGLE_UNIT ( ) );
#223 = LINE ( 'NONE', #255, #31 ) ;
#224 = MECHANICAL_DESIGN_GEOMETRIC_PRESENTATION_REPRESENTATION (  '', ( #172 ), #303 ) ;
#225 = EDGE_CURVE ( 'NONE', #264, #96, #161, .T. ) ;
#226 = DIRECTION ( 'NONE',  ( 1.000000000000000000, 3.061616997868383018E-17, 0.000000000000000000 ) ) ;
#227 = ORIENTED_EDGE ( 'NONE', *, *, #225, .F. ) ;
#228 = FACE_OUTER_BOUND ( 'NONE', #204, .T. ) ;
#229 = FACE_OUTER_BOUND ( 'NONE', #233, .T. ) ;
#230 = ORIENTED_EDGE ( 'NONE', *, *, #225, .T. ) ;
#231 =( NAMED_UNIT ( * ) SI_UNIT ( $, .STERADIAN. ) SOLID_ANGLE_UNIT ( ) );
#232 = EDGE_CURVE ( 'NONE', #53, #49, #54, .T. ) ;
#233 = EDGE_LOOP ( 'NONE', ( #284, #283 ) ) ;
#234 = MANIFOLD_SOLID_BREP ( 'Revolve - Tool Body (Straight Shanked)', #278 ) ;
#235 = ORIENTED_EDGE ( 'NONE', *, *, #207, .T. ) ;
#236 = CARTESIAN_POINT ( 'NONE',  ( 0.000000000000000000, 0.000000000000000000, 0.000000000000000000 ) ) ;
#237 =( GEOMETRIC_REPRESENTATION_CONTEXT ( 3 ) GLOBAL_UNCERTAINTY_ASSIGNED_CONTEXT ( ( #32 ) ) GLOBAL_UNIT_ASSIGNED_CONTEXT ( ( #157, #45, #231 ) ) REPRESENTATION_CONTEXT ( 'NONE', 'WORKASPACE' ) );
#238 = UNCERTAINTY_MEASURE_WITH_UNIT (LENGTH_MEASURE( 1.000000000000000082E-05 ), #64, 'distance_accuracy_value', 'NONE');
#239 = DIMENSIONAL_EXPONENTS ( 1.000000000000000000, 0.000000000000000000, 0.000000000000000000, 0.000000000000000000, 0.000000000000000000, 0.000000000000000000, 0.000000000000000000 ) ;
#240 = CARTESIAN_POINT ( 'NONE',  ( 0.000000000000000000, 0.5000000000000001110, 0.000000000000000000 ) ) ;
#241 = CARTESIAN_POINT ( 'NONE',  ( 0.000000000000000000, 0.000000000000000000, 0.000000000000000000 ) ) ;
#242 = AXIS2_PLACEMENT_3D ( 'NONE', #187, #270, #3 ) ;
#243 = CLOSED_SHELL ( 'NONE', ( #218, #13, #4, #95 ) ) ;
#244 = ADVANCED_FACE ( 'NONE', ( #168 ), #293, .F. ) ;
#245 =( GEOMETRIC_REPRESENTATION_CONTEXT ( 3 ) GLOBAL_UNCERTAINTY_ASSIGNED_CONTEXT ( ( #219 ) ) GLOBAL_UNIT_ASSIGNED_CONTEXT ( ( #273, #82, #24 ) ) REPRESENTATION_CONTEXT ( 'NONE', 'WORKASPACE' ) );
#246 = FACE_OUTER_BOUND ( 'NONE', #280, .T. ) ;
#247 = LENGTH_MEASURE_WITH_UNIT ( LENGTH_MEASURE( 0.02539999999999999897 ), #279 );
#248 = ORIENTED_EDGE ( 'NONE', *, *, #120, .T. ) ;
#249 =( NAMED_UNIT ( * ) PLANE_ANGLE_UNIT ( ) SI_UNIT ( $, .RADIAN. ) );
#250 = APPLICATION_PROTOCOL_DEFINITION ( 'draft international standard', 'automotive_design', 1998, #83 ) ;
#251 = EDGE_CURVE ( 'NONE', #49, #264, #223, .T. ) ;
#252 = AXIS2_PLACEMENT_3D ( 'NONE', #102, #186, #271 ) ;
#253 =( NAMED_UNIT ( * ) SI_UNIT ( $, .STERADIAN. ) SOLID_ANGLE_UNIT ( ) );
#254 = DIRECTION ( 'NONE',  ( -1.000000000000000000, 0.000000000000000000, 0.000000000000000000 ) ) ;
#255 = CARTESIAN_POINT ( 'NONE',  ( 1.530808498934191509E-17, 0.000000000000000000, 0.1250000000000000000 ) ) ;
#256 = CARTESIAN_POINT ( 'NONE',  ( 0.000000000000000000, 0.000000000000000000, 0.000000000000000000 ) ) ;
#257 = FILL_AREA_STYLE_COLOUR ( '', #132 ) ;
#258 = DIRECTION ( 'NONE',  ( -3.061616997868383018E-17, 1.000000000000000000, -0.000000000000000000 ) ) ;
#259 = CIRCLE ( 'NONE', #123, 0.1250000000000000000 ) ;
#260 = PRESENTATION_STYLE_ASSIGNMENT (( #158 ) ) ;
#261 = CARTESIAN_POINT ( 'NONE',  ( 0.000000000000000000, 0.000000000000000000, -0.1250000000000000000 ) ) ;
#262 = DIRECTION ( 'NONE',  ( -1.000000000000000000, -3.061616997868383018E-17, 0.000000000000000000 ) ) ;
#263 = PLANE ( 'NONE',  #2 ) ;
#264 = VERTEX_POINT ( 'NONE', #196 ) ;
#265 = EDGE_LOOP ( 'NONE', ( #50, #307, #305, #68 ) ) ;
#266 = SURFACE_SIDE_STYLE ('',( #38 ) ) ;
#267 = STYLED_ITEM ( 'NONE', ( #62 ), #218 ) ;
#268 = PRESENTATION_LAYER_ASSIGNMENT (  '', '', ( #93 ) ) ;
#269 = CARTESIAN_POINT ( 'NONE',  ( 0.1249999999999999445, 2.500000000000000000, 1.530808498934191817E-17 ) ) ;
#270 = DIRECTION ( 'NONE',  ( -3.061616997868383018E-17, 1.000000000000000000, -0.000000000000000000 ) ) ;
#271 = DIRECTION ( 'NONE',  ( 0.000000000000000000, 0.000000000000000000, -1.000000000000000000 ) ) ;
#272 = CARTESIAN_POINT ( 'NONE',  ( 0.000000000000000000, 0.5000000000000000000, 0.000000000000000000 ) ) ;
#273 =( CONVERSION_BASED_UNIT ( 'INCH', #109 ) LENGTH_UNIT ( ) NAMED_UNIT ( #58 ) );
#274 = FILL_AREA_STYLE ('',( #80 ) ) ;
#275 = PRESENTATION_STYLE_ASSIGNMENT (( #294 ) ) ;
#276 = FACE_OUTER_BOUND ( 'NONE', #301, .T. ) ;
#277 = AXIS2_PLACEMENT_3D ( 'NONE', #240, #290, #165 ) ;
#278 = CLOSED_SHELL ( 'NONE', ( #77, #244, #155, #282 ) ) ;
#279 =( LENGTH_UNIT ( ) NAMED_UNIT ( * ) SI_UNIT ( $, .METRE. ) );
#280 = EDGE_LOOP ( 'NONE', ( #213, #235 ) ) ;
#281 = AXIS2_PLACEMENT_3D ( 'NONE', #272, #292, #60 ) ;
#282 = ADVANCED_FACE ( 'NONE', ( #246 ), #263, .F. ) ;
#283 = ORIENTED_EDGE ( 'NONE', *, *, #134, .F. ) ;
#284 = ORIENTED_EDGE ( 'NONE', *, *, #232, .F. ) ;
#285 = EDGE_CURVE ( 'NONE', #70, #206, #122, .T. ) ;
#286 = ORIENTED_EDGE ( 'NONE', *, *, #232, .T. ) ;
#287 = COLOUR_RGB ( '',1.000000000000000000, 0.000000000000000000, 0.000000000000000000 ) ;
#288 = DIMENSIONAL_EXPONENTS ( 1.000000000000000000, 0.000000000000000000, 0.000000000000000000, 0.000000000000000000, 0.000000000000000000, 0.000000000000000000, 0.000000000000000000 ) ;
#289 = COLOUR_RGB ( '',0.7921568627450980005, 0.8196078431372548767, 0.9333333333333333481 ) ;
#290 = DIRECTION ( 'NONE',  ( -3.061616997868383018E-17, 1.000000000000000000, -0.000000000000000000 ) ) ;
#291 = UNCERTAINTY_MEASURE_WITH_UNIT (LENGTH_MEASURE( 1.000000000000000082E-05 ), #175, 'distance_accuracy_value', 'NONE');
#292 = DIRECTION ( 'NONE',  ( -0.000000000000000000, -1.000000000000000000, -0.000000000000000000 ) ) ;
#293 = PLANE ( 'NONE',  #202 ) ;
#294 = SURFACE_STYLE_USAGE ( .BOTH. , #107 ) ;
#295 = DIRECTION ( 'NONE',  ( -3.061616997868383018E-17, 1.000000000000000000, -0.000000000000000000 ) ) ;
#296 = SURFACE_SIDE_STYLE ('',( #131 ) ) ;
#297 = FILL_AREA_STYLE ('',( #221 ) ) ;
#298 =( NAMED_UNIT ( * ) PLANE_ANGLE_UNIT ( ) SI_UNIT ( $, .RADIAN. ) );
#299 = AXIS2_PLACEMENT_3D ( 'NONE', #178, #89, #139 ) ;
#300 = SURFACE_STYLE_FILL_AREA ( #274 ) ;
#301 = EDGE_LOOP ( 'NONE', ( #286, #22, #302, #125 ) ) ;
#302 = ORIENTED_EDGE ( 'NONE', *, *, #101, .F. ) ;
#303 =( GEOMETRIC_REPRESENTATION_CONTEXT ( 3 ) GLOBAL_UNCERTAINTY_ASSIGNED_CONTEXT ( ( #291 ) ) GLOBAL_UNIT_ASSIGNED_CONTEXT ( ( #175, #150, #16 ) ) REPRESENTATION_CONTEXT ( 'NONE', 'WORKASPACE' ) );
#304 = FILL_AREA_STYLE_COLOUR ( '', #287 ) ;
#305 = ORIENTED_EDGE ( 'NONE', *, *, #308, .T. ) ;
#306 = LENGTH_MEASURE_WITH_UNIT ( LENGTH_MEASURE( 0.02539999999999999897 ), #159 );
#307 = ORIENTED_EDGE ( 'NONE', *, *, #285, .T. ) ;
#308 = EDGE_CURVE ( 'NONE', #206, #179, #141, .T. ) ;
#309 = MECHANICAL_DESIGN_GEOMETRIC_PRESENTATION_REPRESENTATION (  '', ( #35 ), #25 ) ;
ENDSEC;
END-ISO-10303-21;
