ISO-10303-21;
HEADER;
FILE_DESCRIPTION (( 'STEP AP214' ),
    '1' );
FILE_NAME ('Micro_BEM-375-02.STEP',
    '2021-09-03T13:12:06',
    ( '' ),
    ( '' ),
    'SwSTEP 2.0',
    'SolidWorks 2020',
    '' );
FILE_SCHEMA (( 'AUTOMOTIVE_DESIGN' ));
ENDSEC;

DATA;
#1 = DIRECTION ( 'NONE',  ( 1.224646799147353207E-16, 0.0000000000000000000, 1.000000000000000000 ) ) ;
#2 = FACE_OUTER_BOUND ( 'NONE', #317, .T. ) ;
#3 = STYLED_ITEM ( 'NONE', ( #163 ), #306 ) ;
#4 = CARTESIAN_POINT ( 'NONE',  ( 2.293916535652885596E-17, 0.0000000000000000000, 0.1873124999999999929 ) ) ;
#5 = ORIENTED_EDGE ( 'NONE', *, *, #205, .T. ) ;
#6 = VERTEX_POINT ( 'NONE', #217 ) ;
#7 = PRODUCT_CONTEXT ( 'NONE', #165, 'mechanical' ) ;
#8 = ORIENTED_EDGE ( 'NONE', *, *, #22, .T. ) ;
#9 =( CONVERSION_BASED_UNIT ( 'INCH', #243 ) LENGTH_UNIT ( ) NAMED_UNIT ( #325 ) );
#10 = ADVANCED_FACE ( 'NONE', ( #194 ), #104, .T. ) ;
#11 = ORIENTED_EDGE ( 'NONE', *, *, #93, .T. ) ;
#12 = VECTOR ( 'NONE', #229, 39.37007874015747433 ) ;
#13 = CIRCLE ( 'NONE', #247, 0.1875000000000000278 ) ;
#14 =( NAMED_UNIT ( * ) SI_UNIT ( $, .STERADIAN. ) SOLID_ANGLE_UNIT ( ) );
#15 = VERTEX_POINT ( 'NONE', #295 ) ;
#16 = FACE_OUTER_BOUND ( 'NONE', #91, .T. ) ;
#17 = APPLICATION_CONTEXT ( 'automotive_design' ) ;
#18 = DIRECTION ( 'NONE',  ( -0.0000000000000000000, -0.0000000000000000000, -1.000000000000000000 ) ) ;
#19 = CIRCLE ( 'NONE', #121, 0.1875000000000000278 ) ;
#20 = AXIS2_PLACEMENT_3D ( 'NONE', #240, #164, #112 ) ;
#21 = DIRECTION ( 'NONE',  ( -1.000000000000000000, 0.0000000000000000000, 0.0000000000000000000 ) ) ;
#22 = EDGE_CURVE ( 'NONE', #66, #63, #180, .T. ) ;
#23 = DIRECTION ( 'NONE',  ( -0.0000000000000000000, -0.0000000000000000000, -1.000000000000000000 ) ) ;
#24 = CYLINDRICAL_SURFACE ( 'NONE', #227, 0.1875000000000000278 ) ;
#25 = EDGE_CURVE ( 'NONE', #66, #289, #128, .T. ) ;
#26 = DIRECTION ( 'NONE',  ( -1.000000000000000000, 0.0000000000000000000, 1.224646799147352961E-16 ) ) ;
#27 = CIRCLE ( 'NONE', #99, 0.1724999999999995981 ) ;
#28 = SPHERICAL_SURFACE ( 'NONE', #54, 0.1873124999999999929 ) ;
#29 = DIRECTION ( 'NONE',  ( -1.000000000000000000, 0.0000000000000000000, 1.823055050827002517E-16 ) ) ;
#30 = ORIENTED_EDGE ( 'NONE', *, *, #205, .F. ) ;
#31 = LINE ( 'NONE', #272, #77 ) ;
#32 = DIRECTION ( 'NONE',  ( -1.224646799147353207E-16, -0.0000000000000000000, -1.000000000000000000 ) ) ;
#33 = EDGE_LOOP ( 'NONE', ( #281, #262, #261 ) ) ;
#34 = COLOUR_RGB ( '',0.7921568627450980005, 0.8196078431372548767, 0.9333333333333333481 ) ;
#35 = EDGE_CURVE ( 'NONE', #197, #259, #235, .T. ) ;
#36 = LENGTH_MEASURE_WITH_UNIT ( LENGTH_MEASURE( 0.02539999999999999897 ), #166 );
#37 = ORIENTED_EDGE ( 'NONE', *, *, #301, .F. ) ;
#38 = ADVANCED_FACE ( 'NONE', ( #16 ), #248, .T. ) ;
#39 = EDGE_LOOP ( 'NONE', ( #89, #246, #242, #109 ) ) ;
#40 = EDGE_LOOP ( 'NONE', ( #83, #224, #8, #135 ) ) ;
#41 = AXIS2_PLACEMENT_3D ( 'NONE', #266, #203, #208 ) ;
#42 = AXIS2_PLACEMENT_3D ( 'NONE', #210, #1, #80 ) ;
#43 = EDGE_LOOP ( 'NONE', ( #318, #218 ) ) ;
#44 = CARTESIAN_POINT ( 'NONE',  ( -0.1873124999999999096, 2.295064642027087123E-17, 0.8750000000000000000 ) ) ;
#45 = DIRECTION ( 'NONE',  ( 0.0000000000000000000, 0.0000000000000000000, 1.000000000000000000 ) ) ;
#46 = CARTESIAN_POINT ( 'NONE',  ( 0.1875000000000000278, 2.296212748401287726E-17, 2.500000000000000000 ) ) ;
#47 = DIRECTION ( 'NONE',  ( 1.224646799147353207E-16, 0.0000000000000000000, 1.000000000000000000 ) ) ;
#48 = CARTESIAN_POINT ( 'NONE',  ( 0.0000000000000000000, 0.0000000000000000000, 0.0000000000000000000 ) ) ;
#49 = LINE ( 'NONE', #159, #149 ) ;
#50 = EDGE_CURVE ( 'NONE', #6, #312, #72, .T. ) ;
#51 = SURFACE_STYLE_FILL_AREA ( #234 ) ;
#52 = DIRECTION ( 'NONE',  ( 0.1736481776669313859, 0.0000000000000000000, 0.9848077530122077983 ) ) ;
#53 = FILL_AREA_STYLE_COLOUR ( '', #34 ) ;
#54 = AXIS2_PLACEMENT_3D ( 'NONE', #307, #303, #257 ) ;
#55 = AXIS2_PLACEMENT_3D ( 'NONE', #4, #213, #29 ) ;
#56 =( NAMED_UNIT ( * ) SI_UNIT ( $, .STERADIAN. ) SOLID_ANGLE_UNIT ( ) );
#57 = ORIENTED_EDGE ( 'NONE', *, *, #193, .F. ) ;
#58 =( NAMED_UNIT ( * ) PLANE_ANGLE_UNIT ( ) SI_UNIT ( $, .RADIAN. ) );
#59 = DIRECTION ( 'NONE',  ( 0.0000000000000000000, 0.0000000000000000000, -1.000000000000000000 ) ) ;
#60 = ADVANCED_FACE ( 'NONE', ( #119 ), #73, .T. ) ;
#61 = AXIS2_PLACEMENT_3D ( 'NONE', #185, #69, #294 ) ;
#62 =( LENGTH_UNIT ( ) NAMED_UNIT ( * ) SI_UNIT ( $, .METRE. ) );
#63 = VERTEX_POINT ( 'NONE', #94 ) ;
#64 = DIRECTION ( 'NONE',  ( -1.000000000000000000, 0.0000000000000000000, 0.0000000000000000000 ) ) ;
#65 = ORIENTED_EDGE ( 'NONE', *, *, #102, .F. ) ;
#66 = VERTEX_POINT ( 'NONE', #95 ) ;
#67 = AXIS2_PLACEMENT_3D ( 'NONE', #226, #225, #179 ) ;
#68 = PRODUCT_RELATED_PRODUCT_CATEGORY ( 'part', '', ( #92 ) ) ;
#69 = DIRECTION ( 'NONE',  ( -0.0000000000000000000, -0.0000000000000000000, -1.000000000000000000 ) ) ;
#70 = DIRECTION ( 'NONE',  ( 0.0000000000000000000, 0.0000000000000000000, -1.000000000000000000 ) ) ;
#71 = ADVANCED_BREP_SHAPE_REPRESENTATION ( 'Micro_BEM-375-02', ( #306, #20 ), #158 ) ;
#72 = LINE ( 'NONE', #46, #221 ) ;
#73 = CONICAL_SURFACE ( 'NONE', #211, 0.1873125000000000207, 0.1745329251994338915 ) ;
#74 = DIRECTION ( 'NONE',  ( 0.0000000000000000000, 0.0000000000000000000, -1.000000000000000000 ) ) ;
#75 = CARTESIAN_POINT ( 'NONE',  ( 0.0000000000000000000, 0.0000000000000000000, 2.500000000000000000 ) ) ;
#76 = DIRECTION ( 'NONE',  ( 1.224646799147353207E-16, 0.0000000000000000000, 1.000000000000000000 ) ) ;
#77 = VECTOR ( 'NONE', #156, 39.37007874015748143 ) ;
#78 = DIRECTION ( 'NONE',  ( -1.224646799147353207E-16, -0.0000000000000000000, -1.000000000000000000 ) ) ;
#79 = DIRECTION ( 'NONE',  ( -1.000000000000000000, 0.0000000000000000000, 1.823055050827002517E-16 ) ) ;
#80 = DIRECTION ( 'NONE',  ( 1.000000000000000000, 0.0000000000000000000, 0.0000000000000000000 ) ) ;
#81 = EDGE_CURVE ( 'NONE', #63, #118, #183, .T. ) ;
#82 = FACE_OUTER_BOUND ( 'NONE', #172, .T. ) ;
#83 = ORIENTED_EDGE ( 'NONE', *, *, #293, .F. ) ;
#84 = APPLICATION_PROTOCOL_DEFINITION ( 'draft international standard', 'automotive_design', 1998, #165 ) ;
#85 = EDGE_LOOP ( 'NONE', ( #174, #115, #263, #113 ) ) ;
#86 = DIRECTION ( 'NONE',  ( 1.000000000000000000, 0.0000000000000000000, 0.0000000000000000000 ) ) ;
#87 = EDGE_LOOP ( 'NONE', ( #264, #287, #239, #37 ) ) ;
#88 = CIRCLE ( 'NONE', #55, 0.1873124999999999929 ) ;
#89 = ORIENTED_EDGE ( 'NONE', *, *, #102, .T. ) ;
#90 = DIRECTION ( 'NONE',  ( 0.0000000000000000000, 0.0000000000000000000, 1.000000000000000000 ) ) ;
#91 = EDGE_LOOP ( 'NONE', ( #116, #222, #30 ) ) ;
#92 = PRODUCT ( 'Micro_BEM-375-02', 'Micro_BEM-375-02', '', ( #7 ) ) ;
#93 = EDGE_CURVE ( 'NONE', #175, #241, #153, .T. ) ;
#94 = CARTESIAN_POINT ( 'NONE',  ( -0.1875000000000000278, 0.0000000000000000000, 2.484999999999999432 ) ) ;
#95 = CARTESIAN_POINT ( 'NONE',  ( -0.1724999999999995981, 0.0000000000000000000, 2.500000000000000000 ) ) ;
#96 = DIRECTION ( 'NONE',  ( 0.0000000000000000000, 0.0000000000000000000, -1.000000000000000000 ) ) ;
#97 = DIRECTION ( 'NONE',  ( 0.0000000000000000000, 1.000000000000000000, 0.0000000000000000000 ) ) ;
#98 = CIRCLE ( 'NONE', #278, 0.1873124999999999929 ) ;
#99 = AXIS2_PLACEMENT_3D ( 'NONE', #237, #90, #86 ) ;
#100 = DIRECTION ( 'NONE',  ( 1.000000000000000000, 0.0000000000000000000, 0.0000000000000000000 ) ) ;
#101 = DIRECTION ( 'NONE',  ( -1.224646799147353207E-16, -0.0000000000000000000, -1.000000000000000000 ) ) ;
#102 = EDGE_CURVE ( 'NONE', #63, #6, #187, .T. ) ;
#103 = DIRECTION ( 'NONE',  ( -1.224646799147353207E-16, -0.0000000000000000000, -1.000000000000000000 ) ) ;
#104 = CONICAL_SURFACE ( 'NONE', #141, 0.1724999999999995981, 0.7853981633974357335 ) ;
#105 = DIRECTION ( 'NONE',  ( -1.224646799147353207E-16, -0.0000000000000000000, -1.000000000000000000 ) ) ;
#106 = CYLINDRICAL_SURFACE ( 'NONE', #201, 0.1873124999999999929 ) ;
#107 = EDGE_CURVE ( 'NONE', #175, #118, #323, .T. ) ;
#108 = LINE ( 'NONE', #253, #245 ) ;
#109 = ORIENTED_EDGE ( 'NONE', *, *, #81, .F. ) ;
#110 = UNCERTAINTY_MEASURE_WITH_UNIT (LENGTH_MEASURE( 1.000000000000000082E-05 ), #273, 'distance_accuracy_value', 'NONE');
#111 = EDGE_CURVE ( 'NONE', #6, #63, #296, .T. ) ;
#112 = DIRECTION ( 'NONE',  ( 1.000000000000000000, 0.0000000000000000000, 0.0000000000000000000 ) ) ;
#113 = ORIENTED_EDGE ( 'NONE', *, *, #282, .T. ) ;
#114 = FILL_AREA_STYLE_COLOUR ( '', #188 ) ;
#115 = ORIENTED_EDGE ( 'NONE', *, *, #320, .T. ) ;
#116 = ORIENTED_EDGE ( 'NONE', *, *, #35, .F. ) ;
#117 = AXIS2_PLACEMENT_3D ( 'NONE', #176, #97, #250 ) ;
#118 = VERTEX_POINT ( 'NONE', #292 ) ;
#119 = FACE_OUTER_BOUND ( 'NONE', #144, .T. ) ;
#120 = PLANE ( 'NONE',  #196 ) ;
#121 = AXIS2_PLACEMENT_3D ( 'NONE', #236, #105, #130 ) ;
#122 = ADVANCED_FACE ( 'NONE', ( #319 ), #120, .T. ) ;
#123 = FACE_OUTER_BOUND ( 'NONE', #39, .T. ) ;
#124 = DIRECTION ( 'NONE',  ( 0.0000000000000000000, 0.0000000000000000000, 1.000000000000000000 ) ) ;
#125 = DIRECTION ( 'NONE',  ( -1.000000000000000000, 0.0000000000000000000, 0.0000000000000000000 ) ) ;
#126 = ADVANCED_FACE ( 'NONE', ( #290 ), #181, .T. ) ;
#127 = AXIS2_PLACEMENT_3D ( 'NONE', #269, #96, #21 ) ;
#128 = CIRCLE ( 'NONE', #162, 0.1724999999999995981 ) ;
#129 = STYLED_ITEM ( 'NONE', ( #223 ), #71 ) ;
#130 = DIRECTION ( 'NONE',  ( 1.000000000000000000, 0.0000000000000000000, 0.0000000000000000000 ) ) ;
#131 = PRODUCT_DEFINITION ( 'UNKNOWN', '', #182, #305 ) ;
#132 = DIRECTION ( 'NONE',  ( 1.224646799147353207E-16, 1.000000000000000000, -0.0000000000000000000 ) ) ;
#133 = ADVANCED_FACE ( 'NONE', ( #123 ), #204, .T. ) ;
#134 = CARTESIAN_POINT ( 'NONE',  ( 2.293916535652885596E-17, 0.0000000000000000000, 0.1873124999999999929 ) ) ;
#135 = ORIENTED_EDGE ( 'NONE', *, *, #111, .F. ) ;
#136 = ADVANCED_FACE ( 'NONE', ( #249 ), #24, .T. ) ;
#137 = VECTOR ( 'NONE', #228, 39.37007874015748854 ) ;
#138 = CARTESIAN_POINT ( 'NONE',  ( 2.293916535652885596E-17, 0.0000000000000000000, 0.1873124999999999929 ) ) ;
#139 = PRESENTATION_LAYER_ASSIGNMENT (  '', '', ( #129 ) ) ;
#140 = SURFACE_SIDE_STYLE ('',( #238 ) ) ;
#141 = AXIS2_PLACEMENT_3D ( 'NONE', #280, #59, #298 ) ;
#142 = ORIENTED_EDGE ( 'NONE', *, *, #232, .T. ) ;
#143 = UNCERTAINTY_MEASURE_WITH_UNIT (LENGTH_MEASURE( 1.000000000000000082E-05 ), #9, 'distance_accuracy_value', 'NONE');
#144 = EDGE_LOOP ( 'NONE', ( #285, #198, #142, #167 ) ) ;
#145 = CLOSED_SHELL ( 'NONE', ( #38, #177, #276, #126, #133, #136, #122, #10, #60, #286, #146 ) ) ;
#146 = ADVANCED_FACE ( 'NONE', ( #265 ), #28, .T. ) ;
#147 = ORIENTED_EDGE ( 'NONE', *, *, #233, .T. ) ;
#148 = ORIENTED_EDGE ( 'NONE', *, *, #270, .T. ) ;
#149 = VECTOR ( 'NONE', #189, 39.37007874015748854 ) ;
#150 = DIRECTION ( 'NONE',  ( 0.0000000000000000000, -1.000000000000000000, 0.0000000000000000000 ) ) ;
#151 = CARTESIAN_POINT ( 'NONE',  ( 1.071565949253934025E-16, 0.0000000000000000000, 0.8750000000000000000 ) ) ;
#152 = CARTESIAN_POINT ( 'NONE',  ( 0.0000000000000000000, 0.0000000000000000000, 2.500000000000000000 ) ) ;
#153 = CIRCLE ( 'NONE', #67, 0.1873125000000000207 ) ;
#154 = DIRECTION ( 'NONE',  ( -0.0000000000000000000, -0.0000000000000000000, -1.000000000000000000 ) ) ;
#155 = CARTESIAN_POINT ( 'NONE',  ( 0.0000000000000000000, 0.0000000000000000000, 2.484999999999999432 ) ) ;
#156 = DIRECTION ( 'NONE',  ( -1.224646799147353207E-16, -0.0000000000000000000, -1.000000000000000000 ) ) ;
#157 = AXIS2_PLACEMENT_3D ( 'NONE', #155, #74, #200 ) ;
#158 =( GEOMETRIC_REPRESENTATION_CONTEXT ( 3 ) GLOBAL_UNCERTAINTY_ASSIGNED_CONTEXT ( ( #283 ) ) GLOBAL_UNIT_ASSIGNED_CONTEXT ( ( #216, #311, #14 ) ) REPRESENTATION_CONTEXT ( 'NONE', 'WORKASPACE' ) );
#159 = CARTESIAN_POINT ( 'NONE',  ( 0.1724999999999995981, 2.112515728529179297E-17, 2.500000000000000000 ) ) ;
#160 = LENGTH_MEASURE_WITH_UNIT ( LENGTH_MEASURE( 0.02539999999999999897 ), #256 );
#161 = SURFACE_STYLE_USAGE ( .BOTH. , #255 ) ;
#162 = AXIS2_PLACEMENT_3D ( 'NONE', #152, #45, #322 ) ;
#163 = PRESENTATION_STYLE_ASSIGNMENT (( #161 ) ) ;
#164 = DIRECTION ( 'NONE',  ( 0.0000000000000000000, 0.0000000000000000000, 1.000000000000000000 ) ) ;
#165 = APPLICATION_CONTEXT ( 'automotive_design' ) ;
#166 =( LENGTH_UNIT ( ) NAMED_UNIT ( * ) SI_UNIT ( $, .METRE. ) );
#167 = ORIENTED_EDGE ( 'NONE', *, *, #301, .T. ) ;
#168 = AXIS2_PLACEMENT_3D ( 'NONE', #134, #132, #231 ) ;
#169 = ORIENTED_EDGE ( 'NONE', *, *, #93, .F. ) ;
#170 = MECHANICAL_DESIGN_GEOMETRIC_PRESENTATION_REPRESENTATION (  '', ( #3 ), #302 ) ;
#171 = APPLICATION_PROTOCOL_DEFINITION ( 'draft international standard', 'automotive_design', 1998, #17 ) ;
#172 = EDGE_LOOP ( 'NONE', ( #169, #314, #148, #195 ) ) ;
#173 =( NAMED_UNIT ( * ) PLANE_ANGLE_UNIT ( ) SI_UNIT ( $, .RADIAN. ) );
#174 = ORIENTED_EDGE ( 'NONE', *, *, #233, .F. ) ;
#175 = VERTEX_POINT ( 'NONE', #44 ) ;
#176 = CARTESIAN_POINT ( 'NONE',  ( 2.293916535652885596E-17, 0.0000000000000000000, 0.1873124999999999929 ) ) ;
#177 = ADVANCED_FACE ( 'NONE', ( #2 ), #106, .T. ) ;
#178 = DIMENSIONAL_EXPONENTS ( 1.000000000000000000, 0.0000000000000000000, 0.0000000000000000000, 0.0000000000000000000, 0.0000000000000000000, 0.0000000000000000000, 0.0000000000000000000 ) ;
#179 = DIRECTION ( 'NONE',  ( -1.000000000000000000, 0.0000000000000000000, 0.0000000000000000000 ) ) ;
#180 = LINE ( 'NONE', #267, #137 ) ;
#181 = CONICAL_SURFACE ( 'NONE', #127, 0.1724999999999995981, 0.7853981633974357335 ) ;
#182 = PRODUCT_DEFINITION_FORMATION_WITH_SPECIFIED_SOURCE ( 'ANY', '', #92, .NOT_KNOWN. ) ;
#183 = LINE ( 'NONE', #252, #321 ) ;
#184 = DIMENSIONAL_EXPONENTS ( 1.000000000000000000, 0.0000000000000000000, 0.0000000000000000000, 0.0000000000000000000, 0.0000000000000000000, 0.0000000000000000000, 0.0000000000000000000 ) ;
#185 = CARTESIAN_POINT ( 'NONE',  ( 0.0000000000000000000, 0.0000000000000000000, 2.500000000000000000 ) ) ;
#186 = DIRECTION ( 'NONE',  ( -1.000000000000000000, 0.0000000000000000000, 1.224646799147352961E-16 ) ) ;
#187 = CIRCLE ( 'NONE', #41, 0.1875000000000000278 ) ;
#188 = COLOUR_RGB ( '',0.7921568627450980005, 0.8196078431372548767, 0.9333333333333333481 ) ;
#189 = DIRECTION ( 'NONE',  ( 0.7071067811865385799, 8.659560562354823157E-17, -0.7071067811865563435 ) ) ;
#190 = LINE ( 'NONE', #275, #230 ) ;
#191 = CARTESIAN_POINT ( 'NONE',  ( 0.1873125000000001317, 0.0000000000000000000, 0.8750000000000000000 ) ) ;
#192 = CARTESIAN_POINT ( 'NONE',  ( 0.1724999999999995981, 2.204364238465233357E-17, 2.500000000000000000 ) ) ;
#193 = EDGE_CURVE ( 'NONE', #175, #15, #108, .T. ) ;
#194 = FACE_OUTER_BOUND ( 'NONE', #40, .T. ) ;
#195 = ORIENTED_EDGE ( 'NONE', *, *, #232, .F. ) ;
#196 = AXIS2_PLACEMENT_3D ( 'NONE', #75, #124, #324 ) ;
#197 = VERTEX_POINT ( 'NONE', #214 ) ;
#198 = ORIENTED_EDGE ( 'NONE', *, *, #320, .F. ) ;
#199 = ORIENTED_EDGE ( 'NONE', *, *, #315, .F. ) ;
#200 = DIRECTION ( 'NONE',  ( 1.000000000000000000, 0.0000000000000000000, 0.0000000000000000000 ) ) ;
#201 = AXIS2_PLACEMENT_3D ( 'NONE', #48, #300, #26 ) ;
#202 = AXIS2_PLACEMENT_3D ( 'NONE', #209, #78, #186 ) ;
#203 = DIRECTION ( 'NONE',  ( 0.0000000000000000000, 0.0000000000000000000, -1.000000000000000000 ) ) ;
#204 = CYLINDRICAL_SURFACE ( 'NONE', #61, 0.1875000000000000278 ) ;
#205 = EDGE_CURVE ( 'NONE', #259, #15, #98, .T. ) ;
#206 = CARTESIAN_POINT ( 'NONE',  ( 2.293916535652885596E-17, 0.0000000000000000000, 0.1873124999999999929 ) ) ;
#207 = MECHANICAL_DESIGN_GEOMETRIC_PRESENTATION_REPRESENTATION (  '', ( #129 ), #284 ) ;
#208 = DIRECTION ( 'NONE',  ( 1.000000000000000000, 0.0000000000000000000, 0.0000000000000000000 ) ) ;
#209 = CARTESIAN_POINT ( 'NONE',  ( 0.0000000000000000000, 0.0000000000000000000, 0.0000000000000000000 ) ) ;
#210 = CARTESIAN_POINT ( 'NONE',  ( 1.071565949253934025E-16, 0.0000000000000000000, 0.8750000000000000000 ) ) ;
#211 = AXIS2_PLACEMENT_3D ( 'NONE', #151, #47, #100 ) ;
#212 = FACE_OUTER_BOUND ( 'NONE', #85, .T. ) ;
#213 = DIRECTION ( 'NONE',  ( 1.224646799147353207E-16, 0.0000000000000000000, 1.000000000000000000 ) ) ;
#214 = CARTESIAN_POINT ( 'NONE',  ( 3.440874803479328548E-17, 0.0000000000000000000, 0.0000000000000000000 ) ) ;
#215 = CONICAL_SURFACE ( 'NONE', #42, 0.1873125000000000207, 0.1745329251994338915 ) ;
#216 =( CONVERSION_BASED_UNIT ( 'INCH', #36 ) LENGTH_UNIT ( ) NAMED_UNIT ( #184 ) );
#217 = CARTESIAN_POINT ( 'NONE',  ( 0.1875000000000000278, 2.296212748401287726E-17, 2.484999999999999432 ) ) ;
#218 = ORIENTED_EDGE ( 'NONE', *, *, #315, .T. ) ;
#219 = FILL_AREA_STYLE ('',( #114 ) ) ;
#220 = ORIENTED_EDGE ( 'NONE', *, *, #22, .F. ) ;
#221 = VECTOR ( 'NONE', #154, 39.37007874015748143 ) ;
#222 = ORIENTED_EDGE ( 'NONE', *, *, #274, .T. ) ;
#223 = PRESENTATION_STYLE_ASSIGNMENT (( #313 ) ) ;
#224 = ORIENTED_EDGE ( 'NONE', *, *, #25, .F. ) ;
#225 = DIRECTION ( 'NONE',  ( -1.224646799147353207E-16, -0.0000000000000000000, -1.000000000000000000 ) ) ;
#226 = CARTESIAN_POINT ( 'NONE',  ( 1.071565949253934025E-16, 0.0000000000000000000, 0.8750000000000000000 ) ) ;
#227 = AXIS2_PLACEMENT_3D ( 'NONE', #271, #18, #125 ) ;
#228 = DIRECTION ( 'NONE',  ( -0.7071067811865385799, 0.0000000000000000000, -0.7071067811865563435 ) ) ;
#229 = DIRECTION ( 'NONE',  ( -0.1736481776669311916, 2.126576849575783316E-17, 0.9848077530122080203 ) ) ;
#230 = VECTOR ( 'NONE', #52, 39.37007874015748143 ) ;
#231 = DIRECTION ( 'NONE',  ( -1.000000000000000000, 1.224646799147352961E-16, 0.0000000000000000000 ) ) ;
#232 = EDGE_CURVE ( 'NONE', #241, #312, #190, .T. ) ;
#233 = EDGE_CURVE ( 'NONE', #241, #259, #31, .T. ) ;
#234 = FILL_AREA_STYLE ('',( #53 ) ) ;
#235 = CIRCLE ( 'NONE', #309, 0.1873124999999999929 ) ;
#236 = CARTESIAN_POINT ( 'NONE',  ( 1.072868196215332272E-16, 0.0000000000000000000, 0.8760633653411783461 ) ) ;
#237 = CARTESIAN_POINT ( 'NONE',  ( 0.0000000000000000000, 0.0000000000000000000, 2.500000000000000000 ) ) ;
#238 = SURFACE_STYLE_FILL_AREA ( #219 ) ;
#239 = ORIENTED_EDGE ( 'NONE', *, *, #81, .T. ) ;
#240 = CARTESIAN_POINT ( 'NONE',  ( 0.0000000000000000000, 0.0000000000000000000, 0.0000000000000000000 ) ) ;
#241 = VERTEX_POINT ( 'NONE', #191 ) ;
#242 = ORIENTED_EDGE ( 'NONE', *, *, #270, .F. ) ;
#243 = LENGTH_MEASURE_WITH_UNIT ( LENGTH_MEASURE( 0.02539999999999999897 ), #62 );
#244 = EDGE_LOOP ( 'NONE', ( #199, #310, #65, #220 ) ) ;
#245 = VECTOR ( 'NONE', #101, 39.37007874015748143 ) ;
#246 = ORIENTED_EDGE ( 'NONE', *, *, #50, .T. ) ;
#247 = AXIS2_PLACEMENT_3D ( 'NONE', #277, #103, #258 ) ;
#248 = SPHERICAL_SURFACE ( 'NONE', #117, 0.1873124999999999929 ) ;
#249 = FACE_OUTER_BOUND ( 'NONE', #87, .T. ) ;
#250 = DIRECTION ( 'NONE',  ( 1.000000000000000000, 0.0000000000000000000, 0.0000000000000000000 ) ) ;
#251 = CARTESIAN_POINT ( 'NONE',  ( -0.1873124999999999096, 2.293916535652885904E-17, 0.8750000000000000000 ) ) ;
#252 = CARTESIAN_POINT ( 'NONE',  ( -0.1875000000000000278, 0.0000000000000000000, 2.500000000000000000 ) ) ;
#253 = CARTESIAN_POINT ( 'NONE',  ( -0.1873124999999999929, 0.0000000000000000000, 2.293916535652885596E-17 ) ) ;
#254 = PRESENTATION_LAYER_ASSIGNMENT (  '', '', ( #3 ) ) ;
#255 = SURFACE_SIDE_STYLE ('',( #51 ) ) ;
#256 =( LENGTH_UNIT ( ) NAMED_UNIT ( * ) SI_UNIT ( $, .METRE. ) );
#257 = DIRECTION ( 'NONE',  ( 1.000000000000000000, 0.0000000000000000000, 0.0000000000000000000 ) ) ;
#258 = DIRECTION ( 'NONE',  ( 1.000000000000000000, 0.0000000000000000000, 0.0000000000000000000 ) ) ;
#259 = VERTEX_POINT ( 'NONE', #299 ) ;
#260 = CARTESIAN_POINT ( 'NONE',  ( 1.071565949253934025E-16, 0.0000000000000000000, 0.8750000000000000000 ) ) ;
#261 = ORIENTED_EDGE ( 'NONE', *, *, #282, .F. ) ;
#262 = ORIENTED_EDGE ( 'NONE', *, *, #35, .T. ) ;
#263 = ORIENTED_EDGE ( 'NONE', *, *, #193, .T. ) ;
#264 = ORIENTED_EDGE ( 'NONE', *, *, #50, .F. ) ;
#265 = FACE_OUTER_BOUND ( 'NONE', #33, .T. ) ;
#266 = CARTESIAN_POINT ( 'NONE',  ( 0.0000000000000000000, 0.0000000000000000000, 2.484999999999999432 ) ) ;
#267 = CARTESIAN_POINT ( 'NONE',  ( -0.1724999999999995981, 0.0000000000000000000, 2.500000000000000000 ) ) ;
#268 = AXIS2_PLACEMENT_3D ( 'NONE', #260, #32, #64 ) ;
#269 = CARTESIAN_POINT ( 'NONE',  ( 0.0000000000000000000, 0.0000000000000000000, 2.500000000000000000 ) ) ;
#270 = EDGE_CURVE ( 'NONE', #118, #312, #19, .T. ) ;
#271 = CARTESIAN_POINT ( 'NONE',  ( 0.0000000000000000000, 0.0000000000000000000, 2.500000000000000000 ) ) ;
#272 = CARTESIAN_POINT ( 'NONE',  ( 0.1873124999999999929, 2.293916535652885596E-17, -2.293916535652885596E-17 ) ) ;
#273 =( CONVERSION_BASED_UNIT ( 'INCH', #160 ) LENGTH_UNIT ( ) NAMED_UNIT ( #178 ) );
#274 = EDGE_CURVE ( 'NONE', #197, #15, #308, .T. ) ;
#275 = CARTESIAN_POINT ( 'NONE',  ( 0.1873125000000001317, 0.0000000000000000000, 0.8750000000000000000 ) ) ;
#276 = ADVANCED_FACE ( 'NONE', ( #82 ), #215, .T. ) ;
#277 = CARTESIAN_POINT ( 'NONE',  ( 1.072868196215332272E-16, 0.0000000000000000000, 0.8760633653411783461 ) ) ;
#278 = AXIS2_PLACEMENT_3D ( 'NONE', #138, #76, #79 ) ;
#279 = CARTESIAN_POINT ( 'NONE',  ( 0.1875000000000000833, 2.296212748401288650E-17, 0.8760633653411783461 ) ) ;
#280 = CARTESIAN_POINT ( 'NONE',  ( 0.0000000000000000000, 0.0000000000000000000, 2.500000000000000000 ) ) ;
#281 = ORIENTED_EDGE ( 'NONE', *, *, #274, .F. ) ;
#282 = EDGE_CURVE ( 'NONE', #15, #259, #88, .T. ) ;
#283 = UNCERTAINTY_MEASURE_WITH_UNIT (LENGTH_MEASURE( 1.000000000000000082E-05 ), #216, 'distance_accuracy_value', 'NONE');
#284 =( GEOMETRIC_REPRESENTATION_CONTEXT ( 3 ) GLOBAL_UNCERTAINTY_ASSIGNED_CONTEXT ( ( #143 ) ) GLOBAL_UNIT_ASSIGNED_CONTEXT ( ( #9, #173, #316 ) ) REPRESENTATION_CONTEXT ( 'NONE', 'WORKASPACE' ) );
#285 = ORIENTED_EDGE ( 'NONE', *, *, #107, .F. ) ;
#286 = ADVANCED_FACE ( 'NONE', ( #212 ), #304, .T. ) ;
#287 = ORIENTED_EDGE ( 'NONE', *, *, #111, .T. ) ;
#288 = PRODUCT_DEFINITION_SHAPE ( 'NONE', 'NONE',  #131 ) ;
#289 = VERTEX_POINT ( 'NONE', #192 ) ;
#290 = FACE_OUTER_BOUND ( 'NONE', #244, .T. ) ;
#291 = SHAPE_DEFINITION_REPRESENTATION ( #288, #71 ) ;
#292 = CARTESIAN_POINT ( 'NONE',  ( -0.1874999999999999167, 0.0000000000000000000, 0.8760633653411783461 ) ) ;
#293 = EDGE_CURVE ( 'NONE', #289, #6, #49, .T. ) ;
#294 = DIRECTION ( 'NONE',  ( -1.000000000000000000, 0.0000000000000000000, 0.0000000000000000000 ) ) ;
#295 = CARTESIAN_POINT ( 'NONE',  ( -0.1873124999999999374, 0.0000000000000000000, 0.1873125000000000207 ) ) ;
#296 = CIRCLE ( 'NONE', #157, 0.1875000000000000278 ) ;
#297 = CIRCLE ( 'NONE', #268, 0.1873125000000000207 ) ;
#298 = DIRECTION ( 'NONE',  ( -1.000000000000000000, 0.0000000000000000000, 0.0000000000000000000 ) ) ;
#299 = CARTESIAN_POINT ( 'NONE',  ( 0.1873125000000000207, 2.293916535652885596E-17, 0.1873124999999999374 ) ) ;
#300 = DIRECTION ( 'NONE',  ( -1.224646799147353207E-16, -0.0000000000000000000, -1.000000000000000000 ) ) ;
#301 = EDGE_CURVE ( 'NONE', #312, #118, #13, .T. ) ;
#302 =( GEOMETRIC_REPRESENTATION_CONTEXT ( 3 ) GLOBAL_UNCERTAINTY_ASSIGNED_CONTEXT ( ( #110 ) ) GLOBAL_UNIT_ASSIGNED_CONTEXT ( ( #273, #58, #56 ) ) REPRESENTATION_CONTEXT ( 'NONE', 'WORKASPACE' ) );
#303 = DIRECTION ( 'NONE',  ( 0.0000000000000000000, 1.000000000000000000, 0.0000000000000000000 ) ) ;
#304 = CYLINDRICAL_SURFACE ( 'NONE', #202, 0.1873124999999999929 ) ;
#305 = PRODUCT_DEFINITION_CONTEXT ( 'detailed design', #17, 'design' ) ;
#306 = MANIFOLD_SOLID_BREP ( 'Fillet1', #145 ) ;
#307 = CARTESIAN_POINT ( 'NONE',  ( 2.293916535652885596E-17, 0.0000000000000000000, 0.1873124999999999929 ) ) ;
#308 = CIRCLE ( 'NONE', #168, 0.1873124999999999929 ) ;
#309 = AXIS2_PLACEMENT_3D ( 'NONE', #206, #150, #70 ) ;
#310 = ORIENTED_EDGE ( 'NONE', *, *, #293, .T. ) ;
#311 =( NAMED_UNIT ( * ) PLANE_ANGLE_UNIT ( ) SI_UNIT ( $, .RADIAN. ) );
#312 = VERTEX_POINT ( 'NONE', #279 ) ;
#313 = SURFACE_STYLE_USAGE ( .BOTH. , #140 ) ;
#314 = ORIENTED_EDGE ( 'NONE', *, *, #107, .T. ) ;
#315 = EDGE_CURVE ( 'NONE', #289, #66, #27, .T. ) ;
#316 =( NAMED_UNIT ( * ) SI_UNIT ( $, .STERADIAN. ) SOLID_ANGLE_UNIT ( ) );
#317 = EDGE_LOOP ( 'NONE', ( #11, #147, #5, #57 ) ) ;
#318 = ORIENTED_EDGE ( 'NONE', *, *, #25, .T. ) ;
#319 = FACE_OUTER_BOUND ( 'NONE', #43, .T. ) ;
#320 = EDGE_CURVE ( 'NONE', #241, #175, #297, .T. ) ;
#321 = VECTOR ( 'NONE', #23, 39.37007874015748143 ) ;
#322 = DIRECTION ( 'NONE',  ( 1.000000000000000000, 0.0000000000000000000, 0.0000000000000000000 ) ) ;
#323 = LINE ( 'NONE', #251, #12 ) ;
#324 = DIRECTION ( 'NONE',  ( 1.000000000000000000, 0.0000000000000000000, -0.0000000000000000000 ) ) ;
#325 = DIMENSIONAL_EXPONENTS ( 1.000000000000000000, 0.0000000000000000000, 0.0000000000000000000, 0.0000000000000000000, 0.0000000000000000000, 0.0000000000000000000, 0.0000000000000000000 ) ;
ENDSEC;
END-ISO-10303-21;
