ISO-10303-21;
HEADER;
FILE_DESCRIPTION (( 'STEP AP214' ),
    '1' );
FILE_NAME ('59555.STEP',
    '2023-07-24T15:10:46',
    ( '' ),
    ( '' ),
    'SwSTEP 2.0',
    'SolidWorks 2023',
    '' );
FILE_SCHEMA (( 'AUTOMOTIVE_DESIGN' ));
ENDSEC;

DATA;
#1 = CARTESIAN_POINT ( 'NONE',  ( 1.214306433183764966E-14, 25.00000000000000000, 0.000000000000000000 ) ) ;
#2 = FACE_OUTER_BOUND ( 'NONE', #14, .T. ) ;
#3 = AXIS2_PLACEMENT_3D ( 'NONE', #6, #226, #91 ) ;
#4 = CARTESIAN_POINT ( 'NONE',  ( 5.510910596163089556E-16, 0.5000000000000000000, 4.500000000000000888 ) ) ;
#5 = DIRECTION ( 'NONE',  ( -0.000000000000000000, -1.000000000000000000, -0.000000000000000000 ) ) ;
#6 = CARTESIAN_POINT ( 'NONE',  ( 0.000000000000000000, 25.00000000000000000, 0.000000000000000000 ) ) ;
#7 = PRESENTATION_STYLE_ASSIGNMENT (( #341 ) ) ;
#8 = CYLINDRICAL_SURFACE ( 'NONE', #279, 5.000000000000000888 ) ;
#9 = CIRCLE ( 'NONE', #17, 0.5000000000000004441 ) ;
#10 = UNCERTAINTY_MEASURE_WITH_UNIT (LENGTH_MEASURE( 1.000000000000000082E-05 ), #209, 'distance_accuracy_value', 'NONE');
#11 =( NAMED_UNIT ( * ) SI_UNIT ( $, .STERADIAN. ) SOLID_ANGLE_UNIT ( ) );
#12 = ORIENTED_EDGE ( 'NONE', *, *, #128, .F. ) ;
#13 = PRESENTATION_STYLE_ASSIGNMENT (( #270 ) ) ;
#14 = EDGE_LOOP ( 'NONE', ( #129, #233, #291, #125 ) ) ;
#15 =( NAMED_UNIT ( * ) PLANE_ANGLE_UNIT ( ) SI_UNIT ( $, .RADIAN. ) );
#16 = APPLICATION_PROTOCOL_DEFINITION ( 'draft international standard', 'automotive_design', 1998, #107 ) ;
#17 = AXIS2_PLACEMENT_3D ( 'NONE', #340, #194, #283 ) ;
#18 = PRESENTATION_LAYER_ASSIGNMENT (  '', '', ( #276 ) ) ;
#19 = DIRECTION ( 'NONE',  ( 1.203966067220177465E-16, -1.000000000000000000, 0.000000000000000000 ) ) ;
#20 = DIRECTION ( 'NONE',  ( 0.000000000000000000, 0.000000000000000000, -1.000000000000000000 ) ) ;
#21 = UNCERTAINTY_MEASURE_WITH_UNIT (LENGTH_MEASURE( 1.000000000000000082E-05 ), #348, 'distance_accuracy_value', 'NONE');
#22 = CIRCLE ( 'NONE', #3, 5.000000000000000000 ) ;
#23 = PRESENTATION_LAYER_ASSIGNMENT (  '', '', ( #120 ) ) ;
#24 = CARTESIAN_POINT ( 'NONE',  ( 5.817072295949928412E-16, 0.000000000000000000, 4.500000000000000888 ) ) ;
#25 = COLOUR_RGB ( '',0.7921568627450980005, 0.8196078431372548767, 0.9333333333333333481 ) ;
#26 = PRODUCT_DEFINITION_SHAPE ( 'NONE', 'NONE',  #257 ) ;
#27 = CYLINDRICAL_SURFACE ( 'NONE', #249, 5.000000000000000888 ) ;
#28 = EDGE_CURVE ( 'NONE', #203, #289, #22, .T. ) ;
#29 = FACE_OUTER_BOUND ( 'NONE', #139, .T. ) ;
#30 = DIRECTION ( 'NONE',  ( -1.203966067220177465E-16, 1.000000000000000000, -0.000000000000000000 ) ) ;
#31 = DIRECTION ( 'NONE',  ( -1.000000000000000000, 0.000000000000000000, 0.000000000000000000 ) ) ;
#32 = DIRECTION ( 'NONE',  ( -1.000000000000000000, 0.000000000000000000, 0.000000000000000000 ) ) ;
#33 = COLOUR_RGB ( '',0.7921568627450980005, 0.8196078431372548767, 0.9333333333333333481 ) ;
#34 = DIRECTION ( 'NONE',  ( -1.203966067220177465E-16, 1.000000000000000000, -0.000000000000000000 ) ) ;
#35 = DIRECTION ( 'NONE',  ( -1.224646799147353454E-16, 0.000000000000000000, -1.000000000000000000 ) ) ;
#36 =( GEOMETRIC_REPRESENTATION_CONTEXT ( 3 ) GLOBAL_UNCERTAINTY_ASSIGNED_CONTEXT ( ( #83 ) ) GLOBAL_UNIT_ASSIGNED_CONTEXT ( ( #204, #158, #69 ) ) REPRESENTATION_CONTEXT ( 'NONE', 'WORKASPACE' ) );
#37 = EDGE_CURVE ( 'NONE', #302, #344, #148, .T. ) ;
#38 = CARTESIAN_POINT ( 'NONE',  ( 4.999999999999996447, 75.00000000000000000, 6.123233995736754449E-16 ) ) ;
#39 = SURFACE_STYLE_FILL_AREA ( #154 ) ;
#40 = ORIENTED_EDGE ( 'NONE', *, *, #86, .F. ) ;
#41 = DIRECTION ( 'NONE',  ( 1.000000000000000000, 0.000000000000000000, 0.000000000000000000 ) ) ;
#42 = DIRECTION ( 'NONE',  ( 0.000000000000000000, 0.000000000000000000, -1.000000000000000000 ) ) ;
#43 = VERTEX_POINT ( 'NONE', #169 ) ;
#44 =( NAMED_UNIT ( * ) PLANE_ANGLE_UNIT ( ) SI_UNIT ( $, .RADIAN. ) );
#45 = AXIS2_PLACEMENT_3D ( 'NONE', #159, #184, #20 ) ;
#46 = FILL_AREA_STYLE_COLOUR ( '', #60 ) ;
#47 = ORIENTED_EDGE ( 'NONE', *, *, #51, .T. ) ;
#48 = EDGE_CURVE ( 'NONE', #43, #344, #199, .T. ) ;
#49 = CARTESIAN_POINT ( 'NONE',  ( 6.123233995736762930E-15, 75.00000000000000000, 0.000000000000000000 ) ) ;
#50 =( NAMED_UNIT ( * ) SI_UNIT ( $, .STERADIAN. ) SOLID_ANGLE_UNIT ( ) );
#51 = EDGE_CURVE ( 'NONE', #175, #231, #285, .T. ) ;
#52 = SURFACE_STYLE_FILL_AREA ( #242 ) ;
#53 = FILL_AREA_STYLE_COLOUR ( '', #177 ) ;
#54 =( GEOMETRIC_REPRESENTATION_CONTEXT ( 3 ) GLOBAL_UNCERTAINTY_ASSIGNED_CONTEXT ( ( #135 ) ) GLOBAL_UNIT_ASSIGNED_CONTEXT ( ( #138, #304, #274 ) ) REPRESENTATION_CONTEXT ( 'NONE', 'WORKASPACE' ) );
#55 = PRESENTATION_STYLE_ASSIGNMENT (( #248 ) ) ;
#56 = SURFACE_SIDE_STYLE ('',( #62 ) ) ;
#57 = LINE ( 'NONE', #90, #328 ) ;
#58 = CARTESIAN_POINT ( 'NONE',  ( 1.214306433183764966E-14, 25.00000000000000000, 0.000000000000000000 ) ) ;
#59 = CARTESIAN_POINT ( 'NONE',  ( 0.000000000000000000, 0.000000000000000000, -4.500000000000000888 ) ) ;
#60 = COLOUR_RGB ( '',1.000000000000000000, 0.000000000000000000, 0.000000000000000000 ) ;
#61 = CIRCLE ( 'NONE', #269, 4.500000000000000888 ) ;
#62 = SURFACE_STYLE_FILL_AREA ( #195 ) ;
#63 = PRESENTATION_LAYER_ASSIGNMENT (  '', '', ( #101 ) ) ;
#64 = EDGE_CURVE ( 'NONE', #289, #203, #106, .T. ) ;
#65 = SURFACE_STYLE_USAGE ( .BOTH. , #297 ) ;
#66 = EDGE_LOOP ( 'NONE', ( #240, #298 ) ) ;
#67 = PRODUCT_CONTEXT ( 'NONE', #114, 'mechanical' ) ;
#68 =( GEOMETRIC_REPRESENTATION_CONTEXT ( 3 ) GLOBAL_UNCERTAINTY_ASSIGNED_CONTEXT ( ( #264 ) ) GLOBAL_UNIT_ASSIGNED_CONTEXT ( ( #131, #15, #11 ) ) REPRESENTATION_CONTEXT ( 'NONE', 'WORKASPACE' ) );
#69 =( NAMED_UNIT ( * ) SI_UNIT ( $, .STERADIAN. ) SOLID_ANGLE_UNIT ( ) );
#70 = MECHANICAL_DESIGN_GEOMETRIC_PRESENTATION_REPRESENTATION (  '', ( #101 ), #286 ) ;
#71 = EDGE_LOOP ( 'NONE', ( #160, #122 ) ) ;
#72 = CARTESIAN_POINT ( 'NONE',  ( 6.123233995736762930E-15, 75.00000000000000000, 0.000000000000000000 ) ) ;
#73 = DIRECTION ( 'NONE',  ( -0.000000000000000000, -1.000000000000000000, -0.000000000000000000 ) ) ;
#74 = VERTEX_POINT ( 'NONE', #347 ) ;
#75 = CIRCLE ( 'NONE', #79, 5.000000000000000888 ) ;
#76 =( GEOMETRIC_REPRESENTATION_CONTEXT ( 3 ) GLOBAL_UNCERTAINTY_ASSIGNED_CONTEXT ( ( #186 ) ) GLOBAL_UNIT_ASSIGNED_CONTEXT ( ( #222, #296, #321 ) ) REPRESENTATION_CONTEXT ( 'NONE', 'WORKASPACE' ) );
#77 =( NAMED_UNIT ( * ) PLANE_ANGLE_UNIT ( ) SI_UNIT ( $, .RADIAN. ) );
#78 = PRESENTATION_STYLE_ASSIGNMENT (( #189 ) ) ;
#79 = AXIS2_PLACEMENT_3D ( 'NONE', #357, #232, #156 ) ;
#80 = DIRECTION ( 'NONE',  ( -1.203966067220177465E-16, 1.000000000000000000, -0.000000000000000000 ) ) ;
#81 = AXIS2_PLACEMENT_3D ( 'NONE', #292, #234, #41 ) ;
#82 = FILL_AREA_STYLE_COLOUR ( '', #143 ) ;
#83 = UNCERTAINTY_MEASURE_WITH_UNIT (LENGTH_MEASURE( 1.000000000000000082E-05 ), #204, 'distance_accuracy_value', 'NONE');
#84 =( NAMED_UNIT ( * ) PLANE_ANGLE_UNIT ( ) SI_UNIT ( $, .RADIAN. ) );
#85 = CARTESIAN_POINT ( 'NONE',  ( 6.123233995736762930E-15, 75.00000000000000000, 0.000000000000000000 ) ) ;
#86 = EDGE_CURVE ( 'NONE', #206, #302, #150, .T. ) ;
#87 = MECHANICAL_DESIGN_GEOMETRIC_PRESENTATION_REPRESENTATION (  '', ( #227 ), #54 ) ;
#88 = TOROIDAL_SURFACE ( 'NONE', #255, 4.500000000000000888, 0.5000000000000002220 ) ;
#89 = DIRECTION ( 'NONE',  ( -1.203966067220177465E-16, 1.000000000000000000, 0.000000000000000000 ) ) ;
#90 = CARTESIAN_POINT ( 'NONE',  ( 0.000000000000000000, 0.000000000000000000, -5.000000000000000888 ) ) ;
#91 = DIRECTION ( 'NONE',  ( 0.000000000000000000, 0.000000000000000000, -1.000000000000000000 ) ) ;
#92 = SURFACE_SIDE_STYLE ('',( #165 ) ) ;
#93 = CARTESIAN_POINT ( 'NONE',  ( -4.999999999999984901, 75.00000000000000000, 0.000000000000000000 ) ) ;
#94 = PLANE ( 'NONE',  #152 ) ;
#95 = DIRECTION ( 'NONE',  ( -0.000000000000000000, -1.000000000000000000, -0.000000000000000000 ) ) ;
#96 = ADVANCED_FACE ( 'NONE', ( #2 ), #118, .T. ) ;
#97 = DIRECTION ( 'NONE',  ( -1.000000000000000000, 0.000000000000000000, 0.000000000000000000 ) ) ;
#98 = AXIS2_PLACEMENT_3D ( 'NONE', #151, #251, #225 ) ;
#99 = EDGE_LOOP ( 'NONE', ( #12, #180, #318, #207 ) ) ;
#100 = DIRECTION ( 'NONE',  ( 0.000000000000000000, 0.000000000000000000, -1.000000000000000000 ) ) ;
#101 = STYLED_ITEM ( 'NONE', ( #196 ), #309 ) ;
#102 = FILL_AREA_STYLE_COLOUR ( '', #25 ) ;
#103 = ORIENTED_EDGE ( 'NONE', *, *, #356, .T. ) ;
#104 = PRESENTATION_STYLE_ASSIGNMENT (( #334 ) ) ;
#105 = APPLICATION_PROTOCOL_DEFINITION ( 'draft international standard', 'automotive_design', 1998, #114 ) ;
#106 = CIRCLE ( 'NONE', #98, 5.000000000000000000 ) ;
#107 = APPLICATION_CONTEXT ( 'automotive_design' ) ;
#108 = FACE_OUTER_BOUND ( 'NONE', #353, .T. ) ;
#109 =( NAMED_UNIT ( * ) PLANE_ANGLE_UNIT ( ) SI_UNIT ( $, .RADIAN. ) );
#110 = SURFACE_SIDE_STYLE ('',( #52 ) ) ;
#111 = PRESENTATION_LAYER_ASSIGNMENT (  '', '', ( #188 ) ) ;
#112 = STYLED_ITEM ( 'NONE', ( #7 ), #366 ) ;
#113 =( NAMED_UNIT ( * ) SI_UNIT ( $, .STERADIAN. ) SOLID_ANGLE_UNIT ( ) );
#114 = APPLICATION_CONTEXT ( 'automotive_design' ) ;
#115 = DIRECTION ( 'NONE',  ( 0.000000000000000000, 0.000000000000000000, -1.000000000000000000 ) ) ;
#116 = DIRECTION ( 'NONE',  ( -1.000000000000000000, 0.000000000000000000, 0.000000000000000000 ) ) ;
#117 = SURFACE_STYLE_USAGE ( .BOTH. , #92 ) ;
#118 = CYLINDRICAL_SURFACE ( 'NONE', #363, 4.999999999999990230 ) ;
#119 = FILL_AREA_STYLE_COLOUR ( '', #244 ) ;
#120 = STYLED_ITEM ( 'NONE', ( #104 ), #221 ) ;
#121 = FACE_OUTER_BOUND ( 'NONE', #71, .T. ) ;
#122 = ORIENTED_EDGE ( 'NONE', *, *, #64, .F. ) ;
#123 = DIRECTION ( 'NONE',  ( 0.000000000000000000, 0.000000000000000000, -1.000000000000000000 ) ) ;
#124 = DIRECTION ( 'NONE',  ( 0.000000000000000000, -0.000000000000000000, 1.000000000000000000 ) ) ;
#125 = ORIENTED_EDGE ( 'NONE', *, *, #250, .F. ) ;
#126 = STYLED_ITEM ( 'NONE', ( #230 ), #211 ) ;
#127 = SURFACE_STYLE_FILL_AREA ( #236 ) ;
#128 = EDGE_CURVE ( 'NONE', #289, #175, #337, .T. ) ;
#129 = ORIENTED_EDGE ( 'NONE', *, *, #48, .F. ) ;
#130 = SHAPE_DEFINITION_REPRESENTATION ( #26, #214 ) ;
#131 =( LENGTH_UNIT ( ) NAMED_UNIT ( * ) SI_UNIT ( .MILLI., .METRE. ) );
#132 = ORIENTED_EDGE ( 'NONE', *, *, #128, .T. ) ;
#133 = FACE_OUTER_BOUND ( 'NONE', #331, .T. ) ;
#134 = ORIENTED_EDGE ( 'NONE', *, *, #37, .F. ) ;
#135 = UNCERTAINTY_MEASURE_WITH_UNIT (LENGTH_MEASURE( 1.000000000000000082E-05 ), #138, 'distance_accuracy_value', 'NONE');
#136 = PRODUCT_RELATED_PRODUCT_CATEGORY ( 'part', '', ( #153 ) ) ;
#137 = SURFACE_SIDE_STYLE ('',( #39 ) ) ;
#138 =( LENGTH_UNIT ( ) NAMED_UNIT ( * ) SI_UNIT ( .MILLI., .METRE. ) );
#139 = EDGE_LOOP ( 'NONE', ( #178, #322 ) ) ;
#140 =( NAMED_UNIT ( * ) SI_UNIT ( $, .STERADIAN. ) SOLID_ANGLE_UNIT ( ) );
#141 = SURFACE_STYLE_FILL_AREA ( #303 ) ;
#142 = FILL_AREA_STYLE_COLOUR ( '', #210 ) ;
#143 = COLOUR_RGB ( '',1.000000000000000000, 0.000000000000000000, 0.000000000000000000 ) ;
#144 =( NAMED_UNIT ( * ) SI_UNIT ( $, .STERADIAN. ) SOLID_ANGLE_UNIT ( ) );
#145 = FILL_AREA_STYLE_COLOUR ( '', #33 ) ;
#146 = PLANE ( 'NONE',  #172 ) ;
#147 = CARTESIAN_POINT ( 'NONE',  ( 0.000000000000000000, 0.000000000000000000, 0.000000000000000000 ) ) ;
#148 = CIRCLE ( 'NONE', #354, 4.999999999999993783 ) ;
#149 = DIRECTION ( 'NONE',  ( 1.000000000000000000, 0.000000000000000000, -1.224646799147353207E-16 ) ) ;
#150 = LINE ( 'NONE', #93, #254 ) ;
#151 = CARTESIAN_POINT ( 'NONE',  ( 0.000000000000000000, 25.00000000000000000, 0.000000000000000000 ) ) ;
#152 = AXIS2_PLACEMENT_3D ( 'NONE', #170, #219, #124 ) ;
#153 = PRODUCT ( '59555', '59555', '', ( #67 ) ) ;
#154 = FILL_AREA_STYLE ('',( #102 ) ) ;
#155 = EDGE_CURVE ( 'NONE', #74, #295, #9, .T. ) ;
#156 = DIRECTION ( 'NONE',  ( 0.000000000000000000, 0.000000000000000000, -1.000000000000000000 ) ) ;
#157 = PRESENTATION_LAYER_ASSIGNMENT (  '', '', ( #126 ) ) ;
#158 =( NAMED_UNIT ( * ) PLANE_ANGLE_UNIT ( ) SI_UNIT ( $, .RADIAN. ) );
#159 = CARTESIAN_POINT ( 'NONE',  ( 0.000000000000000000, 0.000000000000000000, 0.000000000000000000 ) ) ;
#160 = ORIENTED_EDGE ( 'NONE', *, *, #28, .F. ) ;
#161 = ADVANCED_FACE ( 'NONE', ( #29 ), #146, .F. ) ;
#162 = CLOSED_SHELL ( 'NONE', ( #190, #335, #96, #161 ) ) ;
#163 = STYLED_ITEM ( 'NONE', ( #265 ), #200 ) ;
#164 = FACE_OUTER_BOUND ( 'NONE', #245, .T. ) ;
#165 = SURFACE_STYLE_FILL_AREA ( #336 ) ;
#166 =( GEOMETRIC_REPRESENTATION_CONTEXT ( 3 ) GLOBAL_UNCERTAINTY_ASSIGNED_CONTEXT ( ( #191 ) ) GLOBAL_UNIT_ASSIGNED_CONTEXT ( ( #368, #77, #50 ) ) REPRESENTATION_CONTEXT ( 'NONE', 'WORKASPACE' ) );
#167 = EDGE_LOOP ( 'NONE', ( #326, #202, #134, #40 ) ) ;
#168 = FACE_OUTER_BOUND ( 'NONE', #361, .T. ) ;
#169 = CARTESIAN_POINT ( 'NONE',  ( 5.000000000000000888, 25.00000000000000000, 6.123233995736757408E-16 ) ) ;
#170 = CARTESIAN_POINT ( 'NONE',  ( 0.000000000000000000, 25.00000000000000000, 0.000000000000000000 ) ) ;
#171 = PRESENTATION_LAYER_ASSIGNMENT (  '', '', ( #163 ) ) ;
#172 = AXIS2_PLACEMENT_3D ( 'NONE', #253, #19, #314 ) ;
#173 = AXIS2_PLACEMENT_3D ( 'NONE', #198, #30, #32 ) ;
#174 = ORIENTED_EDGE ( 'NONE', *, *, #51, .F. ) ;
#175 = VERTEX_POINT ( 'NONE', #317 ) ;
#176 = MECHANICAL_DESIGN_GEOMETRIC_PRESENTATION_REPRESENTATION (  '', ( #163 ), #68 ) ;
#177 = COLOUR_RGB ( '',1.000000000000000000, 0.000000000000000000, 0.000000000000000000 ) ;
#178 = ORIENTED_EDGE ( 'NONE', *, *, #37, .T. ) ;
#179 = CARTESIAN_POINT ( 'NONE',  ( -4.999999999999976019, 25.00000000000000000, 0.000000000000000000 ) ) ;
#180 = ORIENTED_EDGE ( 'NONE', *, *, #64, .T. ) ;
#181 = FACE_OUTER_BOUND ( 'NONE', #99, .T. ) ;
#182 = MANIFOLD_SOLID_BREP ( 'Revolve - Cutting Edge', #319 ) ;
#183 = ORIENTED_EDGE ( 'NONE', *, *, #28, .T. ) ;
#184 = DIRECTION ( 'NONE',  ( 0.000000000000000000, -1.000000000000000000, -0.000000000000000000 ) ) ;
#185 = EDGE_CURVE ( 'NONE', #175, #74, #75, .T. ) ;
#186 = UNCERTAINTY_MEASURE_WITH_UNIT (LENGTH_MEASURE( 1.000000000000000082E-05 ), #222, 'distance_accuracy_value', 'NONE');
#187 = VECTOR ( 'NONE', #192, 1000.000000000000000 ) ;
#188 = STYLED_ITEM ( 'NONE', ( #13 ), #182 ) ;
#189 = SURFACE_STYLE_USAGE ( .BOTH. , #330 ) ;
#190 = ADVANCED_FACE ( 'NONE', ( #260 ), #299, .T. ) ;
#191 = UNCERTAINTY_MEASURE_WITH_UNIT (LENGTH_MEASURE( 1.000000000000000082E-05 ), #368, 'distance_accuracy_value', 'NONE');
#192 = DIRECTION ( 'NONE',  ( -1.203966067220177465E-16, 1.000000000000000000, -0.000000000000000000 ) ) ;
#193 = DIRECTION ( 'NONE',  ( 0.000000000000000000, 0.000000000000000000, -1.000000000000000000 ) ) ;
#194 = DIRECTION ( 'NONE',  ( -1.000000000000000000, 0.000000000000000000, 0.000000000000000000 ) ) ;
#195 = FILL_AREA_STYLE ('',( #119 ) ) ;
#196 = PRESENTATION_STYLE_ASSIGNMENT (( #117 ) ) ;
#197 = DIRECTION ( 'NONE',  ( -1.203966067220177465E-16, 1.000000000000000000, -0.000000000000000000 ) ) ;
#198 = CARTESIAN_POINT ( 'NONE',  ( 1.214306433183764966E-14, 25.00000000000000000, 0.000000000000000000 ) ) ;
#199 = LINE ( 'NONE', #38, #187 ) ;
#200 = ADVANCED_FACE ( 'NONE', ( #181 ), #8, .T. ) ;
#201 = SURFACE_STYLE_USAGE ( .BOTH. , #229 ) ;
#202 = ORIENTED_EDGE ( 'NONE', *, *, #48, .T. ) ;
#203 = VERTEX_POINT ( 'NONE', #352 ) ;
#204 =( LENGTH_UNIT ( ) NAMED_UNIT ( * ) SI_UNIT ( .MILLI., .METRE. ) );
#205 = DIRECTION ( 'NONE',  ( -1.000000000000000000, 0.000000000000000000, 0.000000000000000000 ) ) ;
#206 = VERTEX_POINT ( 'NONE', #179 ) ;
#207 = ORIENTED_EDGE ( 'NONE', *, *, #185, .F. ) ;
#208 =( NAMED_UNIT ( * ) PLANE_ANGLE_UNIT ( ) SI_UNIT ( $, .RADIAN. ) );
#209 =( LENGTH_UNIT ( ) NAMED_UNIT ( * ) SI_UNIT ( .MILLI., .METRE. ) );
#210 = COLOUR_RGB ( '',1.000000000000000000, 0.000000000000000000, 0.000000000000000000 ) ;
#211 = ADVANCED_FACE ( 'NONE', ( #133 ), #367, .T. ) ;
#212 = DIRECTION ( 'NONE',  ( 0.000000000000000000, 0.000000000000000000, -1.000000000000000000 ) ) ;
#213 = ORIENTED_EDGE ( 'NONE', *, *, #215, .T. ) ;
#214 = ADVANCED_BREP_SHAPE_REPRESENTATION ( '59555', ( #182, #309, #81 ), #36 ) ;
#215 = EDGE_CURVE ( 'NONE', #74, #175, #243, .T. ) ;
#216 = AXIS2_PLACEMENT_3D ( 'NONE', #4, #149, #35 ) ;
#217 = AXIS2_PLACEMENT_3D ( 'NONE', #58, #89, #345 ) ;
#218 = DIRECTION ( 'NONE',  ( -1.000000000000000000, 0.000000000000000000, 0.000000000000000000 ) ) ;
#219 = DIRECTION ( 'NONE',  ( 0.000000000000000000, 1.000000000000000000, 0.000000000000000000 ) ) ;
#220 = DIRECTION ( 'NONE',  ( -0.000000000000000000, -1.000000000000000000, -0.000000000000000000 ) ) ;
#221 = ADVANCED_FACE ( 'NONE', ( #108 ), #246, .T. ) ;
#222 =( LENGTH_UNIT ( ) NAMED_UNIT ( * ) SI_UNIT ( .MILLI., .METRE. ) );
#223 = FACE_OUTER_BOUND ( 'NONE', #66, .T. ) ;
#224 = CARTESIAN_POINT ( 'NONE',  ( 6.123233995736766282E-16, 25.00000000000000000, 5.000000000000000000 ) ) ;
#225 = DIRECTION ( 'NONE',  ( 0.000000000000000000, 0.000000000000000000, -1.000000000000000000 ) ) ;
#226 = DIRECTION ( 'NONE',  ( -0.000000000000000000, -1.000000000000000000, -0.000000000000000000 ) ) ;
#227 = STYLED_ITEM ( 'NONE', ( #78 ), #263 ) ;
#228 = AXIS2_PLACEMENT_3D ( 'NONE', #277, #287, #123 ) ;
#229 = SURFACE_SIDE_STYLE ('',( #127 ) ) ;
#230 = PRESENTATION_STYLE_ASSIGNMENT (( #201 ) ) ;
#231 = VERTEX_POINT ( 'NONE', #24 ) ;
#232 = DIRECTION ( 'NONE',  ( -0.000000000000000000, -1.000000000000000000, -0.000000000000000000 ) ) ;
#233 = ORIENTED_EDGE ( 'NONE', *, *, #284, .T. ) ;
#234 = DIRECTION ( 'NONE',  ( 0.000000000000000000, 0.000000000000000000, 1.000000000000000000 ) ) ;
#235 = MECHANICAL_DESIGN_GEOMETRIC_PRESENTATION_REPRESENTATION (  '', ( #188 ), #355 ) ;
#236 = FILL_AREA_STYLE ('',( #46 ) ) ;
#237 = ORIENTED_EDGE ( 'NONE', *, *, #155, .F. ) ;
#238 = FILL_AREA_STYLE_COLOUR ( '', #320 ) ;
#239 = PRODUCT_DEFINITION_CONTEXT ( 'detailed design', #107, 'design' ) ;
#240 = ORIENTED_EDGE ( 'NONE', *, *, #323, .F. ) ;
#241 = CARTESIAN_POINT ( 'NONE',  ( 0.000000000000000000, 0.000000000000000000, 0.000000000000000000 ) ) ;
#242 = FILL_AREA_STYLE ('',( #142 ) ) ;
#243 = CIRCLE ( 'NONE', #261, 5.000000000000000888 ) ;
#244 = COLOUR_RGB ( '',1.000000000000000000, 0.000000000000000000, 0.000000000000000000 ) ;
#245 = EDGE_LOOP ( 'NONE', ( #213, #47, #259, #237 ) ) ;
#246 = PLANE ( 'NONE',  #45 ) ;
#247 = AXIS2_PLACEMENT_3D ( 'NONE', #72, #325, #97 ) ;
#248 = SURFACE_STYLE_USAGE ( .BOTH. , #278 ) ;
#249 = AXIS2_PLACEMENT_3D ( 'NONE', #241, #267, #100 ) ;
#250 = EDGE_CURVE ( 'NONE', #344, #302, #300, .T. ) ;
#251 = DIRECTION ( 'NONE',  ( -0.000000000000000000, -1.000000000000000000, -0.000000000000000000 ) ) ;
#252 =( LENGTH_UNIT ( ) NAMED_UNIT ( * ) SI_UNIT ( .MILLI., .METRE. ) );
#253 = CARTESIAN_POINT ( 'NONE',  ( 5.000000000000000000, 75.00000000000000000, 0.000000000000000000 ) ) ;
#254 = VECTOR ( 'NONE', #197, 1000.000000000000000 ) ;
#255 = AXIS2_PLACEMENT_3D ( 'NONE', #258, #5, #115 ) ;
#256 = PLANE ( 'NONE',  #217 ) ;
#257 = PRODUCT_DEFINITION ( 'UNKNOWN', '', #310, #239 ) ;
#258 = CARTESIAN_POINT ( 'NONE',  ( 0.000000000000000000, 0.5000000000000000000, 0.000000000000000000 ) ) ;
#259 = ORIENTED_EDGE ( 'NONE', *, *, #356, .F. ) ;
#260 = FACE_OUTER_BOUND ( 'NONE', #167, .T. ) ;
#261 = AXIS2_PLACEMENT_3D ( 'NONE', #301, #332, #365 ) ;
#262 =( NAMED_UNIT ( * ) SI_UNIT ( $, .STERADIAN. ) SOLID_ANGLE_UNIT ( ) );
#263 = ADVANCED_FACE ( 'NONE', ( #164 ), #88, .T. ) ;
#264 = UNCERTAINTY_MEASURE_WITH_UNIT (LENGTH_MEASURE( 1.000000000000000082E-05 ), #131, 'distance_accuracy_value', 'NONE');
#265 = PRESENTATION_STYLE_ASSIGNMENT (( #65 ) ) ;
#266 = ORIENTED_EDGE ( 'NONE', *, *, #155, .T. ) ;
#267 = DIRECTION ( 'NONE',  ( -0.000000000000000000, -1.000000000000000000, -0.000000000000000000 ) ) ;
#268 =( GEOMETRIC_REPRESENTATION_CONTEXT ( 3 ) GLOBAL_UNCERTAINTY_ASSIGNED_CONTEXT ( ( #10 ) ) GLOBAL_UNIT_ASSIGNED_CONTEXT ( ( #209, #109, #113 ) ) REPRESENTATION_CONTEXT ( 'NONE', 'WORKASPACE' ) );
#269 = AXIS2_PLACEMENT_3D ( 'NONE', #147, #95, #193 ) ;
#270 = SURFACE_STYLE_USAGE ( .BOTH. , #137 ) ;
#271 = EDGE_CURVE ( 'NONE', #231, #295, #294, .T. ) ;
#272 = ORIENTED_EDGE ( 'NONE', *, *, #271, .F. ) ;
#273 = CARTESIAN_POINT ( 'NONE',  ( 0.000000000000000000, 0.5000000000000000000, 0.000000000000000000 ) ) ;
#274 =( NAMED_UNIT ( * ) SI_UNIT ( $, .STERADIAN. ) SOLID_ANGLE_UNIT ( ) );
#275 = AXIS2_PLACEMENT_3D ( 'NONE', #49, #80, #218 ) ;
#276 = STYLED_ITEM ( 'NONE', ( #55 ), #316 ) ;
#277 = CARTESIAN_POINT ( 'NONE',  ( 0.000000000000000000, 0.000000000000000000, 0.000000000000000000 ) ) ;
#278 = SURFACE_SIDE_STYLE ('',( #306 ) ) ;
#279 = AXIS2_PLACEMENT_3D ( 'NONE', #349, #73, #42 ) ;
#280 = MECHANICAL_DESIGN_GEOMETRIC_PRESENTATION_REPRESENTATION (  '', ( #112 ), #364 ) ;
#281 = EDGE_CURVE ( 'NONE', #203, #74, #57, .T. ) ;
#282 = CARTESIAN_POINT ( 'NONE',  ( 6.123233995736762930E-15, 75.00000000000000000, 0.000000000000000000 ) ) ;
#283 = DIRECTION ( 'NONE',  ( 0.000000000000000000, 0.000000000000000000, 1.000000000000000000 ) ) ;
#284 = EDGE_CURVE ( 'NONE', #43, #206, #305, .T. ) ;
#285 = CIRCLE ( 'NONE', #216, 0.5000000000000004441 ) ;
#286 =( GEOMETRIC_REPRESENTATION_CONTEXT ( 3 ) GLOBAL_UNCERTAINTY_ASSIGNED_CONTEXT ( ( #329 ) ) GLOBAL_UNIT_ASSIGNED_CONTEXT ( ( #252, #84, #144 ) ) REPRESENTATION_CONTEXT ( 'NONE', 'WORKASPACE' ) );
#287 = DIRECTION ( 'NONE',  ( -0.000000000000000000, -1.000000000000000000, -0.000000000000000000 ) ) ;
#288 =( LENGTH_UNIT ( ) NAMED_UNIT ( * ) SI_UNIT ( .MILLI., .METRE. ) );
#289 = VERTEX_POINT ( 'NONE', #224 ) ;
#290 = FILL_AREA_STYLE ('',( #238 ) ) ;
#291 = ORIENTED_EDGE ( 'NONE', *, *, #86, .T. ) ;
#292 = CARTESIAN_POINT ( 'NONE',  ( 0.000000000000000000, 0.000000000000000000, 0.000000000000000000 ) ) ;
#293 = MECHANICAL_DESIGN_GEOMETRIC_PRESENTATION_REPRESENTATION (  '', ( #126 ), #268 ) ;
#294 = CIRCLE ( 'NONE', #228, 4.500000000000000888 ) ;
#295 = VERTEX_POINT ( 'NONE', #59 ) ;
#296 =( NAMED_UNIT ( * ) PLANE_ANGLE_UNIT ( ) SI_UNIT ( $, .RADIAN. ) );
#297 = SURFACE_SIDE_STYLE ('',( #360 ) ) ;
#298 = ORIENTED_EDGE ( 'NONE', *, *, #284, .F. ) ;
#299 = CYLINDRICAL_SURFACE ( 'NONE', #247, 4.999999999999990230 ) ;
#300 = CIRCLE ( 'NONE', #275, 4.999999999999993783 ) ;
#301 = CARTESIAN_POINT ( 'NONE',  ( 0.000000000000000000, 0.5000000000000000000, 0.000000000000000000 ) ) ;
#302 = VERTEX_POINT ( 'NONE', #343 ) ;
#303 = FILL_AREA_STYLE ('',( #82 ) ) ;
#304 =( NAMED_UNIT ( * ) PLANE_ANGLE_UNIT ( ) SI_UNIT ( $, .RADIAN. ) );
#305 = CIRCLE ( 'NONE', #342, 4.999999999999987566 ) ;
#306 = SURFACE_STYLE_FILL_AREA ( #351 ) ;
#307 = MECHANICAL_DESIGN_GEOMETRIC_PRESENTATION_REPRESENTATION (  '', ( #120 ), #166 ) ;
#308 = CARTESIAN_POINT ( 'NONE',  ( 6.123233995736767268E-16, 0.000000000000000000, 5.000000000000000888 ) ) ;
#309 = MANIFOLD_SOLID_BREP ( 'Revolve - Tool Body (Straight Shanked)', #162 ) ;
#310 = PRODUCT_DEFINITION_FORMATION_WITH_SPECIFIED_SOURCE ( 'ANY', '', #153, .NOT_KNOWN. ) ;
#311 = DIRECTION ( 'NONE',  ( -1.203966067220177465E-16, 1.000000000000000000, -0.000000000000000000 ) ) ;
#312 = VECTOR ( 'NONE', #220, 1000.000000000000000 ) ;
#313 = MECHANICAL_DESIGN_GEOMETRIC_PRESENTATION_REPRESENTATION (  '', ( #276 ), #76 ) ;
#314 = DIRECTION ( 'NONE',  ( 1.000000000000000000, 1.203966067220177465E-16, 0.000000000000000000 ) ) ;
#315 = ORIENTED_EDGE ( 'NONE', *, *, #215, .F. ) ;
#316 = ADVANCED_FACE ( 'NONE', ( #121 ), #94, .T. ) ;
#317 = CARTESIAN_POINT ( 'NONE',  ( 6.123233995736766282E-16, 0.5000000000000000000, 5.000000000000000888 ) ) ;
#318 = ORIENTED_EDGE ( 'NONE', *, *, #281, .T. ) ;
#319 = CLOSED_SHELL ( 'NONE', ( #366, #263, #221, #211, #200, #316 ) ) ;
#320 = COLOUR_RGB ( '',1.000000000000000000, 0.000000000000000000, 0.000000000000000000 ) ;
#321 =( NAMED_UNIT ( * ) SI_UNIT ( $, .STERADIAN. ) SOLID_ANGLE_UNIT ( ) );
#322 = ORIENTED_EDGE ( 'NONE', *, *, #250, .T. ) ;
#323 = EDGE_CURVE ( 'NONE', #206, #43, #333, .T. ) ;
#324 = ORIENTED_EDGE ( 'NONE', *, *, #281, .F. ) ;
#325 = DIRECTION ( 'NONE',  ( -1.203966067220177465E-16, 1.000000000000000000, -0.000000000000000000 ) ) ;
#326 = ORIENTED_EDGE ( 'NONE', *, *, #323, .T. ) ;
#327 = PRESENTATION_LAYER_ASSIGNMENT (  '', '', ( #227 ) ) ;
#328 = VECTOR ( 'NONE', #346, 1000.000000000000000 ) ;
#329 = UNCERTAINTY_MEASURE_WITH_UNIT (LENGTH_MEASURE( 1.000000000000000082E-05 ), #252, 'distance_accuracy_value', 'NONE');
#330 = SURFACE_SIDE_STYLE ('',( #141 ) ) ;
#331 = EDGE_LOOP ( 'NONE', ( #174, #350, #266, #272 ) ) ;
#332 = DIRECTION ( 'NONE',  ( -0.000000000000000000, -1.000000000000000000, -0.000000000000000000 ) ) ;
#333 = CIRCLE ( 'NONE', #173, 4.999999999999987566 ) ;
#334 = SURFACE_STYLE_USAGE ( .BOTH. , #110 ) ;
#335 = ADVANCED_FACE ( 'NONE', ( #223 ), #256, .F. ) ;
#336 = FILL_AREA_STYLE ('',( #145 ) ) ;
#337 = LINE ( 'NONE', #308, #312 ) ;
#338 = CARTESIAN_POINT ( 'NONE',  ( 5.000000000000000888, 75.00000000000000000, 6.123233995736757408E-16 ) ) ;
#339 = AXIS2_PLACEMENT_3D ( 'NONE', #273, #362, #212 ) ;
#340 = CARTESIAN_POINT ( 'NONE',  ( 0.000000000000000000, 0.5000000000000000000, -4.500000000000000888 ) ) ;
#341 = SURFACE_STYLE_USAGE ( .BOTH. , #56 ) ;
#342 = AXIS2_PLACEMENT_3D ( 'NONE', #1, #34, #205 ) ;
#343 = CARTESIAN_POINT ( 'NONE',  ( -4.999999999999987566, 75.00000000000000000, 0.000000000000000000 ) ) ;
#344 = VERTEX_POINT ( 'NONE', #338 ) ;
#345 = DIRECTION ( 'NONE',  ( -1.000000000000000000, -1.203966067220177465E-16, 0.000000000000000000 ) ) ;
#346 = DIRECTION ( 'NONE',  ( -0.000000000000000000, -1.000000000000000000, -0.000000000000000000 ) ) ;
#347 = CARTESIAN_POINT ( 'NONE',  ( 0.000000000000000000, 0.5000000000000000000, -5.000000000000000888 ) ) ;
#348 =( LENGTH_UNIT ( ) NAMED_UNIT ( * ) SI_UNIT ( .MILLI., .METRE. ) );
#349 = CARTESIAN_POINT ( 'NONE',  ( 0.000000000000000000, 0.000000000000000000, 0.000000000000000000 ) ) ;
#350 = ORIENTED_EDGE ( 'NONE', *, *, #185, .T. ) ;
#351 = FILL_AREA_STYLE ('',( #53 ) ) ;
#352 = CARTESIAN_POINT ( 'NONE',  ( 0.000000000000000000, 25.00000000000000000, -5.000000000000000000 ) ) ;
#353 = EDGE_LOOP ( 'NONE', ( #103, #358 ) ) ;
#354 = AXIS2_PLACEMENT_3D ( 'NONE', #282, #311, #31 ) ;
#355 =( GEOMETRIC_REPRESENTATION_CONTEXT ( 3 ) GLOBAL_UNCERTAINTY_ASSIGNED_CONTEXT ( ( #21 ) ) GLOBAL_UNIT_ASSIGNED_CONTEXT ( ( #348, #208, #262 ) ) REPRESENTATION_CONTEXT ( 'NONE', 'WORKASPACE' ) );
#356 = EDGE_CURVE ( 'NONE', #295, #231, #61, .T. ) ;
#357 = CARTESIAN_POINT ( 'NONE',  ( 0.000000000000000000, 0.5000000000000000000, 0.000000000000000000 ) ) ;
#358 = ORIENTED_EDGE ( 'NONE', *, *, #271, .T. ) ;
#359 = UNCERTAINTY_MEASURE_WITH_UNIT (LENGTH_MEASURE( 1.000000000000000082E-05 ), #288, 'distance_accuracy_value', 'NONE');
#360 = SURFACE_STYLE_FILL_AREA ( #290 ) ;
#361 = EDGE_LOOP ( 'NONE', ( #183, #132, #315, #324 ) ) ;
#362 = DIRECTION ( 'NONE',  ( -0.000000000000000000, -1.000000000000000000, -0.000000000000000000 ) ) ;
#363 = AXIS2_PLACEMENT_3D ( 'NONE', #85, #370, #116 ) ;
#364 =( GEOMETRIC_REPRESENTATION_CONTEXT ( 3 ) GLOBAL_UNCERTAINTY_ASSIGNED_CONTEXT ( ( #359 ) ) GLOBAL_UNIT_ASSIGNED_CONTEXT ( ( #288, #44, #140 ) ) REPRESENTATION_CONTEXT ( 'NONE', 'WORKASPACE' ) );
#365 = DIRECTION ( 'NONE',  ( 0.000000000000000000, 0.000000000000000000, -1.000000000000000000 ) ) ;
#366 = ADVANCED_FACE ( 'NONE', ( #168 ), #27, .T. ) ;
#367 = TOROIDAL_SURFACE ( 'NONE', #339, 4.500000000000000888, 0.5000000000000002220 ) ;
#368 =( LENGTH_UNIT ( ) NAMED_UNIT ( * ) SI_UNIT ( .MILLI., .METRE. ) );
#369 = PRESENTATION_LAYER_ASSIGNMENT (  '', '', ( #112 ) ) ;
#370 = DIRECTION ( 'NONE',  ( -1.203966067220177465E-16, 1.000000000000000000, -0.000000000000000000 ) ) ;
ENDSEC;
END-ISO-10303-21;
