ISO-10303-21;
HEADER;
FILE_DESCRIPTION (( 'STEP AP214' ),
    '1' );
FILE_NAME ('84308.STEP',
    '2023-06-23T12:16:38',
    ( '' ),
    ( '' ),
    'SwSTEP 2.0',
    'SolidWorks 2023',
    '' );
FILE_SCHEMA (( 'AUTOMOTIVE_DESIGN' ));
ENDSEC;

DATA;
#1 = AXIS2_PLACEMENT_3D ( 'NONE', #242, #96, #192 ) ;
#2 = FACE_OUTER_BOUND ( 'NONE', #262, .T. ) ;
#3 = UNCERTAINTY_MEASURE_WITH_UNIT (LENGTH_MEASURE( 1.000000000000000082E-05 ), #151, 'distance_accuracy_value', 'NONE');
#4 = DIRECTION ( 'NONE',  ( -1.000000000000000000, 0.000000000000000000, 0.000000000000000000 ) ) ;
#5 = MANIFOLD_SOLID_BREP ( 'Revolve - Cutting Edge', #227 ) ;
#6 = FACE_OUTER_BOUND ( 'NONE', #189, .T. ) ;
#7 = FILL_AREA_STYLE ('',( #132 ) ) ;
#8 = MANIFOLD_SOLID_BREP ( 'Revolve - Tool Body (Straight Shanked)', #58 ) ;
#9 = CARTESIAN_POINT ( 'NONE',  ( -0.1875000000000002776, 3.000000000000000444, 0.000000000000000000 ) ) ;
#10 = PRODUCT_DEFINITION_FORMATION_WITH_SPECIFIED_SOURCE ( 'ANY', '', #115, .NOT_KNOWN. ) ;
#11 = PRESENTATION_LAYER_ASSIGNMENT (  '', '', ( #120 ) ) ;
#12 = CARTESIAN_POINT ( 'NONE',  ( 0.1875000000000000278, 3.000000000000000444, 2.296212748401288650E-17 ) ) ;
#13 = EDGE_LOOP ( 'NONE', ( #260, #184, #278, #210 ) ) ;
#14 = CARTESIAN_POINT ( 'NONE',  ( 2.296212748401287726E-17, 1.000000000000000000, 0.1875000000000000278 ) ) ;
#15 = ORIENTED_EDGE ( 'NONE', *, *, #103, .T. ) ;
#16 = LINE ( 'NONE', #212, #284 ) ;
#17 = CIRCLE ( 'NONE', #199, 0.1875000000000000278 ) ;
#18 = FILL_AREA_STYLE_COLOUR ( '', #186 ) ;
#19 = DIRECTION ( 'NONE',  ( 0.000000000000000000, 1.000000000000000000, 0.000000000000000000 ) ) ;
#20 =( CONVERSION_BASED_UNIT ( 'INCH', #238 ) LENGTH_UNIT ( ) NAMED_UNIT ( #285 ) );
#21 = LENGTH_MEASURE_WITH_UNIT ( LENGTH_MEASURE( 0.02539999999999999897 ), #241 );
#22 = EDGE_CURVE ( 'NONE', #236, #136, #49, .T. ) ;
#23 = AXIS2_PLACEMENT_3D ( 'NONE', #104, #223, #78 ) ;
#24 = EDGE_CURVE ( 'NONE', #280, #83, #45, .T. ) ;
#25 = CARTESIAN_POINT ( 'NONE',  ( 0.000000000000000000, 0.000000000000000000, 0.000000000000000000 ) ) ;
#26 = VECTOR ( 'NONE', #139, 39.37007874015748143 ) ;
#27 = EDGE_CURVE ( 'NONE', #81, #234, #293, .T. ) ;
#28 = APPLICATION_PROTOCOL_DEFINITION ( 'draft international standard', 'automotive_design', 1998, #247 ) ;
#29 = DIRECTION ( 'NONE',  ( -6.123233995736769734E-17, 1.000000000000000000, -0.000000000000000000 ) ) ;
#30 = UNCERTAINTY_MEASURE_WITH_UNIT (LENGTH_MEASURE( 1.000000000000000082E-05 ), #294, 'distance_accuracy_value', 'NONE');
#31 = FILL_AREA_STYLE ('',( #196 ) ) ;
#32 = SURFACE_STYLE_USAGE ( .BOTH. , #178 ) ;
#33 =( GEOMETRIC_REPRESENTATION_CONTEXT ( 3 ) GLOBAL_UNCERTAINTY_ASSIGNED_CONTEXT ( ( #3 ) ) GLOBAL_UNIT_ASSIGNED_CONTEXT ( ( #151, #176, #266 ) ) REPRESENTATION_CONTEXT ( 'NONE', 'WORKASPACE' ) );
#34 =( NAMED_UNIT ( * ) SI_UNIT ( $, .STERADIAN. ) SOLID_ANGLE_UNIT ( ) );
#35 = CARTESIAN_POINT ( 'NONE',  ( 0.000000000000000000, 0.000000000000000000, 0.000000000000000000 ) ) ;
#36 =( CONVERSION_BASED_UNIT ( 'INCH', #185 ) LENGTH_UNIT ( ) NAMED_UNIT ( #61 ) );
#37 = ORIENTED_EDGE ( 'NONE', *, *, #24, .T. ) ;
#38 = CARTESIAN_POINT ( 'NONE',  ( 2.296212748401287726E-17, 0.000000000000000000, 0.1875000000000000278 ) ) ;
#39 = EDGE_LOOP ( 'NONE', ( #160, #142 ) ) ;
#40 = ADVANCED_FACE ( 'NONE', ( #173 ), #127, .T. ) ;
#41 = MECHANICAL_DESIGN_GEOMETRIC_PRESENTATION_REPRESENTATION (  '', ( #100 ), #66 ) ;
#42 = DIMENSIONAL_EXPONENTS ( 1.000000000000000000, 0.000000000000000000, 0.000000000000000000, 0.000000000000000000, 0.000000000000000000, 0.000000000000000000, 0.000000000000000000 ) ;
#43 = DIRECTION ( 'NONE',  ( 1.000000000000000000, 0.000000000000000000, 0.000000000000000000 ) ) ;
#44 =( NAMED_UNIT ( * ) PLANE_ANGLE_UNIT ( ) SI_UNIT ( $, .RADIAN. ) );
#45 = CIRCLE ( 'NONE', #172, 0.1875000000000000278 ) ;
#46 =( NAMED_UNIT ( * ) SI_UNIT ( $, .STERADIAN. ) SOLID_ANGLE_UNIT ( ) );
#47 = FILL_AREA_STYLE_COLOUR ( '', #229 ) ;
#48 = UNCERTAINTY_MEASURE_WITH_UNIT (LENGTH_MEASURE( 1.000000000000000082E-05 ), #201, 'distance_accuracy_value', 'NONE');
#49 = CIRCLE ( 'NONE', #128, 0.1875000000000001388 ) ;
#50 = CARTESIAN_POINT ( 'NONE',  ( -0.1875000000000000278, 1.000000000000000000, 0.000000000000000000 ) ) ;
#51 = UNCERTAINTY_MEASURE_WITH_UNIT (LENGTH_MEASURE( 1.000000000000000082E-05 ), #70, 'distance_accuracy_value', 'NONE');
#52 = CARTESIAN_POINT ( 'NONE',  ( -1.224646799147353700E-16, 3.000000000000000444, 0.000000000000000000 ) ) ;
#53 = DIRECTION ( 'NONE',  ( 0.000000000000000000, 0.000000000000000000, -1.000000000000000000 ) ) ;
#54 = MECHANICAL_DESIGN_GEOMETRIC_PRESENTATION_REPRESENTATION (  '', ( #120 ), #33 ) ;
#55 = DIRECTION ( 'NONE',  ( -1.000000000000000000, 0.000000000000000000, 0.000000000000000000 ) ) ;
#56 = DIRECTION ( 'NONE',  ( -6.123233995736769734E-17, 1.000000000000000000, -0.000000000000000000 ) ) ;
#57 = PRESENTATION_STYLE_ASSIGNMENT (( #279 ) ) ;
#58 = CLOSED_SHELL ( 'NONE', ( #90, #204, #79, #298 ) ) ;
#59 = DIRECTION ( 'NONE',  ( -0.000000000000000000, -1.000000000000000000, -0.000000000000000000 ) ) ;
#60 = ORIENTED_EDGE ( 'NONE', *, *, #24, .F. ) ;
#61 = DIMENSIONAL_EXPONENTS ( 1.000000000000000000, 0.000000000000000000, 0.000000000000000000, 0.000000000000000000, 0.000000000000000000, 0.000000000000000000, 0.000000000000000000 ) ;
#62 = PLANE ( 'NONE',  #233 ) ;
#63 = ORIENTED_EDGE ( 'NONE', *, *, #68, .T. ) ;
#64 = FACE_OUTER_BOUND ( 'NONE', #255, .T. ) ;
#65 =( LENGTH_UNIT ( ) NAMED_UNIT ( * ) SI_UNIT ( $, .METRE. ) );
#66 =( GEOMETRIC_REPRESENTATION_CONTEXT ( 3 ) GLOBAL_UNCERTAINTY_ASSIGNED_CONTEXT ( ( #48 ) ) GLOBAL_UNIT_ASSIGNED_CONTEXT ( ( #201, #135, #209 ) ) REPRESENTATION_CONTEXT ( 'NONE', 'WORKASPACE' ) );
#67 = ORIENTED_EDGE ( 'NONE', *, *, #27, .T. ) ;
#68 = EDGE_CURVE ( 'NONE', #136, #236, #137, .T. ) ;
#69 = FILL_AREA_STYLE ('',( #290 ) ) ;
#70 =( CONVERSION_BASED_UNIT ( 'INCH', #197 ) LENGTH_UNIT ( ) NAMED_UNIT ( #84 ) );
#71 = CARTESIAN_POINT ( 'NONE',  ( 3.032960542342103792E-32, 1.000000000000000000, 0.000000000000000000 ) ) ;
#72 = AXIS2_PLACEMENT_3D ( 'NONE', #246, #131, #244 ) ;
#73 = SURFACE_STYLE_FILL_AREA ( #69 ) ;
#74 = ADVANCED_FACE ( 'NONE', ( #2 ), #286, .T. ) ;
#75 = DIRECTION ( 'NONE',  ( -6.123233995736769734E-17, 1.000000000000000000, -0.000000000000000000 ) ) ;
#76 =( NAMED_UNIT ( * ) PLANE_ANGLE_UNIT ( ) SI_UNIT ( $, .RADIAN. ) );
#77 = VECTOR ( 'NONE', #232, 39.37007874015748143 ) ;
#78 = DIRECTION ( 'NONE',  ( 0.000000000000000000, 0.000000000000000000, -1.000000000000000000 ) ) ;
#79 = ADVANCED_FACE ( 'NONE', ( #102 ), #130, .T. ) ;
#80 = ADVANCED_BREP_SHAPE_REPRESENTATION ( '84308', ( #5, #8, #291 ), #149 ) ;
#81 = VERTEX_POINT ( 'NONE', #226 ) ;
#82 = DIRECTION ( 'NONE',  ( 0.000000000000000000, 0.000000000000000000, -1.000000000000000000 ) ) ;
#83 = VERTEX_POINT ( 'NONE', #50 ) ;
#84 = DIMENSIONAL_EXPONENTS ( 1.000000000000000000, 0.000000000000000000, 0.000000000000000000, 0.000000000000000000, 0.000000000000000000, 0.000000000000000000, 0.000000000000000000 ) ;
#85 = AXIS2_PLACEMENT_3D ( 'NONE', #52, #206, #55 ) ;
#86 = ORIENTED_EDGE ( 'NONE', *, *, #103, .F. ) ;
#87 = DIMENSIONAL_EXPONENTS ( 1.000000000000000000, 0.000000000000000000, 0.000000000000000000, 0.000000000000000000, 0.000000000000000000, 0.000000000000000000, 0.000000000000000000 ) ;
#88 =( LENGTH_UNIT ( ) NAMED_UNIT ( * ) SI_UNIT ( $, .METRE. ) );
#89 = ORIENTED_EDGE ( 'NONE', *, *, #207, .T. ) ;
#90 = ADVANCED_FACE ( 'NONE', ( #6 ), #155, .T. ) ;
#91 = APPLICATION_PROTOCOL_DEFINITION ( 'draft international standard', 'automotive_design', 1998, #219 ) ;
#92 = ORIENTED_EDGE ( 'NONE', *, *, #22, .T. ) ;
#93 = DIRECTION ( 'NONE',  ( 6.123233995736769734E-17, -1.000000000000000000, 0.000000000000000000 ) ) ;
#94 = STYLED_ITEM ( 'NONE', ( #254 ), #5 ) ;
#95 = DIRECTION ( 'NONE',  ( 0.000000000000000000, 0.000000000000000000, 1.000000000000000000 ) ) ;
#96 = DIRECTION ( 'NONE',  ( -0.000000000000000000, -1.000000000000000000, -0.000000000000000000 ) ) ;
#97 = DIRECTION ( 'NONE',  ( -1.000000000000000000, 0.000000000000000000, 0.000000000000000000 ) ) ;
#98 = EDGE_CURVE ( 'NONE', #234, #81, #265, .T. ) ;
#99 = SURFACE_STYLE_USAGE ( .BOTH. , #263 ) ;
#100 = STYLED_ITEM ( 'NONE', ( #208 ), #144 ) ;
#101 = SURFACE_STYLE_FILL_AREA ( #153 ) ;
#102 = FACE_OUTER_BOUND ( 'NONE', #140, .T. ) ;
#103 = EDGE_CURVE ( 'NONE', #83, #280, #116, .T. ) ;
#104 = CARTESIAN_POINT ( 'NONE',  ( 0.000000000000000000, 0.000000000000000000, 0.000000000000000000 ) ) ;
#105 = PRESENTATION_LAYER_ASSIGNMENT (  '', '', ( #300 ) ) ;
#106 = LINE ( 'NONE', #159, #158 ) ;
#107 = SURFACE_STYLE_FILL_AREA ( #7 ) ;
#108 = AXIS2_PLACEMENT_3D ( 'NONE', #113, #138, #228 ) ;
#109 = LINE ( 'NONE', #146, #26 ) ;
#110 = MECHANICAL_DESIGN_GEOMETRIC_PRESENTATION_REPRESENTATION (  '', ( #182 ), #303 ) ;
#111 = EDGE_CURVE ( 'NONE', #83, #136, #106, .T. ) ;
#112 =( NAMED_UNIT ( * ) PLANE_ANGLE_UNIT ( ) SI_UNIT ( $, .RADIAN. ) );
#113 = CARTESIAN_POINT ( 'NONE',  ( 3.515061990613733472E-34, 1.000000000000000000, 0.000000000000000000 ) ) ;
#114 = EDGE_LOOP ( 'NONE', ( #63, #92 ) ) ;
#115 = PRODUCT ( '84308', '84308', '', ( #166 ) ) ;
#116 = CIRCLE ( 'NONE', #287, 0.1875000000000000278 ) ;
#117 = SURFACE_STYLE_FILL_AREA ( #183 ) ;
#118 = ORIENTED_EDGE ( 'NONE', *, *, #22, .F. ) ;
#119 = PLANE ( 'NONE',  #108 ) ;
#120 = STYLED_ITEM ( 'NONE', ( #148 ), #8 ) ;
#121 = PRODUCT_DEFINITION_CONTEXT ( 'detailed design', #247, 'design' ) ;
#122 = DIRECTION ( 'NONE',  ( -1.000000000000000000, 0.000000000000000000, 0.000000000000000000 ) ) ;
#123 = PRESENTATION_LAYER_ASSIGNMENT (  '', '', ( #182 ) ) ;
#124 =( LENGTH_UNIT ( ) NAMED_UNIT ( * ) SI_UNIT ( $, .METRE. ) );
#125 = DIRECTION ( 'NONE',  ( 1.000000000000000000, 6.123233995736769734E-17, 0.000000000000000000 ) ) ;
#126 = PRESENTATION_STYLE_ASSIGNMENT (( #99 ) ) ;
#127 = CYLINDRICAL_SURFACE ( 'NONE', #1, 0.1875000000000000278 ) ;
#128 = AXIS2_PLACEMENT_3D ( 'NONE', #220, #264, #268 ) ;
#129 = LENGTH_MEASURE_WITH_UNIT ( LENGTH_MEASURE( 0.02539999999999999897 ), #154 );
#130 = CYLINDRICAL_SURFACE ( 'NONE', #150, 0.1875000000000000833 ) ;
#131 = DIRECTION ( 'NONE',  ( -0.000000000000000000, -1.000000000000000000, -0.000000000000000000 ) ) ;
#132 = FILL_AREA_STYLE_COLOUR ( '', #237 ) ;
#133 = EDGE_CURVE ( 'NONE', #162, #297, #17, .T. ) ;
#134 = DIRECTION ( 'NONE',  ( -0.000000000000000000, -1.000000000000000000, -0.000000000000000000 ) ) ;
#135 =( NAMED_UNIT ( * ) PLANE_ANGLE_UNIT ( ) SI_UNIT ( $, .RADIAN. ) );
#136 = VERTEX_POINT ( 'NONE', #9 ) ;
#137 = CIRCLE ( 'NONE', #277, 0.1875000000000001388 ) ;
#138 = DIRECTION ( 'NONE',  ( -6.123233995736769734E-17, 1.000000000000000000, 0.000000000000000000 ) ) ;
#139 = DIRECTION ( 'NONE',  ( -0.000000000000000000, -1.000000000000000000, -0.000000000000000000 ) ) ;
#140 = EDGE_LOOP ( 'NONE', ( #187, #37, #230, #118 ) ) ;
#141 = DIRECTION ( 'NONE',  ( 0.000000000000000000, -0.000000000000000000, 1.000000000000000000 ) ) ;
#142 = ORIENTED_EDGE ( 'NONE', *, *, #258, .F. ) ;
#143 = DIMENSIONAL_EXPONENTS ( 1.000000000000000000, 0.000000000000000000, 0.000000000000000000, 0.000000000000000000, 0.000000000000000000, 0.000000000000000000, 0.000000000000000000 ) ;
#144 = ADVANCED_FACE ( 'NONE', ( #157 ), #249, .T. ) ;
#145 = PRESENTATION_LAYER_ASSIGNMENT (  '', '', ( #94 ) ) ;
#146 = CARTESIAN_POINT ( 'NONE',  ( 0.000000000000000000, 0.000000000000000000, -0.1875000000000000278 ) ) ;
#147 = ORIENTED_EDGE ( 'NONE', *, *, #269, .F. ) ;
#148 = PRESENTATION_STYLE_ASSIGNMENT (( #200 ) ) ;
#149 =( GEOMETRIC_REPRESENTATION_CONTEXT ( 3 ) GLOBAL_UNCERTAINTY_ASSIGNED_CONTEXT ( ( #51 ) ) GLOBAL_UNIT_ASSIGNED_CONTEXT ( ( #70, #194, #46 ) ) REPRESENTATION_CONTEXT ( 'NONE', 'WORKASPACE' ) );
#150 = AXIS2_PLACEMENT_3D ( 'NONE', #270, #177, #273 ) ;
#151 =( CONVERSION_BASED_UNIT ( 'INCH', #171 ) LENGTH_UNIT ( ) NAMED_UNIT ( #143 ) );
#152 = CIRCLE ( 'NONE', #169, 0.1875000000000000278 ) ;
#153 = FILL_AREA_STYLE ('',( #47 ) ) ;
#154 =( LENGTH_UNIT ( ) NAMED_UNIT ( * ) SI_UNIT ( $, .METRE. ) );
#155 = CYLINDRICAL_SURFACE ( 'NONE', #85, 0.1875000000000000833 ) ;
#156 =( LENGTH_UNIT ( ) NAMED_UNIT ( * ) SI_UNIT ( $, .METRE. ) );
#157 = FACE_OUTER_BOUND ( 'NONE', #39, .T. ) ;
#158 = VECTOR ( 'NONE', #205, 39.37007874015748143 ) ;
#159 = CARTESIAN_POINT ( 'NONE',  ( -0.1875000000000002220, 3.000000000000000444, 0.000000000000000000 ) ) ;
#160 = ORIENTED_EDGE ( 'NONE', *, *, #133, .F. ) ;
#161 = LINE ( 'NONE', #296, #77 ) ;
#162 = VERTEX_POINT ( 'NONE', #235 ) ;
#163 = CYLINDRICAL_SURFACE ( 'NONE', #240, 0.1875000000000000278 ) ;
#164 = DIRECTION ( 'NONE',  ( -0.000000000000000000, -1.000000000000000000, -0.000000000000000000 ) ) ;
#165 = MECHANICAL_DESIGN_GEOMETRIC_PRESENTATION_REPRESENTATION (  '', ( #308 ), #217 ) ;
#166 = PRODUCT_CONTEXT ( 'NONE', #219, 'mechanical' ) ;
#167 =( NAMED_UNIT ( * ) PLANE_ANGLE_UNIT ( ) SI_UNIT ( $, .RADIAN. ) );
#168 = SURFACE_SIDE_STYLE ('',( #73 ) ) ;
#169 = AXIS2_PLACEMENT_3D ( 'NONE', #256, #59, #299 ) ;
#170 = SHAPE_DEFINITION_REPRESENTATION ( #252, #80 ) ;
#171 = LENGTH_MEASURE_WITH_UNIT ( LENGTH_MEASURE( 0.02539999999999999897 ), #124 );
#172 = AXIS2_PLACEMENT_3D ( 'NONE', #71, #309, #97 ) ;
#173 = FACE_OUTER_BOUND ( 'NONE', #13, .T. ) ;
#174 = DIRECTION ( 'NONE',  ( 0.000000000000000000, 0.000000000000000000, -1.000000000000000000 ) ) ;
#175 = UNCERTAINTY_MEASURE_WITH_UNIT (LENGTH_MEASURE( 1.000000000000000082E-05 ), #20, 'distance_accuracy_value', 'NONE');
#176 =( NAMED_UNIT ( * ) PLANE_ANGLE_UNIT ( ) SI_UNIT ( $, .RADIAN. ) );
#177 = DIRECTION ( 'NONE',  ( -6.123233995736769734E-17, 1.000000000000000000, -0.000000000000000000 ) ) ;
#178 = SURFACE_SIDE_STYLE ('',( #203 ) ) ;
#179 = CARTESIAN_POINT ( 'NONE',  ( 3.032960542342103792E-32, 1.000000000000000000, 0.000000000000000000 ) ) ;
#180 = SURFACE_SIDE_STYLE ('',( #107 ) ) ;
#181 = PRESENTATION_LAYER_ASSIGNMENT (  '', '', ( #308 ) ) ;
#182 = STYLED_ITEM ( 'NONE', ( #57 ), #224 ) ;
#183 = FILL_AREA_STYLE ('',( #216 ) ) ;
#184 = ORIENTED_EDGE ( 'NONE', *, *, #258, .T. ) ;
#185 = LENGTH_MEASURE_WITH_UNIT ( LENGTH_MEASURE( 0.02539999999999999897 ), #88 );
#186 = COLOUR_RGB ( '',0.7921568627450980005, 0.8196078431372548767, 0.9333333333333333481 ) ;
#187 = ORIENTED_EDGE ( 'NONE', *, *, #207, .F. ) ;
#188 = COLOUR_RGB ( '',1.000000000000000000, 0.000000000000000000, 0.000000000000000000 ) ;
#189 = EDGE_LOOP ( 'NONE', ( #15, #89, #191, #257 ) ) ;
#190 = EDGE_LOOP ( 'NONE', ( #283, #306, #213, #147 ) ) ;
#191 = ORIENTED_EDGE ( 'NONE', *, *, #68, .F. ) ;
#192 = DIRECTION ( 'NONE',  ( 0.000000000000000000, 0.000000000000000000, -1.000000000000000000 ) ) ;
#193 = PRODUCT_RELATED_PRODUCT_CATEGORY ( 'part', '', ( #115 ) ) ;
#194 =( NAMED_UNIT ( * ) PLANE_ANGLE_UNIT ( ) SI_UNIT ( $, .RADIAN. ) );
#195 = UNCERTAINTY_MEASURE_WITH_UNIT (LENGTH_MEASURE( 1.000000000000000082E-05 ), #307, 'distance_accuracy_value', 'NONE');
#196 = FILL_AREA_STYLE_COLOUR ( '', #188 ) ;
#197 = LENGTH_MEASURE_WITH_UNIT ( LENGTH_MEASURE( 0.02539999999999999897 ), #289 );
#198 = DIRECTION ( 'NONE',  ( -0.000000000000000000, -1.000000000000000000, -0.000000000000000000 ) ) ;
#199 = AXIS2_PLACEMENT_3D ( 'NONE', #271, #134, #53 ) ;
#200 = SURFACE_STYLE_USAGE ( .BOTH. , #168 ) ;
#201 =( CONVERSION_BASED_UNIT ( 'INCH', #129 ) LENGTH_UNIT ( ) NAMED_UNIT ( #87 ) );
#202 = COLOUR_RGB ( '',0.7921568627450980005, 0.8196078431372548767, 0.9333333333333333481 ) ;
#203 = SURFACE_STYLE_FILL_AREA ( #31 ) ;
#204 = ADVANCED_FACE ( 'NONE', ( #64 ), #119, .F. ) ;
#205 = DIRECTION ( 'NONE',  ( -6.123233995736769734E-17, 1.000000000000000000, -0.000000000000000000 ) ) ;
#206 = DIRECTION ( 'NONE',  ( -6.123233995736769734E-17, 1.000000000000000000, -0.000000000000000000 ) ) ;
#207 = EDGE_CURVE ( 'NONE', #280, #236, #16, .T. ) ;
#208 = PRESENTATION_STYLE_ASSIGNMENT (( #250 ) ) ;
#209 =( NAMED_UNIT ( * ) SI_UNIT ( $, .STERADIAN. ) SOLID_ANGLE_UNIT ( ) );
#210 = ORIENTED_EDGE ( 'NONE', *, *, #98, .F. ) ;
#211 = FILL_AREA_STYLE ('',( #18 ) ) ;
#212 = CARTESIAN_POINT ( 'NONE',  ( 0.1874999999999999445, 3.000000000000000444, 2.296212748401288342E-17 ) ) ;
#213 = ORIENTED_EDGE ( 'NONE', *, *, #27, .F. ) ;
#214 = CARTESIAN_POINT ( 'NONE',  ( 0.1875000000000000278, 1.000000000000000000, 2.296212748401288650E-17 ) ) ;
#215 = SURFACE_SIDE_STYLE ('',( #301 ) ) ;
#216 = FILL_AREA_STYLE_COLOUR ( '', #288 ) ;
#217 =( GEOMETRIC_REPRESENTATION_CONTEXT ( 3 ) GLOBAL_UNCERTAINTY_ASSIGNED_CONTEXT ( ( #30 ) ) GLOBAL_UNIT_ASSIGNED_CONTEXT ( ( #294, #76, #34 ) ) REPRESENTATION_CONTEXT ( 'NONE', 'WORKASPACE' ) );
#218 =( NAMED_UNIT ( * ) SI_UNIT ( $, .STERADIAN. ) SOLID_ANGLE_UNIT ( ) );
#219 = APPLICATION_CONTEXT ( 'automotive_design' ) ;
#220 = CARTESIAN_POINT ( 'NONE',  ( -1.224646799147353700E-16, 3.000000000000000444, 0.000000000000000000 ) ) ;
#221 = CARTESIAN_POINT ( 'NONE',  ( 0.000000000000000000, 0.000000000000000000, 0.000000000000000000 ) ) ;
#222 = CARTESIAN_POINT ( 'NONE',  ( -1.224646799147353700E-16, 3.000000000000000444, 0.000000000000000000 ) ) ;
#223 = DIRECTION ( 'NONE',  ( 0.000000000000000000, -1.000000000000000000, -0.000000000000000000 ) ) ;
#224 = ADVANCED_FACE ( 'NONE', ( #275 ), #163, .T. ) ;
#225 = LENGTH_MEASURE_WITH_UNIT ( LENGTH_MEASURE( 0.02539999999999999897 ), #156 );
#226 = CARTESIAN_POINT ( 'NONE',  ( 0.000000000000000000, 0.000000000000000000, -0.1875000000000000278 ) ) ;
#227 = CLOSED_SHELL ( 'NONE', ( #224, #144, #40, #74 ) ) ;
#228 = DIRECTION ( 'NONE',  ( -1.000000000000000000, -6.123233995736769734E-17, 0.000000000000000000 ) ) ;
#229 = COLOUR_RGB ( '',1.000000000000000000, 0.000000000000000000, 0.000000000000000000 ) ;
#230 = ORIENTED_EDGE ( 'NONE', *, *, #111, .T. ) ;
#231 =( NAMED_UNIT ( * ) SI_UNIT ( $, .STERADIAN. ) SOLID_ANGLE_UNIT ( ) );
#232 = DIRECTION ( 'NONE',  ( -0.000000000000000000, -1.000000000000000000, -0.000000000000000000 ) ) ;
#233 = AXIS2_PLACEMENT_3D ( 'NONE', #305, #93, #125 ) ;
#234 = VERTEX_POINT ( 'NONE', #38 ) ;
#235 = CARTESIAN_POINT ( 'NONE',  ( 0.000000000000000000, 1.000000000000000000, -0.1875000000000000278 ) ) ;
#236 = VERTEX_POINT ( 'NONE', #12 ) ;
#237 = COLOUR_RGB ( '',1.000000000000000000, 0.000000000000000000, 0.000000000000000000 ) ;
#238 = LENGTH_MEASURE_WITH_UNIT ( LENGTH_MEASURE( 0.02539999999999999897 ), #65 );
#239 =( GEOMETRIC_REPRESENTATION_CONTEXT ( 3 ) GLOBAL_UNCERTAINTY_ASSIGNED_CONTEXT ( ( #175 ) ) GLOBAL_UNIT_ASSIGNED_CONTEXT ( ( #20, #167, #231 ) ) REPRESENTATION_CONTEXT ( 'NONE', 'WORKASPACE' ) );
#240 = AXIS2_PLACEMENT_3D ( 'NONE', #35, #164, #82 ) ;
#241 =( LENGTH_UNIT ( ) NAMED_UNIT ( * ) SI_UNIT ( $, .METRE. ) );
#242 = CARTESIAN_POINT ( 'NONE',  ( 0.000000000000000000, 0.000000000000000000, 0.000000000000000000 ) ) ;
#243 = AXIS2_PLACEMENT_3D ( 'NONE', #302, #19, #141 ) ;
#244 = DIRECTION ( 'NONE',  ( 0.000000000000000000, 0.000000000000000000, -1.000000000000000000 ) ) ;
#245 = PRODUCT_DEFINITION ( 'UNKNOWN', '', #10, #121 ) ;
#246 = CARTESIAN_POINT ( 'NONE',  ( 0.000000000000000000, 0.000000000000000000, 0.000000000000000000 ) ) ;
#247 = APPLICATION_CONTEXT ( 'automotive_design' ) ;
#248 =( GEOMETRIC_REPRESENTATION_CONTEXT ( 3 ) GLOBAL_UNCERTAINTY_ASSIGNED_CONTEXT ( ( #195 ) ) GLOBAL_UNIT_ASSIGNED_CONTEXT ( ( #307, #44, #218 ) ) REPRESENTATION_CONTEXT ( 'NONE', 'WORKASPACE' ) );
#249 = PLANE ( 'NONE',  #243 ) ;
#250 = SURFACE_STYLE_USAGE ( .BOTH. , #180 ) ;
#251 =( NAMED_UNIT ( * ) SI_UNIT ( $, .STERADIAN. ) SOLID_ANGLE_UNIT ( ) );
#252 = PRODUCT_DEFINITION_SHAPE ( 'NONE', 'NONE',  #245 ) ;
#253 = MECHANICAL_DESIGN_GEOMETRIC_PRESENTATION_REPRESENTATION (  '', ( #300 ), #248 ) ;
#254 = PRESENTATION_STYLE_ASSIGNMENT (( #282 ) ) ;
#255 = EDGE_LOOP ( 'NONE', ( #86, #60 ) ) ;
#256 = CARTESIAN_POINT ( 'NONE',  ( 0.000000000000000000, 1.000000000000000000, 0.000000000000000000 ) ) ;
#257 = ORIENTED_EDGE ( 'NONE', *, *, #111, .F. ) ;
#258 = EDGE_CURVE ( 'NONE', #297, #162, #152, .T. ) ;
#259 = FACE_OUTER_BOUND ( 'NONE', #114, .T. ) ;
#260 = ORIENTED_EDGE ( 'NONE', *, *, #276, .F. ) ;
#261 = MECHANICAL_DESIGN_GEOMETRIC_PRESENTATION_REPRESENTATION (  '', ( #94 ), #239 ) ;
#262 = EDGE_LOOP ( 'NONE', ( #67, #304 ) ) ;
#263 = SURFACE_SIDE_STYLE ('',( #101 ) ) ;
#264 = DIRECTION ( 'NONE',  ( -6.123233995736769734E-17, 1.000000000000000000, -0.000000000000000000 ) ) ;
#265 = CIRCLE ( 'NONE', #72, 0.1875000000000000278 ) ;
#266 =( NAMED_UNIT ( * ) SI_UNIT ( $, .STERADIAN. ) SOLID_ANGLE_UNIT ( ) );
#267 = UNCERTAINTY_MEASURE_WITH_UNIT (LENGTH_MEASURE( 1.000000000000000082E-05 ), #36, 'distance_accuracy_value', 'NONE');
#268 = DIRECTION ( 'NONE',  ( -1.000000000000000000, 0.000000000000000000, 0.000000000000000000 ) ) ;
#269 = EDGE_CURVE ( 'NONE', #162, #81, #109, .T. ) ;
#270 = CARTESIAN_POINT ( 'NONE',  ( -1.224646799147353700E-16, 3.000000000000000444, 0.000000000000000000 ) ) ;
#271 = CARTESIAN_POINT ( 'NONE',  ( 0.000000000000000000, 1.000000000000000000, 0.000000000000000000 ) ) ;
#272 = PRESENTATION_LAYER_ASSIGNMENT (  '', '', ( #100 ) ) ;
#273 = DIRECTION ( 'NONE',  ( -1.000000000000000000, 0.000000000000000000, 0.000000000000000000 ) ) ;
#274 = DIMENSIONAL_EXPONENTS ( 1.000000000000000000, 0.000000000000000000, 0.000000000000000000, 0.000000000000000000, 0.000000000000000000, 0.000000000000000000, 0.000000000000000000 ) ;
#275 = FACE_OUTER_BOUND ( 'NONE', #190, .T. ) ;
#276 = EDGE_CURVE ( 'NONE', #297, #234, #161, .T. ) ;
#277 = AXIS2_PLACEMENT_3D ( 'NONE', #222, #29, #122 ) ;
#278 = ORIENTED_EDGE ( 'NONE', *, *, #269, .T. ) ;
#279 = SURFACE_STYLE_USAGE ( .BOTH. , #281 ) ;
#280 = VERTEX_POINT ( 'NONE', #214 ) ;
#281 = SURFACE_SIDE_STYLE ('',( #117 ) ) ;
#282 = SURFACE_STYLE_USAGE ( .BOTH. , #215 ) ;
#283 = ORIENTED_EDGE ( 'NONE', *, *, #133, .T. ) ;
#284 = VECTOR ( 'NONE', #56, 39.37007874015748143 ) ;
#285 = DIMENSIONAL_EXPONENTS ( 1.000000000000000000, 0.000000000000000000, 0.000000000000000000, 0.000000000000000000, 0.000000000000000000, 0.000000000000000000, 0.000000000000000000 ) ;
#286 = PLANE ( 'NONE',  #23 ) ;
#287 = AXIS2_PLACEMENT_3D ( 'NONE', #179, #75, #4 ) ;
#288 = COLOUR_RGB ( '',1.000000000000000000, 0.000000000000000000, 0.000000000000000000 ) ;
#289 =( LENGTH_UNIT ( ) NAMED_UNIT ( * ) SI_UNIT ( $, .METRE. ) );
#290 = FILL_AREA_STYLE_COLOUR ( '', #202 ) ;
#291 = AXIS2_PLACEMENT_3D ( 'NONE', #221, #95, #43 ) ;
#292 = PRESENTATION_STYLE_ASSIGNMENT (( #32 ) ) ;
#293 = CIRCLE ( 'NONE', #295, 0.1875000000000000278 ) ;
#294 =( CONVERSION_BASED_UNIT ( 'INCH', #225 ) LENGTH_UNIT ( ) NAMED_UNIT ( #274 ) );
#295 = AXIS2_PLACEMENT_3D ( 'NONE', #25, #198, #174 ) ;
#296 = CARTESIAN_POINT ( 'NONE',  ( 2.296212748401287726E-17, 0.000000000000000000, 0.1875000000000000278 ) ) ;
#297 = VERTEX_POINT ( 'NONE', #14 ) ;
#298 = ADVANCED_FACE ( 'NONE', ( #259 ), #62, .F. ) ;
#299 = DIRECTION ( 'NONE',  ( 0.000000000000000000, 0.000000000000000000, -1.000000000000000000 ) ) ;
#300 = STYLED_ITEM ( 'NONE', ( #126 ), #40 ) ;
#301 = SURFACE_STYLE_FILL_AREA ( #211 ) ;
#302 = CARTESIAN_POINT ( 'NONE',  ( 0.000000000000000000, 1.000000000000000000, 0.000000000000000000 ) ) ;
#303 =( GEOMETRIC_REPRESENTATION_CONTEXT ( 3 ) GLOBAL_UNCERTAINTY_ASSIGNED_CONTEXT ( ( #267 ) ) GLOBAL_UNIT_ASSIGNED_CONTEXT ( ( #36, #112, #251 ) ) REPRESENTATION_CONTEXT ( 'NONE', 'WORKASPACE' ) );
#304 = ORIENTED_EDGE ( 'NONE', *, *, #98, .T. ) ;
#305 = CARTESIAN_POINT ( 'NONE',  ( 0.1875000000000000278, 3.000000000000000444, 0.000000000000000000 ) ) ;
#306 = ORIENTED_EDGE ( 'NONE', *, *, #276, .T. ) ;
#307 =( CONVERSION_BASED_UNIT ( 'INCH', #21 ) LENGTH_UNIT ( ) NAMED_UNIT ( #42 ) );
#308 = STYLED_ITEM ( 'NONE', ( #292 ), #74 ) ;
#309 = DIRECTION ( 'NONE',  ( -6.123233995736769734E-17, 1.000000000000000000, -0.000000000000000000 ) ) ;
ENDSEC;
END-ISO-10303-21;
