ISO-10303-21;
HEADER;
FILE_DESCRIPTION (( 'STEP AP214' ),
    '1' );
FILE_NAME ('81716.STEP',
    '2023-06-23T03:05:46',
    ( '' ),
    ( '' ),
    'SwSTEP 2.0',
    'SolidWorks 2023',
    '' );
FILE_SCHEMA (( 'AUTOMOTIVE_DESIGN' ));
ENDSEC;

DATA;
#1 = EDGE_LOOP ( 'NONE', ( #113, #181 ) ) ;
#2 = MECHANICAL_DESIGN_GEOMETRIC_PRESENTATION_REPRESENTATION (  '', ( #28 ), #74 ) ;
#3 = LENGTH_MEASURE_WITH_UNIT ( LENGTH_MEASURE( 0.02539999999999999897 ), #214 );
#4 = FILL_AREA_STYLE ('',( #216 ) ) ;
#5 = FILL_AREA_STYLE_COLOUR ( '', #80 ) ;
#6 = ADVANCED_FACE ( 'NONE', ( #118 ), #231, .T. ) ;
#7 = EDGE_LOOP ( 'NONE', ( #287, #155, #190, #225 ) ) ;
#8 = CARTESIAN_POINT ( 'NONE',  ( -0.3749999999999997780, 4.000000000000000000, 0.000000000000000000 ) ) ;
#9 = PRESENTATION_LAYER_ASSIGNMENT (  '', '', ( #28 ) ) ;
#10 = PLANE ( 'NONE',  #290 ) ;
#11 = SURFACE_SIDE_STYLE ('',( #292 ) ) ;
#12 = MECHANICAL_DESIGN_GEOMETRIC_PRESENTATION_REPRESENTATION (  '', ( #38 ), #154 ) ;
#13 = AXIS2_PLACEMENT_3D ( 'NONE', #248, #227, #135 ) ;
#14 = DIRECTION ( 'NONE',  ( -0.000000000000000000, -1.000000000000000000, -0.000000000000000000 ) ) ;
#15 =( LENGTH_UNIT ( ) NAMED_UNIT ( * ) SI_UNIT ( $, .METRE. ) );
#16 = EDGE_LOOP ( 'NONE', ( #70, #165 ) ) ;
#17 = LENGTH_MEASURE_WITH_UNIT ( LENGTH_MEASURE( 0.02539999999999999897 ), #186 );
#18 = DIRECTION ( 'NONE',  ( 1.000000000000000000, -4.453261087808557677E-17, 0.000000000000000000 ) ) ;
#19 = VERTEX_POINT ( 'NONE', #8 ) ;
#20 =( NAMED_UNIT ( * ) SI_UNIT ( $, .STERADIAN. ) SOLID_ANGLE_UNIT ( ) );
#21 = AXIS2_PLACEMENT_3D ( 'NONE', #142, #57, #233 ) ;
#22 =( GEOMETRIC_REPRESENTATION_CONTEXT ( 3 ) GLOBAL_UNCERTAINTY_ASSIGNED_CONTEXT ( ( #246 ) ) GLOBAL_UNIT_ASSIGNED_CONTEXT ( ( #278, #302, #150 ) ) REPRESENTATION_CONTEXT ( 'NONE', 'WORKASPACE' ) );
#23 = ADVANCED_FACE ( 'NONE', ( #169 ), #120, .T. ) ;
#24 = ORIENTED_EDGE ( 'NONE', *, *, #89, .F. ) ;
#25 = FILL_AREA_STYLE ('',( #115 ) ) ;
#26 = LENGTH_MEASURE_WITH_UNIT ( LENGTH_MEASURE( 0.02539999999999999897 ), #51 );
#27 = LINE ( 'NONE', #36, #149 ) ;
#28 = STYLED_ITEM ( 'NONE', ( #208 ), #303 ) ;
#29 =( NAMED_UNIT ( * ) PLANE_ANGLE_UNIT ( ) SI_UNIT ( $, .RADIAN. ) );
#30 = EDGE_CURVE ( 'NONE', #256, #161, #27, .T. ) ;
#31 = SURFACE_STYLE_FILL_AREA ( #4 ) ;
#32 = SURFACE_STYLE_USAGE ( .BOTH. , #166 ) ;
#33 = CARTESIAN_POINT ( 'NONE',  ( 3.718412684285598933E-34, 1.250000000000000000, 0.000000000000000000 ) ) ;
#34 = FILL_AREA_STYLE_COLOUR ( '', #237 ) ;
#35 = CARTESIAN_POINT ( 'NONE',  ( 4.592425496802575451E-17, 1.250000000000000000, 0.3750000000000000555 ) ) ;
#36 = CARTESIAN_POINT ( 'NONE',  ( 0.000000000000000000, 0.000000000000000000, -0.3750000000000000555 ) ) ;
#37 = CARTESIAN_POINT ( 'NONE',  ( 0.000000000000000000, 1.250000000000000000, -0.3750000000000000555 ) ) ;
#38 = STYLED_ITEM ( 'NONE', ( #53 ), #6 ) ;
#39 = PRODUCT_DEFINITION_FORMATION_WITH_SPECIFIED_SOURCE ( 'ANY', '', #224, .NOT_KNOWN. ) ;
#40 = DIRECTION ( 'NONE',  ( -1.000000000000000000, 4.453261087808557677E-17, 0.000000000000000000 ) ) ;
#41 = ADVANCED_FACE ( 'NONE', ( #126 ), #179, .T. ) ;
#42 = DIRECTION ( 'NONE',  ( 4.453261087808557677E-17, 1.000000000000000000, -0.000000000000000000 ) ) ;
#43 = FILL_AREA_STYLE_COLOUR ( '', #174 ) ;
#44 = DIRECTION ( 'NONE',  ( -1.000000000000000000, 0.000000000000000000, 0.000000000000000000 ) ) ;
#45 = UNCERTAINTY_MEASURE_WITH_UNIT (LENGTH_MEASURE( 1.000000000000000082E-05 ), #272, 'distance_accuracy_value', 'NONE');
#46 = DIRECTION ( 'NONE',  ( -1.000000000000000000, 0.000000000000000000, 0.000000000000000000 ) ) ;
#47 = DIRECTION ( 'NONE',  ( -4.453261087808557677E-17, -1.000000000000000000, 0.000000000000000000 ) ) ;
#48 = ORIENTED_EDGE ( 'NONE', *, *, #124, .F. ) ;
#49 = SURFACE_STYLE_USAGE ( .BOTH. , #112 ) ;
#50 = VERTEX_POINT ( 'NONE', #308 ) ;
#51 =( LENGTH_UNIT ( ) NAMED_UNIT ( * ) SI_UNIT ( $, .METRE. ) );
#52 = DIRECTION ( 'NONE',  ( 0.000000000000000000, -0.000000000000000000, 1.000000000000000000 ) ) ;
#53 = PRESENTATION_STYLE_ASSIGNMENT (( #32 ) ) ;
#54 = EDGE_CURVE ( 'NONE', #211, #256, #252, .T. ) ;
#55 = DIRECTION ( 'NONE',  ( -1.000000000000000000, 0.000000000000000000, 0.000000000000000000 ) ) ;
#56 =( GEOMETRIC_REPRESENTATION_CONTEXT ( 3 ) GLOBAL_UNCERTAINTY_ASSIGNED_CONTEXT ( ( #260 ) ) GLOBAL_UNIT_ASSIGNED_CONTEXT ( ( #102, #201, #59 ) ) REPRESENTATION_CONTEXT ( 'NONE', 'WORKASPACE' ) );
#57 = DIRECTION ( 'NONE',  ( -0.000000000000000000, -1.000000000000000000, -0.000000000000000000 ) ) ;
#58 =( NAMED_UNIT ( * ) SI_UNIT ( $, .STERADIAN. ) SOLID_ANGLE_UNIT ( ) );
#59 =( NAMED_UNIT ( * ) SI_UNIT ( $, .STERADIAN. ) SOLID_ANGLE_UNIT ( ) );
#60 =( LENGTH_UNIT ( ) NAMED_UNIT ( * ) SI_UNIT ( $, .METRE. ) );
#61 = DIRECTION ( 'NONE',  ( 0.000000000000000000, 0.000000000000000000, -1.000000000000000000 ) ) ;
#62 = EDGE_CURVE ( 'NONE', #19, #230, #116, .T. ) ;
#63 = DIRECTION ( 'NONE',  ( 4.453261087808557677E-17, 1.000000000000000000, -0.000000000000000000 ) ) ;
#64 = AXIS2_PLACEMENT_3D ( 'NONE', #182, #279, #68 ) ;
#65 = LENGTH_MEASURE_WITH_UNIT ( LENGTH_MEASURE( 0.02539999999999999897 ), #15 );
#66 = CARTESIAN_POINT ( 'NONE',  ( 1.224646799147353207E-16, 4.000000000000000000, 0.000000000000000000 ) ) ;
#67 = APPLICATION_PROTOCOL_DEFINITION ( 'draft international standard', 'automotive_design', 1998, #304 ) ;
#68 = DIRECTION ( 'NONE',  ( 0.000000000000000000, 0.000000000000000000, -1.000000000000000000 ) ) ;
#69 = AXIS2_PLACEMENT_3D ( 'NONE', #265, #96, #286 ) ;
#70 = ORIENTED_EDGE ( 'NONE', *, *, #309, .F. ) ;
#71 = ORIENTED_EDGE ( 'NONE', *, *, #291, .T. ) ;
#72 = ADVANCED_FACE ( 'NONE', ( #133 ), #153, .F. ) ;
#73 = PRESENTATION_LAYER_ASSIGNMENT (  '', '', ( #104 ) ) ;
#74 =( GEOMETRIC_REPRESENTATION_CONTEXT ( 3 ) GLOBAL_UNCERTAINTY_ASSIGNED_CONTEXT ( ( #84 ) ) GLOBAL_UNIT_ASSIGNED_CONTEXT ( ( #306, #159, #20 ) ) REPRESENTATION_CONTEXT ( 'NONE', 'WORKASPACE' ) );
#75 = PRESENTATION_LAYER_ASSIGNMENT (  '', '', ( #301 ) ) ;
#76 = SURFACE_SIDE_STYLE ('',( #31 ) ) ;
#77 = DIRECTION ( 'NONE',  ( 4.453261087808557677E-17, 1.000000000000000000, -0.000000000000000000 ) ) ;
#78 = FILL_AREA_STYLE ('',( #220 ) ) ;
#79 = DIRECTION ( 'NONE',  ( -1.000000000000000000, 0.000000000000000000, 0.000000000000000000 ) ) ;
#80 = COLOUR_RGB ( '',0.7921568627450980005, 0.8196078431372548767, 0.9333333333333333481 ) ;
#81 = DIRECTION ( 'NONE',  ( 0.000000000000000000, 0.000000000000000000, -1.000000000000000000 ) ) ;
#82 = SURFACE_STYLE_USAGE ( .BOTH. , #298 ) ;
#83 = CYLINDRICAL_SURFACE ( 'NONE', #88, 0.3749999999999999445 ) ;
#84 = UNCERTAINTY_MEASURE_WITH_UNIT (LENGTH_MEASURE( 1.000000000000000082E-05 ), #306, 'distance_accuracy_value', 'NONE');
#85 = SHAPE_DEFINITION_REPRESENTATION ( #250, #307 ) ;
#86 =( LENGTH_UNIT ( ) NAMED_UNIT ( * ) SI_UNIT ( $, .METRE. ) );
#87 = CLOSED_SHELL ( 'NONE', ( #188, #191, #282, #72 ) ) ;
#88 = AXIS2_PLACEMENT_3D ( 'NONE', #196, #77, #293 ) ;
#89 = EDGE_CURVE ( 'NONE', #230, #19, #167, .T. ) ;
#90 = SURFACE_STYLE_FILL_AREA ( #93 ) ;
#91 = PRESENTATION_LAYER_ASSIGNMENT (  '', '', ( #263 ) ) ;
#92 = MECHANICAL_DESIGN_GEOMETRIC_PRESENTATION_REPRESENTATION (  '', ( #104 ), #162 ) ;
#93 = FILL_AREA_STYLE ('',( #43 ) ) ;
#94 = ORIENTED_EDGE ( 'NONE', *, *, #131, .F. ) ;
#95 = MANIFOLD_SOLID_BREP ( 'Revolve - Tool Body (Straight Shanked)', #87 ) ;
#96 = DIRECTION ( 'NONE',  ( 4.453261087808557677E-17, 1.000000000000000000, -0.000000000000000000 ) ) ;
#97 = SURFACE_SIDE_STYLE ('',( #141 ) ) ;
#98 = ORIENTED_EDGE ( 'NONE', *, *, #124, .T. ) ;
#99 = COLOUR_RGB ( '',1.000000000000000000, 0.000000000000000000, 0.000000000000000000 ) ;
#100 = CARTESIAN_POINT ( 'NONE',  ( 0.3750000000000000555, 4.000000000000000000, 4.592425496802574219E-17 ) ) ;
#101 = CARTESIAN_POINT ( 'NONE',  ( 4.592425496802575451E-17, 0.000000000000000000, 0.3750000000000000555 ) ) ;
#102 =( CONVERSION_BASED_UNIT ( 'INCH', #266 ) LENGTH_UNIT ( ) NAMED_UNIT ( #202 ) );
#103 = EDGE_CURVE ( 'NONE', #110, #277, #145, .T. ) ;
#104 = STYLED_ITEM ( 'NONE', ( #114 ), #23 ) ;
#105 = MECHANICAL_DESIGN_GEOMETRIC_PRESENTATION_REPRESENTATION (  '', ( #226 ), #296 ) ;
#106 = DIRECTION ( 'NONE',  ( 0.000000000000000000, 0.000000000000000000, -1.000000000000000000 ) ) ;
#107 = DIMENSIONAL_EXPONENTS ( 1.000000000000000000, 0.000000000000000000, 0.000000000000000000, 0.000000000000000000, 0.000000000000000000, 0.000000000000000000, 0.000000000000000000 ) ;
#108 = PRODUCT_CONTEXT ( 'NONE', #304, 'mechanical' ) ;
#109 = PRESENTATION_LAYER_ASSIGNMENT (  '', '', ( #38 ) ) ;
#110 = VERTEX_POINT ( 'NONE', #117 ) ;
#111 = CIRCLE ( 'NONE', #121, 0.3750000000000000555 ) ;
#112 = SURFACE_SIDE_STYLE ('',( #90 ) ) ;
#113 = ORIENTED_EDGE ( 'NONE', *, *, #62, .T. ) ;
#114 = PRESENTATION_STYLE_ASSIGNMENT (( #288 ) ) ;
#115 = FILL_AREA_STYLE_COLOUR ( '', #140 ) ;
#116 = CIRCLE ( 'NONE', #295, 0.3749999999999998890 ) ;
#117 = CARTESIAN_POINT ( 'NONE',  ( 0.3750000000000000555, 1.250000000000000000, 4.592425496802574219E-17 ) ) ;
#118 = FACE_OUTER_BOUND ( 'NONE', #7, .T. ) ;
#119 =( CONVERSION_BASED_UNIT ( 'INCH', #267 ) LENGTH_UNIT ( ) NAMED_UNIT ( #170 ) );
#120 = PLANE ( 'NONE',  #134 ) ;
#121 = AXIS2_PLACEMENT_3D ( 'NONE', #199, #270, #178 ) ;
#122 = DIRECTION ( 'NONE',  ( 4.453261087808557677E-17, 1.000000000000000000, -0.000000000000000000 ) ) ;
#123 = DIRECTION ( 'NONE',  ( 4.453261087808557677E-17, 1.000000000000000000, -0.000000000000000000 ) ) ;
#124 = EDGE_CURVE ( 'NONE', #256, #211, #229, .T. ) ;
#125 = SURFACE_STYLE_USAGE ( .BOTH. , #11 ) ;
#126 = FACE_OUTER_BOUND ( 'NONE', #251, .T. ) ;
#127 = CARTESIAN_POINT ( 'NONE',  ( -0.3750000000000000555, 1.250000000000000000, 0.000000000000000000 ) ) ;
#128 = AXIS2_PLACEMENT_3D ( 'NONE', #254, #47, #18 ) ;
#129 = PRESENTATION_STYLE_ASSIGNMENT (( #82 ) ) ;
#130 = UNCERTAINTY_MEASURE_WITH_UNIT (LENGTH_MEASURE( 1.000000000000000082E-05 ), #192, 'distance_accuracy_value', 'NONE');
#131 = EDGE_CURVE ( 'NONE', #161, #50, #280, .T. ) ;
#132 = CARTESIAN_POINT ( 'NONE',  ( -1.516480271171051896E-32, 1.250000000000000000, 0.000000000000000000 ) ) ;
#133 = FACE_OUTER_BOUND ( 'NONE', #1, .T. ) ;
#134 = AXIS2_PLACEMENT_3D ( 'NONE', #171, #138, #52 ) ;
#135 = DIRECTION ( 'NONE',  ( 1.000000000000000000, 0.000000000000000000, 0.000000000000000000 ) ) ;
#136 = ORIENTED_EDGE ( 'NONE', *, *, #207, .T. ) ;
#137 = AXIS2_PLACEMENT_3D ( 'NONE', #236, #148, #106 ) ;
#138 = DIRECTION ( 'NONE',  ( 0.000000000000000000, 1.000000000000000000, 0.000000000000000000 ) ) ;
#139 = EDGE_LOOP ( 'NONE', ( #48, #185 ) ) ;
#140 = COLOUR_RGB ( '',1.000000000000000000, 0.000000000000000000, 0.000000000000000000 ) ;
#141 = SURFACE_STYLE_FILL_AREA ( #234 ) ;
#142 = CARTESIAN_POINT ( 'NONE',  ( 0.000000000000000000, 0.000000000000000000, 0.000000000000000000 ) ) ;
#143 =( NAMED_UNIT ( * ) SI_UNIT ( $, .STERADIAN. ) SOLID_ANGLE_UNIT ( ) );
#144 = CYLINDRICAL_SURFACE ( 'NONE', #137, 0.3750000000000000555 ) ;
#145 = CIRCLE ( 'NONE', #69, 0.3750000000000000555 ) ;
#146 = LINE ( 'NONE', #239, #285 ) ;
#147 = PRODUCT_RELATED_PRODUCT_CATEGORY ( 'part', '', ( #224 ) ) ;
#148 = DIRECTION ( 'NONE',  ( -0.000000000000000000, -1.000000000000000000, -0.000000000000000000 ) ) ;
#149 = VECTOR ( 'NONE', #242, 39.37007874015748143 ) ;
#150 =( NAMED_UNIT ( * ) SI_UNIT ( $, .STERADIAN. ) SOLID_ANGLE_UNIT ( ) );
#151 = ORIENTED_EDGE ( 'NONE', *, *, #131, .T. ) ;
#152 = UNCERTAINTY_MEASURE_WITH_UNIT (LENGTH_MEASURE( 1.000000000000000082E-05 ), #164, 'distance_accuracy_value', 'NONE');
#153 = PLANE ( 'NONE',  #128 ) ;
#154 =( GEOMETRIC_REPRESENTATION_CONTEXT ( 3 ) GLOBAL_UNCERTAINTY_ASSIGNED_CONTEXT ( ( #130 ) ) GLOBAL_UNIT_ASSIGNED_CONTEXT ( ( #192, #29, #143 ) ) REPRESENTATION_CONTEXT ( 'NONE', 'WORKASPACE' ) );
#155 = ORIENTED_EDGE ( 'NONE', *, *, #54, .T. ) ;
#156 = VECTOR ( 'NONE', #63, 39.37007874015748143 ) ;
#157 = EDGE_LOOP ( 'NONE', ( #305, #71, #160, #187 ) ) ;
#158 = PRODUCT_DEFINITION_CONTEXT ( 'detailed design', #273, 'design' ) ;
#159 =( NAMED_UNIT ( * ) PLANE_ANGLE_UNIT ( ) SI_UNIT ( $, .RADIAN. ) );
#160 = ORIENTED_EDGE ( 'NONE', *, *, #62, .F. ) ;
#161 = VERTEX_POINT ( 'NONE', #240 ) ;
#162 =( GEOMETRIC_REPRESENTATION_CONTEXT ( 3 ) GLOBAL_UNCERTAINTY_ASSIGNED_CONTEXT ( ( #257 ) ) GLOBAL_UNIT_ASSIGNED_CONTEXT ( ( #119, #197, #58 ) ) REPRESENTATION_CONTEXT ( 'NONE', 'WORKASPACE' ) );
#163 = SURFACE_STYLE_USAGE ( .BOTH. , #97 ) ;
#164 =( CONVERSION_BASED_UNIT ( 'INCH', #26 ) LENGTH_UNIT ( ) NAMED_UNIT ( #200 ) );
#165 = ORIENTED_EDGE ( 'NONE', *, *, #103, .F. ) ;
#166 = SURFACE_SIDE_STYLE ('',( #262 ) ) ;
#167 = CIRCLE ( 'NONE', #195, 0.3749999999999998890 ) ;
#168 = AXIS2_PLACEMENT_3D ( 'NONE', #297, #175, #81 ) ;
#169 = FACE_OUTER_BOUND ( 'NONE', #139, .T. ) ;
#170 = DIMENSIONAL_EXPONENTS ( 1.000000000000000000, 0.000000000000000000, 0.000000000000000000, 0.000000000000000000, 0.000000000000000000, 0.000000000000000000, 0.000000000000000000 ) ;
#171 = CARTESIAN_POINT ( 'NONE',  ( 0.000000000000000000, 1.250000000000000000, 0.000000000000000000 ) ) ;
#172 = CYLINDRICAL_SURFACE ( 'NONE', #232, 0.3749999999999999445 ) ;
#173 = AXIS2_PLACEMENT_3D ( 'NONE', #219, #209, #249 ) ;
#174 = COLOUR_RGB ( '',0.7921568627450980005, 0.8196078431372548767, 0.9333333333333333481 ) ;
#175 = DIRECTION ( 'NONE',  ( -0.000000000000000000, -1.000000000000000000, -0.000000000000000000 ) ) ;
#176 = CARTESIAN_POINT ( 'NONE',  ( 1.224646799147353207E-16, 4.000000000000000000, 0.000000000000000000 ) ) ;
#177 = LENGTH_MEASURE_WITH_UNIT ( LENGTH_MEASURE( 0.02539999999999999897 ), #86 );
#178 = DIRECTION ( 'NONE',  ( 0.000000000000000000, 0.000000000000000000, -1.000000000000000000 ) ) ;
#179 = PLANE ( 'NONE',  #173 ) ;
#180 = APPLICATION_PROTOCOL_DEFINITION ( 'draft international standard', 'automotive_design', 1998, #273 ) ;
#181 = ORIENTED_EDGE ( 'NONE', *, *, #89, .T. ) ;
#182 = CARTESIAN_POINT ( 'NONE',  ( 0.000000000000000000, 1.250000000000000000, 0.000000000000000000 ) ) ;
#183 = ADVANCED_FACE ( 'NONE', ( #274 ), #144, .T. ) ;
#184 = MECHANICAL_DESIGN_GEOMETRIC_PRESENTATION_REPRESENTATION (  '', ( #263 ), #194 ) ;
#185 = ORIENTED_EDGE ( 'NONE', *, *, #54, .F. ) ;
#186 =( LENGTH_UNIT ( ) NAMED_UNIT ( * ) SI_UNIT ( $, .METRE. ) );
#187 = ORIENTED_EDGE ( 'NONE', *, *, #198, .F. ) ;
#188 = ADVANCED_FACE ( 'NONE', ( #268 ), #172, .T. ) ;
#189 = VECTOR ( 'NONE', #271, 39.37007874015748143 ) ;
#190 = ORIENTED_EDGE ( 'NONE', *, *, #30, .T. ) ;
#191 = ADVANCED_FACE ( 'NONE', ( #243 ), #10, .F. ) ;
#192 =( CONVERSION_BASED_UNIT ( 'INCH', #3 ) LENGTH_UNIT ( ) NAMED_UNIT ( #241 ) );
#193 = PRESENTATION_STYLE_ASSIGNMENT (( #163 ) ) ;
#194 =( GEOMETRIC_REPRESENTATION_CONTEXT ( 3 ) GLOBAL_UNCERTAINTY_ASSIGNED_CONTEXT ( ( #45 ) ) GLOBAL_UNIT_ASSIGNED_CONTEXT ( ( #272, #275, #247 ) ) REPRESENTATION_CONTEXT ( 'NONE', 'WORKASPACE' ) );
#195 = AXIS2_PLACEMENT_3D ( 'NONE', #281, #284, #55 ) ;
#196 = CARTESIAN_POINT ( 'NONE',  ( 1.224646799147353207E-16, 4.000000000000000000, 0.000000000000000000 ) ) ;
#197 =( NAMED_UNIT ( * ) PLANE_ANGLE_UNIT ( ) SI_UNIT ( $, .RADIAN. ) );
#198 = EDGE_CURVE ( 'NONE', #277, #19, #218, .T. ) ;
#199 = CARTESIAN_POINT ( 'NONE',  ( 0.000000000000000000, 0.000000000000000000, 0.000000000000000000 ) ) ;
#200 = DIMENSIONAL_EXPONENTS ( 1.000000000000000000, 0.000000000000000000, 0.000000000000000000, 0.000000000000000000, 0.000000000000000000, 0.000000000000000000, 0.000000000000000000 ) ;
#201 =( NAMED_UNIT ( * ) PLANE_ANGLE_UNIT ( ) SI_UNIT ( $, .RADIAN. ) );
#202 = DIMENSIONAL_EXPONENTS ( 1.000000000000000000, 0.000000000000000000, 0.000000000000000000, 0.000000000000000000, 0.000000000000000000, 0.000000000000000000, 0.000000000000000000 ) ;
#203 = LINE ( 'NONE', #101, #189 ) ;
#204 = EDGE_CURVE ( 'NONE', #211, #50, #203, .T. ) ;
#205 = AXIS2_PLACEMENT_3D ( 'NONE', #215, #14, #61 ) ;
#206 = EDGE_LOOP ( 'NONE', ( #98, #283, #94, #259 ) ) ;
#207 = EDGE_CURVE ( 'NONE', #50, #161, #111, .T. ) ;
#208 = PRESENTATION_STYLE_ASSIGNMENT (( #49 ) ) ;
#209 = DIRECTION ( 'NONE',  ( 0.000000000000000000, -1.000000000000000000, -0.000000000000000000 ) ) ;
#210 = ORIENTED_EDGE ( 'NONE', *, *, #198, .T. ) ;
#211 = VERTEX_POINT ( 'NONE', #35 ) ;
#212 =( NAMED_UNIT ( * ) SI_UNIT ( $, .STERADIAN. ) SOLID_ANGLE_UNIT ( ) );
#213 = ORIENTED_EDGE ( 'NONE', *, *, #103, .T. ) ;
#214 =( LENGTH_UNIT ( ) NAMED_UNIT ( * ) SI_UNIT ( $, .METRE. ) );
#215 = CARTESIAN_POINT ( 'NONE',  ( 0.000000000000000000, 1.250000000000000000, 0.000000000000000000 ) ) ;
#216 = FILL_AREA_STYLE_COLOUR ( '', #258 ) ;
#217 = CLOSED_SHELL ( 'NONE', ( #183, #23, #6, #41 ) ) ;
#218 = LINE ( 'NONE', #223, #156 ) ;
#219 = CARTESIAN_POINT ( 'NONE',  ( 0.000000000000000000, 0.000000000000000000, 0.000000000000000000 ) ) ;
#220 = FILL_AREA_STYLE_COLOUR ( '', #99 ) ;
#221 = SURFACE_STYLE_FILL_AREA ( #244 ) ;
#222 = FACE_OUTER_BOUND ( 'NONE', #255, .T. ) ;
#223 = CARTESIAN_POINT ( 'NONE',  ( -0.3749999999999998335, 4.000000000000000000, 0.000000000000000000 ) ) ;
#224 = PRODUCT ( '81716', '81716', '', ( #108 ) ) ;
#225 = ORIENTED_EDGE ( 'NONE', *, *, #207, .F. ) ;
#226 = STYLED_ITEM ( 'NONE', ( #193 ), #95 ) ;
#227 = DIRECTION ( 'NONE',  ( 0.000000000000000000, 0.000000000000000000, 1.000000000000000000 ) ) ;
#228 = ORIENTED_EDGE ( 'NONE', *, *, #291, .F. ) ;
#229 = CIRCLE ( 'NONE', #205, 0.3750000000000000555 ) ;
#230 = VERTEX_POINT ( 'NONE', #100 ) ;
#231 = CYLINDRICAL_SURFACE ( 'NONE', #21, 0.3750000000000000555 ) ;
#232 = AXIS2_PLACEMENT_3D ( 'NONE', #176, #294, #79 ) ;
#233 = DIRECTION ( 'NONE',  ( 0.000000000000000000, 0.000000000000000000, -1.000000000000000000 ) ) ;
#234 = FILL_AREA_STYLE ('',( #5 ) ) ;
#235 =( LENGTH_UNIT ( ) NAMED_UNIT ( * ) SI_UNIT ( $, .METRE. ) );
#236 = CARTESIAN_POINT ( 'NONE',  ( 0.000000000000000000, 0.000000000000000000, 0.000000000000000000 ) ) ;
#237 = COLOUR_RGB ( '',1.000000000000000000, 0.000000000000000000, 0.000000000000000000 ) ;
#238 = PRESENTATION_LAYER_ASSIGNMENT (  '', '', ( #226 ) ) ;
#239 = CARTESIAN_POINT ( 'NONE',  ( 0.3750000000000001110, 4.000000000000000000, 4.592425496802573602E-17 ) ) ;
#240 = CARTESIAN_POINT ( 'NONE',  ( 0.000000000000000000, 0.000000000000000000, -0.3750000000000000555 ) ) ;
#241 = DIMENSIONAL_EXPONENTS ( 1.000000000000000000, 0.000000000000000000, 0.000000000000000000, 0.000000000000000000, 0.000000000000000000, 0.000000000000000000, 0.000000000000000000 ) ;
#242 = DIRECTION ( 'NONE',  ( -0.000000000000000000, -1.000000000000000000, -0.000000000000000000 ) ) ;
#243 = FACE_OUTER_BOUND ( 'NONE', #16, .T. ) ;
#244 = FILL_AREA_STYLE ('',( #34 ) ) ;
#245 = DIMENSIONAL_EXPONENTS ( 1.000000000000000000, 0.000000000000000000, 0.000000000000000000, 0.000000000000000000, 0.000000000000000000, 0.000000000000000000, 0.000000000000000000 ) ;
#246 = UNCERTAINTY_MEASURE_WITH_UNIT (LENGTH_MEASURE( 1.000000000000000082E-05 ), #278, 'distance_accuracy_value', 'NONE');
#247 =( NAMED_UNIT ( * ) SI_UNIT ( $, .STERADIAN. ) SOLID_ANGLE_UNIT ( ) );
#248 = CARTESIAN_POINT ( 'NONE',  ( 0.000000000000000000, 0.000000000000000000, 0.000000000000000000 ) ) ;
#249 = DIRECTION ( 'NONE',  ( 0.000000000000000000, 0.000000000000000000, -1.000000000000000000 ) ) ;
#250 = PRODUCT_DEFINITION_SHAPE ( 'NONE', 'NONE',  #276 ) ;
#251 = EDGE_LOOP ( 'NONE', ( #151, #136 ) ) ;
#252 = CIRCLE ( 'NONE', #64, 0.3750000000000000555 ) ;
#253 = AXIS2_PLACEMENT_3D ( 'NONE', #132, #300, #46 ) ;
#254 = CARTESIAN_POINT ( 'NONE',  ( 0.3750000000000000555, 4.000000000000000000, 0.000000000000000000 ) ) ;
#255 = EDGE_LOOP ( 'NONE', ( #228, #213, #210, #24 ) ) ;
#256 = VERTEX_POINT ( 'NONE', #37 ) ;
#257 = UNCERTAINTY_MEASURE_WITH_UNIT (LENGTH_MEASURE( 1.000000000000000082E-05 ), #119, 'distance_accuracy_value', 'NONE');
#258 = COLOUR_RGB ( '',1.000000000000000000, 0.000000000000000000, 0.000000000000000000 ) ;
#259 = ORIENTED_EDGE ( 'NONE', *, *, #30, .F. ) ;
#260 = UNCERTAINTY_MEASURE_WITH_UNIT (LENGTH_MEASURE( 1.000000000000000082E-05 ), #102, 'distance_accuracy_value', 'NONE');
#261 =( NAMED_UNIT ( * ) PLANE_ANGLE_UNIT ( ) SI_UNIT ( $, .RADIAN. ) );
#262 = SURFACE_STYLE_FILL_AREA ( #25 ) ;
#263 = STYLED_ITEM ( 'NONE', ( #129 ), #41 ) ;
#264 = MECHANICAL_DESIGN_GEOMETRIC_PRESENTATION_REPRESENTATION (  '', ( #301 ), #56 ) ;
#265 = CARTESIAN_POINT ( 'NONE',  ( -1.516480271171051896E-32, 1.250000000000000000, 0.000000000000000000 ) ) ;
#266 = LENGTH_MEASURE_WITH_UNIT ( LENGTH_MEASURE( 0.02539999999999999897 ), #60 );
#267 = LENGTH_MEASURE_WITH_UNIT ( LENGTH_MEASURE( 0.02539999999999999897 ), #235 );
#268 = FACE_OUTER_BOUND ( 'NONE', #157, .T. ) ;
#269 = CIRCLE ( 'NONE', #253, 0.3750000000000000555 ) ;
#270 = DIRECTION ( 'NONE',  ( -0.000000000000000000, -1.000000000000000000, -0.000000000000000000 ) ) ;
#271 = DIRECTION ( 'NONE',  ( -0.000000000000000000, -1.000000000000000000, -0.000000000000000000 ) ) ;
#272 =( CONVERSION_BASED_UNIT ( 'INCH', #177 ) LENGTH_UNIT ( ) NAMED_UNIT ( #245 ) );
#273 = APPLICATION_CONTEXT ( 'automotive_design' ) ;
#274 = FACE_OUTER_BOUND ( 'NONE', #206, .T. ) ;
#275 =( NAMED_UNIT ( * ) PLANE_ANGLE_UNIT ( ) SI_UNIT ( $, .RADIAN. ) );
#276 = PRODUCT_DEFINITION ( 'UNKNOWN', '', #39, #158 ) ;
#277 = VERTEX_POINT ( 'NONE', #127 ) ;
#278 =( CONVERSION_BASED_UNIT ( 'INCH', #17 ) LENGTH_UNIT ( ) NAMED_UNIT ( #107 ) );
#279 = DIRECTION ( 'NONE',  ( -0.000000000000000000, -1.000000000000000000, -0.000000000000000000 ) ) ;
#280 = CIRCLE ( 'NONE', #168, 0.3750000000000000555 ) ;
#281 = CARTESIAN_POINT ( 'NONE',  ( 1.224646799147353207E-16, 4.000000000000000000, 0.000000000000000000 ) ) ;
#282 = ADVANCED_FACE ( 'NONE', ( #222 ), #83, .T. ) ;
#283 = ORIENTED_EDGE ( 'NONE', *, *, #204, .T. ) ;
#284 = DIRECTION ( 'NONE',  ( 4.453261087808557677E-17, 1.000000000000000000, -0.000000000000000000 ) ) ;
#285 = VECTOR ( 'NONE', #123, 39.37007874015748143 ) ;
#286 = DIRECTION ( 'NONE',  ( -1.000000000000000000, 0.000000000000000000, 0.000000000000000000 ) ) ;
#287 = ORIENTED_EDGE ( 'NONE', *, *, #204, .F. ) ;
#288 = SURFACE_STYLE_USAGE ( .BOTH. , #76 ) ;
#289 = DIMENSIONAL_EXPONENTS ( 1.000000000000000000, 0.000000000000000000, 0.000000000000000000, 0.000000000000000000, 0.000000000000000000, 0.000000000000000000, 0.000000000000000000 ) ;
#290 = AXIS2_PLACEMENT_3D ( 'NONE', #33, #122, #40 ) ;
#291 = EDGE_CURVE ( 'NONE', #110, #230, #146, .T. ) ;
#292 = SURFACE_STYLE_FILL_AREA ( #78 ) ;
#293 = DIRECTION ( 'NONE',  ( -1.000000000000000000, 0.000000000000000000, 0.000000000000000000 ) ) ;
#294 = DIRECTION ( 'NONE',  ( 4.453261087808557677E-17, 1.000000000000000000, -0.000000000000000000 ) ) ;
#295 = AXIS2_PLACEMENT_3D ( 'NONE', #66, #42, #44 ) ;
#296 =( GEOMETRIC_REPRESENTATION_CONTEXT ( 3 ) GLOBAL_UNCERTAINTY_ASSIGNED_CONTEXT ( ( #152 ) ) GLOBAL_UNIT_ASSIGNED_CONTEXT ( ( #164, #261, #212 ) ) REPRESENTATION_CONTEXT ( 'NONE', 'WORKASPACE' ) );
#297 = CARTESIAN_POINT ( 'NONE',  ( 0.000000000000000000, 0.000000000000000000, 0.000000000000000000 ) ) ;
#298 = SURFACE_SIDE_STYLE ('',( #221 ) ) ;
#299 = PRESENTATION_STYLE_ASSIGNMENT (( #125 ) ) ;
#300 = DIRECTION ( 'NONE',  ( 4.453261087808557677E-17, 1.000000000000000000, -0.000000000000000000 ) ) ;
#301 = STYLED_ITEM ( 'NONE', ( #299 ), #183 ) ;
#302 =( NAMED_UNIT ( * ) PLANE_ANGLE_UNIT ( ) SI_UNIT ( $, .RADIAN. ) );
#303 = MANIFOLD_SOLID_BREP ( 'Revolve - Cutting Edge', #217 ) ;
#304 = APPLICATION_CONTEXT ( 'automotive_design' ) ;
#305 = ORIENTED_EDGE ( 'NONE', *, *, #309, .T. ) ;
#306 =( CONVERSION_BASED_UNIT ( 'INCH', #65 ) LENGTH_UNIT ( ) NAMED_UNIT ( #289 ) );
#307 = ADVANCED_BREP_SHAPE_REPRESENTATION ( '81716', ( #303, #95, #13 ), #22 ) ;
#308 = CARTESIAN_POINT ( 'NONE',  ( 4.592425496802575451E-17, 0.000000000000000000, 0.3750000000000000555 ) ) ;
#309 = EDGE_CURVE ( 'NONE', #277, #110, #269, .T. ) ;
ENDSEC;
END-ISO-10303-21;
