ISO-10303-21;
HEADER;
FILE_DESCRIPTION (( 'STEP AP214' ),
    '1' );
FILE_NAME ('Micro_SD-125.STEP',
    '2021-09-02T13:22:59',
    ( '' ),
    ( '' ),
    'SwSTEP 2.0',
    'SolidWorks 2020',
    '' );
FILE_SCHEMA (( 'AUTOMOTIVE_DESIGN' ));
ENDSEC;

DATA;
#1 = DIRECTION ( 'NONE',  ( 0.0000000000000000000, 0.0000000000000000000, 1.000000000000000000 ) ) ;
#2 = AXIS2_PLACEMENT_3D ( 'NONE', #119, #223, #168 ) ;
#3 = CARTESIAN_POINT ( 'NONE',  ( 0.06245000000000004714, 0.0000000000000000000, 0.4509999999999999565 ) ) ;
#4 = AXIS2_PLACEMENT_3D ( 'NONE', #255, #1, #55 ) ;
#5 = PRODUCT ( 'Micro_SD-125', 'Micro_SD-125', '', ( #100 ) ) ;
#6 =( GEOMETRIC_REPRESENTATION_CONTEXT ( 3 ) GLOBAL_UNCERTAINTY_ASSIGNED_CONTEXT ( ( #193 ) ) GLOBAL_UNIT_ASSIGNED_CONTEXT ( ( #39, #260, #66 ) ) REPRESENTATION_CONTEXT ( 'NONE', 'WORKASPACE' ) );
#7 = DIRECTION ( 'NONE',  ( 1.000000000000000000, 0.0000000000000000000, 0.0000000000000000000 ) ) ;
#8 = DIRECTION ( 'NONE',  ( 0.0000000000000000000, 0.0000000000000000000, 1.000000000000000000 ) ) ;
#9 = DIRECTION ( 'NONE',  ( 0.0000000000000000000, 0.0000000000000000000, -1.000000000000000000 ) ) ;
#10 = EDGE_CURVE ( 'NONE', #216, #246, #53, .T. ) ;
#11 = VERTEX_POINT ( 'NONE', #272 ) ;
#12 = AXIS2_PLACEMENT_3D ( 'NONE', #121, #225, #323 ) ;
#13 = PRESENTATION_STYLE_ASSIGNMENT (( #244 ) ) ;
#14 = ORIENTED_EDGE ( 'NONE', *, *, #305, .F. ) ;
#15 = ORIENTED_EDGE ( 'NONE', *, *, #220, .T. ) ;
#16 = CIRCLE ( 'NONE', #56, 0.04750000000000064587 ) ;
#17 =( NAMED_UNIT ( * ) PLANE_ANGLE_UNIT ( ) SI_UNIT ( $, .RADIAN. ) );
#18 = ADVANCED_FACE ( 'NONE', ( #50 ), #171, .T. ) ;
#19 = DIRECTION ( 'NONE',  ( -1.000000000000000000, 0.0000000000000000000, 0.0000000000000000000 ) ) ;
#20 = ORIENTED_EDGE ( 'NONE', *, *, #79, .T. ) ;
#21 = EDGE_CURVE ( 'NONE', #246, #110, #253, .T. ) ;
#22 = AXIS2_PLACEMENT_3D ( 'NONE', #252, #9, #230 ) ;
#23 = APPLICATION_PROTOCOL_DEFINITION ( 'draft international standard', 'automotive_design', 1998, #137 ) ;
#24 = LENGTH_MEASURE_WITH_UNIT ( LENGTH_MEASURE( 0.02539999999999999897 ), #274 );
#25 = CARTESIAN_POINT ( 'NONE',  ( 0.0000000000000000000, 0.0000000000000000000, 0.0000000000000000000 ) ) ;
#26 = ADVANCED_FACE ( 'NONE', ( #101 ), #190, .T. ) ;
#27 = DIRECTION ( 'NONE',  ( -0.7071067811865456854, 0.0000000000000000000, -0.7071067811865493491 ) ) ;
#28 = DIRECTION ( 'NONE',  ( -0.0000000000000000000, -0.0000000000000000000, -1.000000000000000000 ) ) ;
#29 = CIRCLE ( 'NONE', #138, 0.06250000000000000000 ) ;
#30 = DIRECTION ( 'NONE',  ( 0.0000000000000000000, 0.0000000000000000000, 1.000000000000000000 ) ) ;
#31 = DIMENSIONAL_EXPONENTS ( 1.000000000000000000, 0.0000000000000000000, 0.0000000000000000000, 0.0000000000000000000, 0.0000000000000000000, 0.0000000000000000000, 0.0000000000000000000 ) ;
#32 = DIRECTION ( 'NONE',  ( -0.0000000000000000000, -0.0000000000000000000, -1.000000000000000000 ) ) ;
#33 = FACE_OUTER_BOUND ( 'NONE', #199, .T. ) ;
#34 = VECTOR ( 'NONE', #180, 39.37007874015748854 ) ;
#35 = LINE ( 'NONE', #309, #99 ) ;
#36 = ORIENTED_EDGE ( 'NONE', *, *, #160, .F. ) ;
#37 = MANIFOLD_SOLID_BREP ( 'Cut-Revolve2', #273 ) ;
#38 = ADVANCED_FACE ( 'NONE', ( #301 ), #248, .T. ) ;
#39 =( CONVERSION_BASED_UNIT ( 'INCH', #130 ) LENGTH_UNIT ( ) NAMED_UNIT ( #209 ) );
#40 = STYLED_ITEM ( 'NONE', ( #13 ), #97 ) ;
#41 = SURFACE_STYLE_FILL_AREA ( #264 ) ;
#42 = ORIENTED_EDGE ( 'NONE', *, *, #234, .T. ) ;
#43 = ORIENTED_EDGE ( 'NONE', *, *, #160, .T. ) ;
#44 = EDGE_CURVE ( 'NONE', #218, #246, #270, .T. ) ;
#45 = DIRECTION ( 'NONE',  ( 0.8571673007021137769, 0.0000000000000000000, 0.5150380749100518241 ) ) ;
#46 = PRESENTATION_LAYER_ASSIGNMENT (  '', '', ( #51 ) ) ;
#47 =( NAMED_UNIT ( * ) SI_UNIT ( $, .STERADIAN. ) SOLID_ANGLE_UNIT ( ) );
#48 = ORIENTED_EDGE ( 'NONE', *, *, #182, .T. ) ;
#49 = DIRECTION ( 'NONE',  ( 0.0000000000000000000, 0.0000000000000000000, 1.000000000000000000 ) ) ;
#50 = FACE_OUTER_BOUND ( 'NONE', #88, .T. ) ;
#51 = STYLED_ITEM ( 'NONE', ( #196 ), #37 ) ;
#52 = CIRCLE ( 'NONE', #114, 0.06244999999999999857 ) ;
#53 = LINE ( 'NONE', #172, #107 ) ;
#54 = CARTESIAN_POINT ( 'NONE',  ( 0.0000000000000000000, 0.0000000000000000000, 0.4509999999999999565 ) ) ;
#55 = DIRECTION ( 'NONE',  ( 1.000000000000000000, 0.0000000000000000000, 0.0000000000000000000 ) ) ;
#56 = AXIS2_PLACEMENT_3D ( 'NONE', #233, #8, #106 ) ;
#57 = DIRECTION ( 'NONE',  ( -0.0000000000000000000, -0.0000000000000000000, -1.000000000000000000 ) ) ;
#58 = CARTESIAN_POINT ( 'NONE',  ( 0.0000000000000000000, 0.0000000000000000000, 0.4510499999999999510 ) ) ;
#59 = EDGE_CURVE ( 'NONE', #62, #11, #126, .T. ) ;
#60 = DIRECTION ( 'NONE',  ( -1.000000000000000000, 0.0000000000000000000, 0.0000000000000000000 ) ) ;
#61 = DIRECTION ( 'NONE',  ( -1.000000000000000000, 0.0000000000000000000, 0.0000000000000000000 ) ) ;
#62 = VERTEX_POINT ( 'NONE', #72 ) ;
#63 = EDGE_CURVE ( 'NONE', #265, #118, #256, .T. ) ;
#64 = CARTESIAN_POINT ( 'NONE',  ( 0.0000000000000000000, 0.0000000000000000000, 1.500000000000000222 ) ) ;
#65 = ORIENTED_EDGE ( 'NONE', *, *, #21, .F. ) ;
#66 =( NAMED_UNIT ( * ) SI_UNIT ( $, .STERADIAN. ) SOLID_ANGLE_UNIT ( ) );
#67 = ORIENTED_EDGE ( 'NONE', *, *, #111, .T. ) ;
#68 = DIRECTION ( 'NONE',  ( -0.0000000000000000000, -0.0000000000000000000, -1.000000000000000000 ) ) ;
#69 = LENGTH_MEASURE_WITH_UNIT ( LENGTH_MEASURE( 0.02539999999999999897 ), #217 );
#70 = ORIENTED_EDGE ( 'NONE', *, *, #316, .T. ) ;
#71 = EDGE_LOOP ( 'NONE', ( #228, #70, #288, #208 ) ) ;
#72 = CARTESIAN_POINT ( 'NONE',  ( 0.06250000000000000000, 7.654042494670956004E-18, 0.4510499999999999510 ) ) ;
#73 = PRODUCT_DEFINITION ( 'UNKNOWN', '', #131, #195 ) ;
#74 = DIRECTION ( 'NONE',  ( -0.0000000000000000000, -0.0000000000000000000, -1.000000000000000000 ) ) ;
#75 = ORIENTED_EDGE ( 'NONE', *, *, #198, .T. ) ;
#76 = CARTESIAN_POINT ( 'NONE',  ( 0.06245000000000002632, 7.647919260675224182E-18, 0.0000000000000000000 ) ) ;
#77 = AXIS2_PLACEMENT_3D ( 'NONE', #54, #30, #125 ) ;
#78 = CARTESIAN_POINT ( 'NONE',  ( 0.0000000000000000000, 0.0000000000000000000, 1.485000000000000764 ) ) ;
#79 = EDGE_CURVE ( 'NONE', #216, #110, #307, .T. ) ;
#80 = LINE ( 'NONE', #177, #34 ) ;
#81 = DIRECTION ( 'NONE',  ( -0.8571673007021137769, 1.049727191138620298E-16, 0.5150380749100518241 ) ) ;
#82 = AXIS2_PLACEMENT_3D ( 'NONE', #25, #102, #201 ) ;
#83 = EDGE_CURVE ( 'NONE', #292, #11, #80, .T. ) ;
#84 = CARTESIAN_POINT ( 'NONE',  ( -0.06245000000000002632, 0.0000000000000000000, 0.0000000000000000000 ) ) ;
#85 = DIRECTION ( 'NONE',  ( -0.0000000000000000000, -0.0000000000000000000, -1.000000000000000000 ) ) ;
#86 = DIRECTION ( 'NONE',  ( 0.0000000000000000000, 0.0000000000000000000, 1.000000000000000000 ) ) ;
#87 = ORIENTED_EDGE ( 'NONE', *, *, #250, .T. ) ;
#88 = EDGE_LOOP ( 'NONE', ( #75, #48 ) ) ;
#89 = CYLINDRICAL_SURFACE ( 'NONE', #242, 0.06250000000000000000 ) ;
#90 = ORIENTED_EDGE ( 'NONE', *, *, #117, .T. ) ;
#91 = DIRECTION ( 'NONE',  ( 0.7071067811865469066, 0.0000000000000000000, 0.7071067811865479058 ) ) ;
#92 = ORIENTED_EDGE ( 'NONE', *, *, #111, .F. ) ;
#93 = AXIS2_PLACEMENT_3D ( 'NONE', #297, #49, #144 ) ;
#94 = ORIENTED_EDGE ( 'NONE', *, *, #63, .T. ) ;
#95 = PRODUCT_DEFINITION_SHAPE ( 'NONE', 'NONE',  #73 ) ;
#96 =( NAMED_UNIT ( * ) SI_UNIT ( $, .STERADIAN. ) SOLID_ANGLE_UNIT ( ) );
#97 = ADVANCED_BREP_SHAPE_REPRESENTATION ( 'Micro_SD-125', ( #37, #93 ), #6 ) ;
#98 = SURFACE_STYLE_USAGE ( .BOTH. , #224 ) ;
#99 = VECTOR ( 'NONE', #91, 39.37007874015748854 ) ;
#100 = PRODUCT_CONTEXT ( 'NONE', #289, 'mechanical' ) ;
#101 = FACE_OUTER_BOUND ( 'NONE', #167, .T. ) ;
#102 = DIRECTION ( 'NONE',  ( -0.0000000000000000000, -0.0000000000000000000, -1.000000000000000000 ) ) ;
#103 = AXIS2_PLACEMENT_3D ( 'NONE', #320, #74, #194 ) ;
#104 = LINE ( 'NONE', #84, #269 ) ;
#105 = CARTESIAN_POINT ( 'NONE',  ( 0.06250000000000000000, 7.654042494670956004E-18, 1.485000000000000764 ) ) ;
#106 = DIRECTION ( 'NONE',  ( 1.000000000000000000, 0.0000000000000000000, 0.0000000000000000000 ) ) ;
#107 = VECTOR ( 'NONE', #45, 39.37007874015748854 ) ;
#108 = DIRECTION ( 'NONE',  ( -0.0000000000000000000, -0.0000000000000000000, -1.000000000000000000 ) ) ;
#109 = DIRECTION ( 'NONE',  ( 0.7071067811865456854, 8.659560562354911904E-17, -0.7071067811865493491 ) ) ;
#110 = VERTEX_POINT ( 'NONE', #251 ) ;
#111 = EDGE_CURVE ( 'NONE', #218, #292, #280, .T. ) ;
#112 = CARTESIAN_POINT ( 'NONE',  ( 0.0000000000000000000, 0.0000000000000000000, 0.0000000000000000000 ) ) ;
#113 = AXIS2_PLACEMENT_3D ( 'NONE', #214, #183, #162 ) ;
#114 = AXIS2_PLACEMENT_3D ( 'NONE', #176, #57, #60 ) ;
#115 = EDGE_LOOP ( 'NONE', ( #120, #67, #42, #65 ) ) ;
#116 = DIRECTION ( 'NONE',  ( 1.000000000000000000, 0.0000000000000000000, 0.0000000000000000000 ) ) ;
#117 = EDGE_CURVE ( 'NONE', #145, #118, #161, .T. ) ;
#118 = VERTEX_POINT ( 'NONE', #303 ) ;
#119 = CARTESIAN_POINT ( 'NONE',  ( 0.0000000000000000000, 0.0000000000000000000, 0.4509999999999999565 ) ) ;
#120 = ORIENTED_EDGE ( 'NONE', *, *, #44, .F. ) ;
#121 = CARTESIAN_POINT ( 'NONE',  ( 0.0000000000000000000, 0.0000000000000000000, 1.500000000000000222 ) ) ;
#122 = MECHANICAL_DESIGN_GEOMETRIC_PRESENTATION_REPRESENTATION (  '', ( #40 ), #237 ) ;
#123 =( CONVERSION_BASED_UNIT ( 'INCH', #24 ) LENGTH_UNIT ( ) NAMED_UNIT ( #283 ) );
#124 = CARTESIAN_POINT ( 'NONE',  ( 0.0000000000000000000, 0.0000000000000000000, 0.0000000000000000000 ) ) ;
#125 = DIRECTION ( 'NONE',  ( 1.000000000000000000, 0.0000000000000000000, 0.0000000000000000000 ) ) ;
#126 = CIRCLE ( 'NONE', #103, 0.06250000000000000000 ) ;
#127 = CARTESIAN_POINT ( 'NONE',  ( 0.0000000000000000000, 0.0000000000000000000, 1.485000000000000764 ) ) ;
#128 = FACE_OUTER_BOUND ( 'NONE', #243, .T. ) ;
#129 = CIRCLE ( 'NONE', #4, 0.04750000000000064587 ) ;
#130 = LENGTH_MEASURE_WITH_UNIT ( LENGTH_MEASURE( 0.02539999999999999897 ), #187 );
#131 = PRODUCT_DEFINITION_FORMATION_WITH_SPECIFIED_SOURCE ( 'ANY', '', #5, .NOT_KNOWN. ) ;
#132 = ADVANCED_FACE ( 'NONE', ( #128 ), #299, .T. ) ;
#133 = FACE_OUTER_BOUND ( 'NONE', #321, .T. ) ;
#134 = ORIENTED_EDGE ( 'NONE', *, *, #83, .T. ) ;
#135 = UNCERTAINTY_MEASURE_WITH_UNIT (LENGTH_MEASURE( 1.000000000000000082E-05 ), #257, 'distance_accuracy_value', 'NONE');
#136 = DIRECTION ( 'NONE',  ( -1.000000000000000000, 0.0000000000000000000, 0.0000000000000000000 ) ) ;
#137 = APPLICATION_CONTEXT ( 'automotive_design' ) ;
#138 = AXIS2_PLACEMENT_3D ( 'NONE', #58, #304, #158 ) ;
#139 = AXIS2_PLACEMENT_3D ( 'NONE', #164, #86, #116 ) ;
#140 = ORIENTED_EDGE ( 'NONE', *, *, #250, .F. ) ;
#141 = EDGE_CURVE ( 'NONE', #110, #246, #52, .T. ) ;
#142 = SURFACE_SIDE_STYLE ('',( #41 ) ) ;
#143 = ORIENTED_EDGE ( 'NONE', *, *, #117, .F. ) ;
#144 = DIRECTION ( 'NONE',  ( 1.000000000000000000, 0.0000000000000000000, 0.0000000000000000000 ) ) ;
#145 = VERTEX_POINT ( 'NONE', #105 ) ;
#146 = FILL_AREA_STYLE ('',( #267 ) ) ;
#147 = VECTOR ( 'NONE', #32, 39.37007874015748143 ) ;
#148 = SURFACE_STYLE_FILL_AREA ( #146 ) ;
#149 = CARTESIAN_POINT ( 'NONE',  ( 0.0000000000000000000, 0.0000000000000000000, 0.03752374565827090724 ) ) ;
#150 = COLOUR_RGB ( '',0.7921568627450980005, 0.8196078431372548767, 0.9333333333333333481 ) ;
#151 = EDGE_CURVE ( 'NONE', #118, #145, #263, .T. ) ;
#152 = DIRECTION ( 'NONE',  ( -0.0000000000000000000, -0.0000000000000000000, -1.000000000000000000 ) ) ;
#153 = EDGE_CURVE ( 'NONE', #145, #62, #154, .T. ) ;
#154 = LINE ( 'NONE', #157, #236 ) ;
#155 =( GEOMETRIC_REPRESENTATION_CONTEXT ( 3 ) GLOBAL_UNCERTAINTY_ASSIGNED_CONTEXT ( ( #319 ) ) GLOBAL_UNIT_ASSIGNED_CONTEXT ( ( #123, #300, #96 ) ) REPRESENTATION_CONTEXT ( 'NONE', 'WORKASPACE' ) );
#156 = AXIS2_PLACEMENT_3D ( 'NONE', #112, #68, #207 ) ;
#157 = CARTESIAN_POINT ( 'NONE',  ( 0.06250000000000000000, 7.654042494670956004E-18, 1.500000000000000222 ) ) ;
#158 = DIRECTION ( 'NONE',  ( 1.000000000000000000, 0.0000000000000000000, 0.0000000000000000000 ) ) ;
#159 = CYLINDRICAL_SURFACE ( 'NONE', #82, 0.06245000000000002632 ) ;
#160 = EDGE_CURVE ( 'NONE', #292, #218, #219, .T. ) ;
#161 = CIRCLE ( 'NONE', #170, 0.06250000000000000000 ) ;
#162 = DIRECTION ( 'NONE',  ( 1.000000000000000000, 0.0000000000000000000, 0.0000000000000000000 ) ) ;
#163 = ORIENTED_EDGE ( 'NONE', *, *, #83, .F. ) ;
#164 = CARTESIAN_POINT ( 'NONE',  ( 0.0000000000000000000, 0.0000000000000000000, 39.37007874015748143 ) ) ;
#165 = VECTOR ( 'NONE', #109, 39.37007874015748143 ) ;
#166 = ORIENTED_EDGE ( 'NONE', *, *, #59, .F. ) ;
#167 = EDGE_LOOP ( 'NONE', ( #163, #92, #262, #245 ) ) ;
#168 = DIRECTION ( 'NONE',  ( 1.000000000000000000, 0.0000000000000000000, 0.0000000000000000000 ) ) ;
#169 = VERTEX_POINT ( 'NONE', #203 ) ;
#170 = AXIS2_PLACEMENT_3D ( 'NONE', #127, #279, #7 ) ;
#171 = PLANE ( 'NONE',  #12 ) ;
#172 = CARTESIAN_POINT ( 'NONE',  ( 0.0000000000000000000, 0.0000000000000000000, 0.0000000000000000000 ) ) ;
#173 = DIRECTION ( 'NONE',  ( -0.0000000000000000000, -0.0000000000000000000, -1.000000000000000000 ) ) ;
#174 = VECTOR ( 'NONE', #173, 39.37007874015748143 ) ;
#175 = CARTESIAN_POINT ( 'NONE',  ( 0.0000000000000000000, 0.0000000000000000000, 0.0000000000000000000 ) ) ;
#176 = CARTESIAN_POINT ( 'NONE',  ( 0.0000000000000000000, 0.0000000000000000000, 0.03752374565827090724 ) ) ;
#177 = CARTESIAN_POINT ( 'NONE',  ( -0.06245000000000004714, 7.647919260675225723E-18, 0.4509999999999999565 ) ) ;
#178 = AXIS2_PLACEMENT_3D ( 'NONE', #287, #238, #136 ) ;
#179 = COLOUR_RGB ( '',0.7921568627450980005, 0.8196078431372548767, 0.9333333333333333481 ) ;
#180 = DIRECTION ( 'NONE',  ( -0.7071067811865469066, 8.659560562354925463E-17, 0.7071067811865479058 ) ) ;
#181 = DIRECTION ( 'NONE',  ( -1.000000000000000000, 0.0000000000000000000, 0.0000000000000000000 ) ) ;
#182 = EDGE_CURVE ( 'NONE', #169, #265, #16, .T. ) ;
#183 = DIRECTION ( 'NONE',  ( 0.0000000000000000000, 0.0000000000000000000, 1.000000000000000000 ) ) ;
#184 = ORIENTED_EDGE ( 'NONE', *, *, #10, .F. ) ;
#185 = FACE_OUTER_BOUND ( 'NONE', #115, .T. ) ;
#186 = ORIENTED_EDGE ( 'NONE', *, *, #198, .F. ) ;
#187 =( LENGTH_UNIT ( ) NAMED_UNIT ( * ) SI_UNIT ( $, .METRE. ) );
#188 = EDGE_LOOP ( 'NONE', ( #184, #20, #318 ) ) ;
#189 = APPLICATION_PROTOCOL_DEFINITION ( 'draft international standard', 'automotive_design', 1998, #289 ) ;
#190 = CONICAL_SURFACE ( 'NONE', #2, 0.06245000000000004714, 0.7853981633974476129 ) ;
#191 = FILL_AREA_STYLE_COLOUR ( '', #179 ) ;
#192 = AXIS2_PLACEMENT_3D ( 'NONE', #229, #108, #181 ) ;
#193 = UNCERTAINTY_MEASURE_WITH_UNIT (LENGTH_MEASURE( 1.000000000000000082E-05 ), #39, 'distance_accuracy_value', 'NONE');
#194 = DIRECTION ( 'NONE',  ( 1.000000000000000000, 0.0000000000000000000, 0.0000000000000000000 ) ) ;
#195 = PRODUCT_DEFINITION_CONTEXT ( 'detailed design', #137, 'design' ) ;
#196 = PRESENTATION_STYLE_ASSIGNMENT (( #98 ) ) ;
#197 = CONICAL_SURFACE ( 'NONE', #139, 65.52281426576882950, 1.029744258676657198 ) ;
#198 = EDGE_CURVE ( 'NONE', #265, #169, #129, .T. ) ;
#199 = EDGE_LOOP ( 'NONE', ( #241, #247, #140, #259 ) ) ;
#200 = CARTESIAN_POINT ( 'NONE',  ( 0.0000000000000000000, 0.0000000000000000000, 1.500000000000000222 ) ) ;
#201 = DIRECTION ( 'NONE',  ( -1.000000000000000000, 0.0000000000000000000, 0.0000000000000000000 ) ) ;
#202 = VECTOR ( 'NONE', #81, 39.37007874015748854 ) ;
#203 = CARTESIAN_POINT ( 'NONE',  ( 0.04750000000000064587, 6.735557395310482421E-18, 1.500000000000000222 ) ) ;
#204 = DIRECTION ( 'NONE',  ( 0.0000000000000000000, 0.0000000000000000000, -1.000000000000000000 ) ) ;
#205 = LINE ( 'NONE', #282, #147 ) ;
#206 = FACE_OUTER_BOUND ( 'NONE', #313, .T. ) ;
#207 = DIRECTION ( 'NONE',  ( -1.000000000000000000, 0.0000000000000000000, 0.0000000000000000000 ) ) ;
#208 = ORIENTED_EDGE ( 'NONE', *, *, #63, .F. ) ;
#209 = DIMENSIONAL_EXPONENTS ( 1.000000000000000000, 0.0000000000000000000, 0.0000000000000000000, 0.0000000000000000000, 0.0000000000000000000, 0.0000000000000000000, 0.0000000000000000000 ) ;
#210 = CYLINDRICAL_SURFACE ( 'NONE', #156, 0.06245000000000002632 ) ;
#211 = ORIENTED_EDGE ( 'NONE', *, *, #21, .T. ) ;
#212 = ADVANCED_FACE ( 'NONE', ( #306 ), #285, .T. ) ;
#213 = MECHANICAL_DESIGN_GEOMETRIC_PRESENTATION_REPRESENTATION (  '', ( #51 ), #155 ) ;
#214 = CARTESIAN_POINT ( 'NONE',  ( 0.0000000000000000000, 0.0000000000000000000, 39.37007874015748143 ) ) ;
#215 = FACE_OUTER_BOUND ( 'NONE', #71, .T. ) ;
#216 = VERTEX_POINT ( 'NONE', #124 ) ;
#217 =( LENGTH_UNIT ( ) NAMED_UNIT ( * ) SI_UNIT ( $, .METRE. ) );
#218 = VERTEX_POINT ( 'NONE', #3 ) ;
#219 = CIRCLE ( 'NONE', #314, 0.06245000000000004714 ) ;
#220 = EDGE_CURVE ( 'NONE', #118, #11, #205, .T. ) ;
#221 = ORIENTED_EDGE ( 'NONE', *, *, #234, .F. ) ;
#222 = SHAPE_DEFINITION_REPRESENTATION ( #95, #97 ) ;
#223 = DIRECTION ( 'NONE',  ( 0.0000000000000000000, 0.0000000000000000000, 1.000000000000000000 ) ) ;
#224 = SURFACE_SIDE_STYLE ('',( #148 ) ) ;
#225 = DIRECTION ( 'NONE',  ( 0.0000000000000000000, 0.0000000000000000000, 1.000000000000000000 ) ) ;
#226 = AXIS2_PLACEMENT_3D ( 'NONE', #200, #249, #298 ) ;
#227 = PRESENTATION_LAYER_ASSIGNMENT (  '', '', ( #40 ) ) ;
#228 = ORIENTED_EDGE ( 'NONE', *, *, #182, .F. ) ;
#229 = CARTESIAN_POINT ( 'NONE',  ( 0.0000000000000000000, 0.0000000000000000000, 0.4509999999999999565 ) ) ;
#230 = DIRECTION ( 'NONE',  ( -1.000000000000000000, 0.0000000000000000000, 0.0000000000000000000 ) ) ;
#231 = PRODUCT_RELATED_PRODUCT_CATEGORY ( 'part', '', ( #5 ) ) ;
#232 = CARTESIAN_POINT ( 'NONE',  ( -0.04750000000000064587, 0.0000000000000000000, 1.500000000000000222 ) ) ;
#233 = CARTESIAN_POINT ( 'NONE',  ( 0.0000000000000000000, 0.0000000000000000000, 1.500000000000000222 ) ) ;
#234 = EDGE_CURVE ( 'NONE', #292, #110, #104, .T. ) ;
#235 = CARTESIAN_POINT ( 'NONE',  ( -0.04750000000000064587, 0.0000000000000000000, 1.500000000000000222 ) ) ;
#236 = VECTOR ( 'NONE', #152, 39.37007874015748143 ) ;
#237 =( GEOMETRIC_REPRESENTATION_CONTEXT ( 3 ) GLOBAL_UNCERTAINTY_ASSIGNED_CONTEXT ( ( #135 ) ) GLOBAL_UNIT_ASSIGNED_CONTEXT ( ( #257, #17, #47 ) ) REPRESENTATION_CONTEXT ( 'NONE', 'WORKASPACE' ) );
#238 = DIRECTION ( 'NONE',  ( 0.0000000000000000000, 0.0000000000000000000, -1.000000000000000000 ) ) ;
#239 = ORIENTED_EDGE ( 'NONE', *, *, #316, .F. ) ;
#240 = LINE ( 'NONE', #290, #165 ) ;
#241 = ORIENTED_EDGE ( 'NONE', *, *, #151, .T. ) ;
#242 = AXIS2_PLACEMENT_3D ( 'NONE', #64, #258, #61 ) ;
#243 = EDGE_LOOP ( 'NONE', ( #36, #134, #87, #14 ) ) ;
#244 = SURFACE_STYLE_USAGE ( .BOTH. , #142 ) ;
#245 = ORIENTED_EDGE ( 'NONE', *, *, #59, .T. ) ;
#246 = VERTEX_POINT ( 'NONE', #281 ) ;
#247 = ORIENTED_EDGE ( 'NONE', *, *, #153, .T. ) ;
#248 = CYLINDRICAL_SURFACE ( 'NONE', #226, 0.06250000000000000000 ) ;
#249 = DIRECTION ( 'NONE',  ( -0.0000000000000000000, -0.0000000000000000000, -1.000000000000000000 ) ) ;
#250 = EDGE_CURVE ( 'NONE', #11, #62, #29, .T. ) ;
#251 = CARTESIAN_POINT ( 'NONE',  ( -0.06244999999999999857, 0.0000000000000000000, 0.03752374565827090724 ) ) ;
#252 = CARTESIAN_POINT ( 'NONE',  ( 0.0000000000000000000, 0.0000000000000000000, 1.500000000000000222 ) ) ;
#253 = CIRCLE ( 'NONE', #293, 0.06244999999999999857 ) ;
#254 = CONICAL_SURFACE ( 'NONE', #113, 65.52281426576882950, 1.029744258676657198 ) ;
#255 = CARTESIAN_POINT ( 'NONE',  ( 0.0000000000000000000, 0.0000000000000000000, 1.500000000000000222 ) ) ;
#256 = LINE ( 'NONE', #232, #294 ) ;
#257 =( CONVERSION_BASED_UNIT ( 'INCH', #69 ) LENGTH_UNIT ( ) NAMED_UNIT ( #31 ) );
#258 = DIRECTION ( 'NONE',  ( -0.0000000000000000000, -0.0000000000000000000, -1.000000000000000000 ) ) ;
#259 = ORIENTED_EDGE ( 'NONE', *, *, #220, .F. ) ;
#260 =( NAMED_UNIT ( * ) PLANE_ANGLE_UNIT ( ) SI_UNIT ( $, .RADIAN. ) );
#261 = FACE_OUTER_BOUND ( 'NONE', #188, .T. ) ;
#262 = ORIENTED_EDGE ( 'NONE', *, *, #305, .T. ) ;
#263 = CIRCLE ( 'NONE', #275, 0.06250000000000000000 ) ;
#264 = FILL_AREA_STYLE ('',( #191 ) ) ;
#265 = VERTEX_POINT ( 'NONE', #235 ) ;
#266 = ORIENTED_EDGE ( 'NONE', *, *, #79, .F. ) ;
#267 = FILL_AREA_STYLE_COLOUR ( '', #150 ) ;
#268 = ADVANCED_FACE ( 'NONE', ( #206 ), #159, .T. ) ;
#269 = VECTOR ( 'NONE', #28, 39.37007874015748143 ) ;
#270 = LINE ( 'NONE', #76, #174 ) ;
#271 = DIRECTION ( 'NONE',  ( -0.0000000000000000000, -0.0000000000000000000, -1.000000000000000000 ) ) ;
#272 = CARTESIAN_POINT ( 'NONE',  ( -0.06250000000000000000, 0.0000000000000000000, 0.4510499999999999510 ) ) ;
#273 = CLOSED_SHELL ( 'NONE', ( #311, #268, #132, #302, #291, #38, #18, #212, #26, #286, #278 ) ) ;
#274 =( LENGTH_UNIT ( ) NAMED_UNIT ( * ) SI_UNIT ( $, .METRE. ) );
#275 = AXIS2_PLACEMENT_3D ( 'NONE', #78, #204, #276 ) ;
#276 = DIRECTION ( 'NONE',  ( 1.000000000000000000, 0.0000000000000000000, 0.0000000000000000000 ) ) ;
#277 = DIRECTION ( 'NONE',  ( -1.000000000000000000, 0.0000000000000000000, 0.0000000000000000000 ) ) ;
#278 = ADVANCED_FACE ( 'NONE', ( #133 ), #254, .T. ) ;
#279 = DIRECTION ( 'NONE',  ( 0.0000000000000000000, 0.0000000000000000000, -1.000000000000000000 ) ) ;
#280 = CIRCLE ( 'NONE', #192, 0.06245000000000004714 ) ;
#281 = CARTESIAN_POINT ( 'NONE',  ( 0.06244999999999999857, 7.647919260675222641E-18, 0.03752374565827090724 ) ) ;
#282 = CARTESIAN_POINT ( 'NONE',  ( -0.06250000000000000000, 0.0000000000000000000, 1.500000000000000222 ) ) ;
#283 = DIMENSIONAL_EXPONENTS ( 1.000000000000000000, 0.0000000000000000000, 0.0000000000000000000, 0.0000000000000000000, 0.0000000000000000000, 0.0000000000000000000, 0.0000000000000000000 ) ;
#284 = ORIENTED_EDGE ( 'NONE', *, *, #153, .F. ) ;
#285 = CONICAL_SURFACE ( 'NONE', #22, 0.04750000000000064587, 0.7853981633974457255 ) ;
#286 = ADVANCED_FACE ( 'NONE', ( #185 ), #210, .T. ) ;
#287 = CARTESIAN_POINT ( 'NONE',  ( 0.0000000000000000000, 0.0000000000000000000, 1.500000000000000222 ) ) ;
#288 = ORIENTED_EDGE ( 'NONE', *, *, #151, .F. ) ;
#289 = APPLICATION_CONTEXT ( 'automotive_design' ) ;
#290 = CARTESIAN_POINT ( 'NONE',  ( 0.04750000000000064587, 5.817072295950006528E-18, 1.500000000000000222 ) ) ;
#291 = ADVANCED_FACE ( 'NONE', ( #33 ), #89, .T. ) ;
#292 = VERTEX_POINT ( 'NONE', #312 ) ;
#293 = AXIS2_PLACEMENT_3D ( 'NONE', #149, #271, #19 ) ;
#294 = VECTOR ( 'NONE', #27, 39.37007874015748143 ) ;
#295 = ORIENTED_EDGE ( 'NONE', *, *, #10, .T. ) ;
#296 = EDGE_LOOP ( 'NONE', ( #284, #90, #15, #166 ) ) ;
#297 = CARTESIAN_POINT ( 'NONE',  ( 0.0000000000000000000, 0.0000000000000000000, 0.0000000000000000000 ) ) ;
#298 = DIRECTION ( 'NONE',  ( -1.000000000000000000, 0.0000000000000000000, 0.0000000000000000000 ) ) ;
#299 = CONICAL_SURFACE ( 'NONE', #77, 0.06245000000000004714, 0.7853981633974476129 ) ;
#300 =( NAMED_UNIT ( * ) PLANE_ANGLE_UNIT ( ) SI_UNIT ( $, .RADIAN. ) );
#301 = FACE_OUTER_BOUND ( 'NONE', #296, .T. ) ;
#302 = ADVANCED_FACE ( 'NONE', ( #215 ), #322, .T. ) ;
#303 = CARTESIAN_POINT ( 'NONE',  ( -0.06250000000000000000, 0.0000000000000000000, 1.485000000000000764 ) ) ;
#304 = DIRECTION ( 'NONE',  ( -0.0000000000000000000, -0.0000000000000000000, -1.000000000000000000 ) ) ;
#305 = EDGE_CURVE ( 'NONE', #218, #62, #35, .T. ) ;
#306 = FACE_OUTER_BOUND ( 'NONE', #317, .T. ) ;
#307 = LINE ( 'NONE', #175, #202 ) ;
#308 = CARTESIAN_POINT ( 'NONE',  ( 0.0000000000000000000, 0.0000000000000000000, 0.4509999999999999565 ) ) ;
#309 = CARTESIAN_POINT ( 'NONE',  ( 0.06245000000000004714, 0.0000000000000000000, 0.4509999999999999565 ) ) ;
#310 = ORIENTED_EDGE ( 'NONE', *, *, #44, .T. ) ;
#311 = ADVANCED_FACE ( 'NONE', ( #261 ), #197, .T. ) ;
#312 = CARTESIAN_POINT ( 'NONE',  ( -0.06245000000000004714, 7.650980877673093175E-18, 0.4509999999999999565 ) ) ;
#313 = EDGE_LOOP ( 'NONE', ( #43, #310, #315, #221 ) ) ;
#314 = AXIS2_PLACEMENT_3D ( 'NONE', #308, #85, #277 ) ;
#315 = ORIENTED_EDGE ( 'NONE', *, *, #141, .F. ) ;
#316 = EDGE_CURVE ( 'NONE', #169, #145, #240, .T. ) ;
#317 = EDGE_LOOP ( 'NONE', ( #239, #186, #94, #143 ) ) ;
#318 = ORIENTED_EDGE ( 'NONE', *, *, #141, .T. ) ;
#319 = UNCERTAINTY_MEASURE_WITH_UNIT (LENGTH_MEASURE( 1.000000000000000082E-05 ), #123, 'distance_accuracy_value', 'NONE');
#320 = CARTESIAN_POINT ( 'NONE',  ( 0.0000000000000000000, 0.0000000000000000000, 0.4510499999999999510 ) ) ;
#321 = EDGE_LOOP ( 'NONE', ( #266, #295, #211 ) ) ;
#322 = CONICAL_SURFACE ( 'NONE', #178, 0.04750000000000064587, 0.7853981633974457255 ) ;
#323 = DIRECTION ( 'NONE',  ( 1.000000000000000000, 0.0000000000000000000, -0.0000000000000000000 ) ) ;
ENDSEC;
END-ISO-10303-21;
