ISO-10303-21;
HEADER;
FILE_DESCRIPTION (( 'STEP AP214' ),
    '1' );
FILE_NAME ('83860.STEP',
    '2023-07-05T16:22:05',
    ( '' ),
    ( '' ),
    'SwSTEP 2.0',
    'SolidWorks 2023',
    '' );
FILE_SCHEMA (( 'AUTOMOTIVE_DESIGN' ));
ENDSEC;

DATA;
#1 = AXIS2_PLACEMENT_3D ( 'NONE', #15, #195, #35 ) ;
#2 = LINE ( 'NONE', #63, #13 ) ;
#3 = AXIS2_PLACEMENT_3D ( 'NONE', #6, #210, #14 ) ;
#4 = SURFACE_STYLE_FILL_AREA ( #232 ) ;
#5 = SURFACE_STYLE_USAGE ( .BOTH. , #68 ) ;
#6 = CARTESIAN_POINT ( 'NONE',  ( 0.000000000000000000, 0.000000000000000000, 0.000000000000000000 ) ) ;
#7 = EDGE_CURVE ( 'NONE', #25, #184, #33, .T. ) ;
#8 = CIRCLE ( 'NONE', #87, 0.1249999999999997780 ) ;
#9 = CARTESIAN_POINT ( 'NONE',  ( 0.1250000000000000278, 0.07216878364870273066, 1.530808498934191201E-17 ) ) ;
#10 = APPLICATION_CONTEXT ( 'automotive_design' ) ;
#11 = AXIS2_PLACEMENT_3D ( 'NONE', #239, #197, #17 ) ;
#12 = MECHANICAL_DESIGN_GEOMETRIC_PRESENTATION_REPRESENTATION (  '', ( #172 ), #230 ) ;
#13 = VECTOR ( 'NONE', #164, 39.37007874015748854 ) ;
#14 = DIRECTION ( 'NONE',  ( 1.000000000000000000, 0.000000000000000000, 0.000000000000000000 ) ) ;
#15 = CARTESIAN_POINT ( 'NONE',  ( 2.347681869555226296E-16, 0.07216878364870271678, 0.000000000000000000 ) ) ;
#16 = PRESENTATION_STYLE_ASSIGNMENT (( #149 ) ) ;
#17 = DIRECTION ( 'NONE',  ( -1.000000000000000000, 0.000000000000000000, 0.000000000000000000 ) ) ;
#18 = EDGE_LOOP ( 'NONE', ( #118, #57 ) ) ;
#19 = EDGE_CURVE ( 'NONE', #200, #40, #8, .T. ) ;
#20 = ORIENTED_EDGE ( 'NONE', *, *, #264, .F. ) ;
#21 = CARTESIAN_POINT ( 'NONE',  ( 0.000000000000000000, 0.000000000000000000, 0.000000000000000000 ) ) ;
#22 = UNCERTAINTY_MEASURE_WITH_UNIT (LENGTH_MEASURE( 1.000000000000000082E-05 ), #254, 'distance_accuracy_value', 'NONE');
#23 = CIRCLE ( 'NONE', #1, 0.1249999999999997780 ) ;
#24 = CARTESIAN_POINT ( 'NONE',  ( -0.1249999999999995420, 0.07216878364870270290, 0.000000000000000000 ) ) ;
#25 = VERTEX_POINT ( 'NONE', #262 ) ;
#26 = CARTESIAN_POINT ( 'NONE',  ( 0.1250000000000000000, 2.500000000000000000, 0.000000000000000000 ) ) ;
#27 = FACE_OUTER_BOUND ( 'NONE', #124, .T. ) ;
#28 =( NAMED_UNIT ( * ) SI_UNIT ( $, .STERADIAN. ) SOLID_ANGLE_UNIT ( ) );
#29 = DIRECTION ( 'NONE',  ( -2.181055688107444946E-17, -1.000000000000000000, -0.000000000000000000 ) ) ;
#30 = LENGTH_MEASURE_WITH_UNIT ( LENGTH_MEASURE( 0.02539999999999999897 ), #228 );
#31 = PRODUCT_DEFINITION_FORMATION_WITH_SPECIFIED_SOURCE ( 'ANY', '', #194, .NOT_KNOWN. ) ;
#32 = DIRECTION ( 'NONE',  ( -1.000000000000000000, 0.000000000000000000, 0.000000000000000000 ) ) ;
#33 = CIRCLE ( 'NONE', #192, 0.1250000000000000555 ) ;
#34 = COLOUR_RGB ( '',1.000000000000000000, 0.000000000000000000, 0.000000000000000000 ) ;
#35 = DIRECTION ( 'NONE',  ( -1.000000000000000000, -1.365923996832134074E-16, 0.000000000000000000 ) ) ;
#36 =( NAMED_UNIT ( * ) SI_UNIT ( $, .STERADIAN. ) SOLID_ANGLE_UNIT ( ) );
#37 = CARTESIAN_POINT ( 'NONE',  ( 0.1250000000000000000, 0.07216878364870282780, 1.530808498934191509E-17 ) ) ;
#38 = FACE_OUTER_BOUND ( 'NONE', #58, .T. ) ;
#39 = VECTOR ( 'NONE', #217, 39.37007874015748143 ) ;
#40 = VERTEX_POINT ( 'NONE', #24 ) ;
#41 = ORIENTED_EDGE ( 'NONE', *, *, #211, .T. ) ;
#42 = CARTESIAN_POINT ( 'NONE',  ( 1.574041360807988724E-18, 0.07216878364870282780, 0.000000000000000000 ) ) ;
#43 = FACE_OUTER_BOUND ( 'NONE', #121, .T. ) ;
#44 = LENGTH_MEASURE_WITH_UNIT ( LENGTH_MEASURE( 0.02539999999999999897 ), #173 );
#45 = FILL_AREA_STYLE ('',( #64 ) ) ;
#46 = COLOUR_RGB ( '',1.000000000000000000, 0.000000000000000000, 0.000000000000000000 ) ;
#47 = DIMENSIONAL_EXPONENTS ( 1.000000000000000000, 0.000000000000000000, 0.000000000000000000, 0.000000000000000000, 0.000000000000000000, 0.000000000000000000, 0.000000000000000000 ) ;
#48 =( NAMED_UNIT ( * ) SI_UNIT ( $, .STERADIAN. ) SOLID_ANGLE_UNIT ( ) );
#49 = SURFACE_SIDE_STYLE ('',( #144 ) ) ;
#50 = COLOUR_RGB ( '',0.7921568627450980005, 0.8196078431372548767, 0.9333333333333333481 ) ;
#51 = CARTESIAN_POINT ( 'NONE',  ( 8.586833417745846843E-16, 39.37007874015748143, 0.000000000000000000 ) ) ;
#52 =( NAMED_UNIT ( * ) PLANE_ANGLE_UNIT ( ) SI_UNIT ( $, .RADIAN. ) );
#53 = FILL_AREA_STYLE ('',( #189 ) ) ;
#54 = PRESENTATION_LAYER_ASSIGNMENT (  '', '', ( #159 ) ) ;
#55 =( NAMED_UNIT ( * ) PLANE_ANGLE_UNIT ( ) SI_UNIT ( $, .RADIAN. ) );
#56 = AXIS2_PLACEMENT_3D ( 'NONE', #188, #146, #86 ) ;
#57 = ORIENTED_EDGE ( 'NONE', *, *, #7, .T. ) ;
#58 = EDGE_LOOP ( 'NONE', ( #77, #138, #225, #243 ) ) ;
#59 = ORIENTED_EDGE ( 'NONE', *, *, #211, .F. ) ;
#60 =( GEOMETRIC_REPRESENTATION_CONTEXT ( 3 ) GLOBAL_UNCERTAINTY_ASSIGNED_CONTEXT ( ( #148 ) ) GLOBAL_UNIT_ASSIGNED_CONTEXT ( ( #154, #224, #160 ) ) REPRESENTATION_CONTEXT ( 'NONE', 'WORKASPACE' ) );
#61 = FILL_AREA_STYLE_COLOUR ( '', #46 ) ;
#62 = UNCERTAINTY_MEASURE_WITH_UNIT (LENGTH_MEASURE( 1.000000000000000082E-05 ), #83, 'distance_accuracy_value', 'NONE');
#63 = CARTESIAN_POINT ( 'NONE',  ( 0.000000000000000000, 0.000000000000000000, 0.000000000000000000 ) ) ;
#64 = FILL_AREA_STYLE_COLOUR ( '', #34 ) ;
#65 = DIRECTION ( 'NONE',  ( -2.181055688107444946E-17, -1.000000000000000000, -0.000000000000000000 ) ) ;
#66 = ADVANCED_FACE ( 'NONE', ( #43 ), #102, .F. ) ;
#67 = PLANE ( 'NONE',  #142 ) ;
#68 = SURFACE_SIDE_STYLE ('',( #168 ) ) ;
#69 = MECHANICAL_DESIGN_GEOMETRIC_PRESENTATION_REPRESENTATION (  '', ( #114 ), #260 ) ;
#70 = SHAPE_DEFINITION_REPRESENTATION ( #150, #139 ) ;
#71 = UNCERTAINTY_MEASURE_WITH_UNIT (LENGTH_MEASURE( 1.000000000000000082E-05 ), #202, 'distance_accuracy_value', 'NONE');
#72 = EDGE_CURVE ( 'NONE', #200, #25, #245, .T. ) ;
#73 =( GEOMETRIC_REPRESENTATION_CONTEXT ( 3 ) GLOBAL_UNCERTAINTY_ASSIGNED_CONTEXT ( ( #91 ) ) GLOBAL_UNIT_ASSIGNED_CONTEXT ( ( #106, #81, #48 ) ) REPRESENTATION_CONTEXT ( 'NONE', 'WORKASPACE' ) );
#74 = ORIENTED_EDGE ( 'NONE', *, *, #190, .F. ) ;
#75 = EDGE_LOOP ( 'NONE', ( #177, #198, #220, #203 ) ) ;
#76 = DIMENSIONAL_EXPONENTS ( 1.000000000000000000, 0.000000000000000000, 0.000000000000000000, 0.000000000000000000, 0.000000000000000000, 0.000000000000000000, 0.000000000000000000 ) ;
#77 = ORIENTED_EDGE ( 'NONE', *, *, #125, .T. ) ;
#78 = ADVANCED_FACE ( 'NONE', ( #209 ), #219, .T. ) ;
#79 = SURFACE_STYLE_FILL_AREA ( #182 ) ;
#80 = DIRECTION ( 'NONE',  ( 1.000000000000000000, 0.000000000000000000, 0.000000000000000000 ) ) ;
#81 =( NAMED_UNIT ( * ) PLANE_ANGLE_UNIT ( ) SI_UNIT ( $, .RADIAN. ) );
#82 = PRESENTATION_STYLE_ASSIGNMENT (( #233 ) ) ;
#83 =( CONVERSION_BASED_UNIT ( 'INCH', #187 ) LENGTH_UNIT ( ) NAMED_UNIT ( #263 ) );
#84 =( NAMED_UNIT ( * ) PLANE_ANGLE_UNIT ( ) SI_UNIT ( $, .RADIAN. ) );
#85 = EDGE_CURVE ( 'NONE', #184, #25, #107, .T. ) ;
#86 = DIRECTION ( 'NONE',  ( -1.000000000000000000, 2.181055688107444946E-17, 0.000000000000000000 ) ) ;
#87 = AXIS2_PLACEMENT_3D ( 'NONE', #223, #163, #250 ) ;
#88 = AXIS2_PLACEMENT_3D ( 'NONE', #231, #158, #246 ) ;
#89 = FILL_AREA_STYLE_COLOUR ( '', #50 ) ;
#90 = FACE_OUTER_BOUND ( 'NONE', #222, .T. ) ;
#91 = UNCERTAINTY_MEASURE_WITH_UNIT (LENGTH_MEASURE( 1.000000000000000082E-05 ), #106, 'distance_accuracy_value', 'NONE');
#92 = APPLICATION_PROTOCOL_DEFINITION ( 'draft international standard', 'automotive_design', 1998, #10 ) ;
#93 = CARTESIAN_POINT ( 'NONE',  ( -0.1250000000000001388, 2.500000000000000000, 0.000000000000000000 ) ) ;
#94 =( GEOMETRIC_REPRESENTATION_CONTEXT ( 3 ) GLOBAL_UNCERTAINTY_ASSIGNED_CONTEXT ( ( #62 ) ) GLOBAL_UNIT_ASSIGNED_CONTEXT ( ( #83, #52, #36 ) ) REPRESENTATION_CONTEXT ( 'NONE', 'WORKASPACE' ) );
#95 = VERTEX_POINT ( 'NONE', #226 ) ;
#96 = DIMENSIONAL_EXPONENTS ( 1.000000000000000000, 0.000000000000000000, 0.000000000000000000, 0.000000000000000000, 0.000000000000000000, 0.000000000000000000, 0.000000000000000000 ) ;
#97 = ORIENTED_EDGE ( 'NONE', *, *, #264, .T. ) ;
#98 = DIRECTION ( 'NONE',  ( -1.000000000000000000, 0.000000000000000000, 0.000000000000000000 ) ) ;
#99 = DIRECTION ( 'NONE',  ( -1.000000000000000000, 0.000000000000000000, 0.000000000000000000 ) ) ;
#100 = LENGTH_MEASURE_WITH_UNIT ( LENGTH_MEASURE( 0.02539999999999999897 ), #265 );
#101 = ORIENTED_EDGE ( 'NONE', *, *, #257, .F. ) ;
#102 = PLANE ( 'NONE',  #129 ) ;
#103 = DIMENSIONAL_EXPONENTS ( 1.000000000000000000, 0.000000000000000000, 0.000000000000000000, 0.000000000000000000, 0.000000000000000000, 0.000000000000000000, 0.000000000000000000 ) ;
#104 =( NAMED_UNIT ( * ) SI_UNIT ( $, .STERADIAN. ) SOLID_ANGLE_UNIT ( ) );
#105 = MANIFOLD_SOLID_BREP ( 'Revolve - Tool Body (Pointed)', #113 ) ;
#106 =( CONVERSION_BASED_UNIT ( 'INCH', #204 ) LENGTH_UNIT ( ) NAMED_UNIT ( #119 ) );
#107 = CIRCLE ( 'NONE', #122, 0.1250000000000000555 ) ;
#108 = CARTESIAN_POINT ( 'NONE',  ( 1.574041360807988724E-18, 0.07216878364870282780, 0.000000000000000000 ) ) ;
#109 = PLANE ( 'NONE',  #56 ) ;
#110 = ADVANCED_FACE ( 'NONE', ( #27 ), #109, .T. ) ;
#111 = FACE_OUTER_BOUND ( 'NONE', #18, .T. ) ;
#112 = ADVANCED_FACE ( 'NONE', ( #111 ), #67, .F. ) ;
#113 = CLOSED_SHELL ( 'NONE', ( #162, #66, #214, #112 ) ) ;
#114 = STYLED_ITEM ( 'NONE', ( #170 ), #110 ) ;
#115 = ORIENTED_EDGE ( 'NONE', *, *, #125, .F. ) ;
#116 = PRESENTATION_LAYER_ASSIGNMENT (  '', '', ( #181 ) ) ;
#117 = AXIS2_PLACEMENT_3D ( 'NONE', #42, #29, #229 ) ;
#118 = ORIENTED_EDGE ( 'NONE', *, *, #85, .T. ) ;
#119 = DIMENSIONAL_EXPONENTS ( 1.000000000000000000, 0.000000000000000000, 0.000000000000000000, 0.000000000000000000, 0.000000000000000000, 0.000000000000000000, 0.000000000000000000 ) ;
#120 = ADVANCED_FACE ( 'NONE', ( #90 ), #212, .T. ) ;
#121 = EDGE_LOOP ( 'NONE', ( #115, #258 ) ) ;
#122 = AXIS2_PLACEMENT_3D ( 'NONE', #244, #127, #99 ) ;
#123 = DIRECTION ( 'NONE',  ( -1.000000000000000000, 0.000000000000000000, 0.000000000000000000 ) ) ;
#124 = EDGE_LOOP ( 'NONE', ( #101, #59 ) ) ;
#125 = EDGE_CURVE ( 'NONE', #40, #200, #23, .T. ) ;
#126 =( LENGTH_UNIT ( ) NAMED_UNIT ( * ) SI_UNIT ( $, .METRE. ) );
#127 = DIRECTION ( 'NONE',  ( -1.219197302182064860E-16, 1.000000000000000000, -0.000000000000000000 ) ) ;
#128 = SURFACE_STYLE_FILL_AREA ( #45 ) ;
#129 = AXIS2_PLACEMENT_3D ( 'NONE', #130, #227, #156 ) ;
#130 = CARTESIAN_POINT ( 'NONE',  ( 2.347681869555226296E-16, 0.07216878364870282780, 0.000000000000000000 ) ) ;
#131 = CIRCLE ( 'NONE', #238, 0.1249999999999999861 ) ;
#132 = APPLICATION_PROTOCOL_DEFINITION ( 'draft international standard', 'automotive_design', 1998, #165 ) ;
#133 = COLOUR_RGB ( '',1.000000000000000000, 0.000000000000000000, 0.000000000000000000 ) ;
#134 = SURFACE_SIDE_STYLE ('',( #4 ) ) ;
#135 = UNCERTAINTY_MEASURE_WITH_UNIT (LENGTH_MEASURE( 1.000000000000000082E-05 ), #175, 'distance_accuracy_value', 'NONE');
#136 =( GEOMETRIC_REPRESENTATION_CONTEXT ( 3 ) GLOBAL_UNCERTAINTY_ASSIGNED_CONTEXT ( ( #135 ) ) GLOBAL_UNIT_ASSIGNED_CONTEXT ( ( #175, #55, #215 ) ) REPRESENTATION_CONTEXT ( 'NONE', 'WORKASPACE' ) );
#137 = CARTESIAN_POINT ( 'NONE',  ( -0.1249999999999999861, 2.500000000000000000, 0.000000000000000000 ) ) ;
#138 = ORIENTED_EDGE ( 'NONE', *, *, #72, .T. ) ;
#139 = ADVANCED_BREP_SHAPE_REPRESENTATION ( '83860', ( #193, #105, #3 ), #73 ) ;
#140 = PRESENTATION_STYLE_ASSIGNMENT (( #5 ) ) ;
#141 =( LENGTH_UNIT ( ) NAMED_UNIT ( * ) SI_UNIT ( $, .METRE. ) );
#142 = AXIS2_PLACEMENT_3D ( 'NONE', #26, #161, #234 ) ;
#143 = PRESENTATION_LAYER_ASSIGNMENT (  '', '', ( #169 ) ) ;
#144 = SURFACE_STYLE_FILL_AREA ( #145 ) ;
#145 = FILL_AREA_STYLE ('',( #89 ) ) ;
#146 = DIRECTION ( 'NONE',  ( 2.181055688107444946E-17, 1.000000000000000000, 0.000000000000000000 ) ) ;
#147 = EDGE_CURVE ( 'NONE', #40, #184, #171, .T. ) ;
#148 = UNCERTAINTY_MEASURE_WITH_UNIT (LENGTH_MEASURE( 1.000000000000000082E-05 ), #154, 'distance_accuracy_value', 'NONE');
#149 = SURFACE_STYLE_USAGE ( .BOTH. , #153 ) ;
#150 = PRODUCT_DEFINITION_SHAPE ( 'NONE', 'NONE',  #253 ) ;
#151 = COLOUR_RGB ( '',0.7921568627450980005, 0.8196078431372548767, 0.9333333333333333481 ) ;
#152 = CYLINDRICAL_SURFACE ( 'NONE', #11, 0.1249999999999999167 ) ;
#153 = SURFACE_SIDE_STYLE ('',( #128 ) ) ;
#154 =( CONVERSION_BASED_UNIT ( 'INCH', #100 ) LENGTH_UNIT ( ) NAMED_UNIT ( #103 ) );
#155 = VERTEX_POINT ( 'NONE', #37 ) ;
#156 = DIRECTION ( 'NONE',  ( -1.000000000000000000, -1.219197302182064860E-16, 0.000000000000000000 ) ) ;
#157 = PRESENTATION_STYLE_ASSIGNMENT (( #205 ) ) ;
#158 = DIRECTION ( 'NONE',  ( -1.219197302182064860E-16, 1.000000000000000000, -0.000000000000000000 ) ) ;
#159 = STYLED_ITEM ( 'NONE', ( #157 ), #105 ) ;
#160 =( NAMED_UNIT ( * ) SI_UNIT ( $, .STERADIAN. ) SOLID_ANGLE_UNIT ( ) );
#161 = DIRECTION ( 'NONE',  ( 1.219197302182064860E-16, -1.000000000000000000, 0.000000000000000000 ) ) ;
#162 = ADVANCED_FACE ( 'NONE', ( #38 ), #152, .T. ) ;
#163 = DIRECTION ( 'NONE',  ( -1.219197302182064860E-16, 1.000000000000000000, -0.000000000000000000 ) ) ;
#164 = DIRECTION ( 'NONE',  ( 0.8660254037844397068, 0.4999999999999979461, 1.060575238724908024E-16 ) ) ;
#165 = APPLICATION_CONTEXT ( 'automotive_design' ) ;
#166 = CARTESIAN_POINT ( 'NONE',  ( -0.1250000000000000000, 0.07216878364870282780, 0.000000000000000000 ) ) ;
#167 = AXIS2_PLACEMENT_3D ( 'NONE', #251, #241, #32 ) ;
#168 = SURFACE_STYLE_FILL_AREA ( #53 ) ;
#169 = STYLED_ITEM ( 'NONE', ( #82 ), #193 ) ;
#170 = PRESENTATION_STYLE_ASSIGNMENT (( #252 ) ) ;
#171 = LINE ( 'NONE', #137, #39 ) ;
#172 = STYLED_ITEM ( 'NONE', ( #140 ), #78 ) ;
#173 =( LENGTH_UNIT ( ) NAMED_UNIT ( * ) SI_UNIT ( $, .METRE. ) );
#174 = MECHANICAL_DESIGN_GEOMETRIC_PRESENTATION_REPRESENTATION (  '', ( #169 ), #94 ) ;
#175 =( CONVERSION_BASED_UNIT ( 'INCH', #218 ) LENGTH_UNIT ( ) NAMED_UNIT ( #76 ) );
#176 = LINE ( 'NONE', #21, #208 ) ;
#177 = ORIENTED_EDGE ( 'NONE', *, *, #72, .F. ) ;
#178 = DIRECTION ( 'NONE',  ( -0.8660254037844397068, 0.4999999999999979461, 0.000000000000000000 ) ) ;
#179 = DIRECTION ( 'NONE',  ( 2.181055688107444946E-17, 1.000000000000000000, 0.000000000000000000 ) ) ;
#180 = ORIENTED_EDGE ( 'NONE', *, *, #257, .T. ) ;
#181 = STYLED_ITEM ( 'NONE', ( #16 ), #120 ) ;
#182 = FILL_AREA_STYLE ('',( #207 ) ) ;
#183 = SURFACE_SIDE_STYLE ('',( #79 ) ) ;
#184 = VERTEX_POINT ( 'NONE', #93 ) ;
#185 = FACE_OUTER_BOUND ( 'NONE', #75, .T. ) ;
#186 = CARTESIAN_POINT ( 'NONE',  ( -6.123233995736766036E-17, 2.500000000000000000, 0.000000000000000000 ) ) ;
#187 = LENGTH_MEASURE_WITH_UNIT ( LENGTH_MEASURE( 0.02539999999999999897 ), #126 );
#188 = CARTESIAN_POINT ( 'NONE',  ( 1.574041360807988724E-18, 0.07216878364870282780, 0.000000000000000000 ) ) ;
#189 = FILL_AREA_STYLE_COLOUR ( '', #133 ) ;
#190 = EDGE_CURVE ( 'NONE', #95, #242, #176, .T. ) ;
#191 = CYLINDRICAL_SURFACE ( 'NONE', #88, 0.1249999999999999167 ) ;
#192 = AXIS2_PLACEMENT_3D ( 'NONE', #186, #221, #98 ) ;
#193 = MANIFOLD_SOLID_BREP ( 'Revolve - Cutting Edge', #259 ) ;
#194 = PRODUCT ( '83860', '83860', '', ( #256 ) ) ;
#195 = DIRECTION ( 'NONE',  ( -1.219197302182064860E-16, 1.000000000000000000, -0.000000000000000000 ) ) ;
#196 = MECHANICAL_DESIGN_GEOMETRIC_PRESENTATION_REPRESENTATION (  '', ( #159 ), #60 ) ;
#197 = DIRECTION ( 'NONE',  ( -1.219197302182064860E-16, 1.000000000000000000, -0.000000000000000000 ) ) ;
#198 = ORIENTED_EDGE ( 'NONE', *, *, #19, .T. ) ;
#199 =( NAMED_UNIT ( * ) PLANE_ANGLE_UNIT ( ) SI_UNIT ( $, .RADIAN. ) );
#200 = VERTEX_POINT ( 'NONE', #9 ) ;
#201 = PRODUCT_RELATED_PRODUCT_CATEGORY ( 'part', '', ( #194 ) ) ;
#202 =( CONVERSION_BASED_UNIT ( 'INCH', #44 ) LENGTH_UNIT ( ) NAMED_UNIT ( #96 ) );
#203 = ORIENTED_EDGE ( 'NONE', *, *, #7, .F. ) ;
#204 = LENGTH_MEASURE_WITH_UNIT ( LENGTH_MEASURE( 0.02539999999999999897 ), #141 );
#205 = SURFACE_STYLE_USAGE ( .BOTH. , #183 ) ;
#206 = DIRECTION ( 'NONE',  ( -1.219197302182064860E-16, 1.000000000000000000, -0.000000000000000000 ) ) ;
#207 = FILL_AREA_STYLE_COLOUR ( '', #151 ) ;
#208 = VECTOR ( 'NONE', #178, 39.37007874015748854 ) ;
#209 = FACE_OUTER_BOUND ( 'NONE', #240, .T. ) ;
#210 = DIRECTION ( 'NONE',  ( 0.000000000000000000, 0.000000000000000000, 1.000000000000000000 ) ) ;
#211 = EDGE_CURVE ( 'NONE', #155, #242, #249, .T. ) ;
#212 = CONICAL_SURFACE ( 'NONE', #167, 68.19097667594041923, 1.047197551196600074 ) ;
#213 = PRODUCT_DEFINITION_CONTEXT ( 'detailed design', #10, 'design' ) ;
#214 = ADVANCED_FACE ( 'NONE', ( #185 ), #191, .T. ) ;
#215 =( NAMED_UNIT ( * ) SI_UNIT ( $, .STERADIAN. ) SOLID_ANGLE_UNIT ( ) );
#216 = VECTOR ( 'NONE', #206, 39.37007874015748143 ) ;
#217 = DIRECTION ( 'NONE',  ( -1.219197302182064860E-16, 1.000000000000000000, -0.000000000000000000 ) ) ;
#218 = LENGTH_MEASURE_WITH_UNIT ( LENGTH_MEASURE( 0.02539999999999999897 ), #236 );
#219 = CONICAL_SURFACE ( 'NONE', #247, 68.19097667594041923, 1.047197551196600074 ) ;
#220 = ORIENTED_EDGE ( 'NONE', *, *, #147, .T. ) ;
#221 = DIRECTION ( 'NONE',  ( -1.219197302182064860E-16, 1.000000000000000000, -0.000000000000000000 ) ) ;
#222 = EDGE_LOOP ( 'NONE', ( #74, #97, #41 ) ) ;
#223 = CARTESIAN_POINT ( 'NONE',  ( 2.347681869555226296E-16, 0.07216878364870271678, 0.000000000000000000 ) ) ;
#224 =( NAMED_UNIT ( * ) PLANE_ANGLE_UNIT ( ) SI_UNIT ( $, .RADIAN. ) );
#225 = ORIENTED_EDGE ( 'NONE', *, *, #85, .F. ) ;
#226 = CARTESIAN_POINT ( 'NONE',  ( 0.000000000000000000, 0.000000000000000000, 0.000000000000000000 ) ) ;
#227 = DIRECTION ( 'NONE',  ( -1.219197302182064860E-16, 1.000000000000000000, 0.000000000000000000 ) ) ;
#228 =( LENGTH_UNIT ( ) NAMED_UNIT ( * ) SI_UNIT ( $, .METRE. ) );
#229 = DIRECTION ( 'NONE',  ( 1.000000000000000000, 0.000000000000000000, 0.000000000000000000 ) ) ;
#230 =( GEOMETRIC_REPRESENTATION_CONTEXT ( 3 ) GLOBAL_UNCERTAINTY_ASSIGNED_CONTEXT ( ( #71 ) ) GLOBAL_UNIT_ASSIGNED_CONTEXT ( ( #202, #199, #104 ) ) REPRESENTATION_CONTEXT ( 'NONE', 'WORKASPACE' ) );
#231 = CARTESIAN_POINT ( 'NONE',  ( -6.123233995736766036E-17, 2.500000000000000000, 0.000000000000000000 ) ) ;
#232 = FILL_AREA_STYLE ('',( #61 ) ) ;
#233 = SURFACE_STYLE_USAGE ( .BOTH. , #49 ) ;
#234 = DIRECTION ( 'NONE',  ( 1.000000000000000000, 1.219197302182064860E-16, 0.000000000000000000 ) ) ;
#235 = PRESENTATION_LAYER_ASSIGNMENT (  '', '', ( #114 ) ) ;
#236 =( LENGTH_UNIT ( ) NAMED_UNIT ( * ) SI_UNIT ( $, .METRE. ) );
#237 = PRESENTATION_LAYER_ASSIGNMENT (  '', '', ( #172 ) ) ;
#238 = AXIS2_PLACEMENT_3D ( 'NONE', #108, #65, #80 ) ;
#239 = CARTESIAN_POINT ( 'NONE',  ( -6.123233995736766036E-17, 2.500000000000000000, 0.000000000000000000 ) ) ;
#240 = EDGE_LOOP ( 'NONE', ( #20, #261, #180 ) ) ;
#241 = DIRECTION ( 'NONE',  ( 2.181055688107444946E-17, 1.000000000000000000, 0.000000000000000000 ) ) ;
#242 = VERTEX_POINT ( 'NONE', #166 ) ;
#243 = ORIENTED_EDGE ( 'NONE', *, *, #147, .F. ) ;
#244 = CARTESIAN_POINT ( 'NONE',  ( -6.123233995736766036E-17, 2.500000000000000000, 0.000000000000000000 ) ) ;
#245 = LINE ( 'NONE', #248, #216 ) ;
#246 = DIRECTION ( 'NONE',  ( -1.000000000000000000, 0.000000000000000000, 0.000000000000000000 ) ) ;
#247 = AXIS2_PLACEMENT_3D ( 'NONE', #51, #179, #123 ) ;
#248 = CARTESIAN_POINT ( 'NONE',  ( 0.1249999999999998473, 2.500000000000000000, 1.530808498934190276E-17 ) ) ;
#249 = CIRCLE ( 'NONE', #117, 0.1249999999999999861 ) ;
#250 = DIRECTION ( 'NONE',  ( -1.000000000000000000, -1.365923996832134074E-16, 0.000000000000000000 ) ) ;
#251 = CARTESIAN_POINT ( 'NONE',  ( 8.586833417745846843E-16, 39.37007874015748143, 0.000000000000000000 ) ) ;
#252 = SURFACE_STYLE_USAGE ( .BOTH. , #134 ) ;
#253 = PRODUCT_DEFINITION ( 'UNKNOWN', '', #31, #213 ) ;
#254 =( CONVERSION_BASED_UNIT ( 'INCH', #30 ) LENGTH_UNIT ( ) NAMED_UNIT ( #47 ) );
#255 = MECHANICAL_DESIGN_GEOMETRIC_PRESENTATION_REPRESENTATION (  '', ( #181 ), #136 ) ;
#256 = PRODUCT_CONTEXT ( 'NONE', #165, 'mechanical' ) ;
#257 = EDGE_CURVE ( 'NONE', #242, #155, #131, .T. ) ;
#258 = ORIENTED_EDGE ( 'NONE', *, *, #19, .F. ) ;
#259 = CLOSED_SHELL ( 'NONE', ( #120, #110, #78 ) ) ;
#260 =( GEOMETRIC_REPRESENTATION_CONTEXT ( 3 ) GLOBAL_UNCERTAINTY_ASSIGNED_CONTEXT ( ( #22 ) ) GLOBAL_UNIT_ASSIGNED_CONTEXT ( ( #254, #84, #28 ) ) REPRESENTATION_CONTEXT ( 'NONE', 'WORKASPACE' ) );
#261 = ORIENTED_EDGE ( 'NONE', *, *, #190, .T. ) ;
#262 = CARTESIAN_POINT ( 'NONE',  ( 0.1249999999999999861, 2.500000000000000000, 1.530808498934191201E-17 ) ) ;
#263 = DIMENSIONAL_EXPONENTS ( 1.000000000000000000, 0.000000000000000000, 0.000000000000000000, 0.000000000000000000, 0.000000000000000000, 0.000000000000000000, 0.000000000000000000 ) ;
#264 = EDGE_CURVE ( 'NONE', #95, #155, #2, .T. ) ;
#265 =( LENGTH_UNIT ( ) NAMED_UNIT ( * ) SI_UNIT ( $, .METRE. ) );
ENDSEC;
END-ISO-10303-21;
