ISO-10303-21;
HEADER;
FILE_DESCRIPTION (( 'STEP AP214' ),
    '1' );
FILE_NAME ('Micro_KC-125-190-060X.STEP',
    '2021-09-03T19:09:38',
    ( '' ),
    ( '' ),
    'SwSTEP 2.0',
    'SolidWorks 2020',
    '' );
FILE_SCHEMA (( 'AUTOMOTIVE_DESIGN' ));
ENDSEC;

DATA;
#1 = CONICAL_SURFACE ( 'NONE', #214, 0.04750000000000064587, 0.7853981633974457255 ) ;
#2 = CIRCLE ( 'NONE', #368, 0.03100000000000000672 ) ;
#3 = VERTEX_POINT ( 'NONE', #104 ) ;
#4 = ORIENTED_EDGE ( 'NONE', *, *, #192, .F. ) ;
#5 = VERTEX_POINT ( 'NONE', #313 ) ;
#6 = DIRECTION ( 'NONE',  ( -1.000000000000000000, 0.0000000000000000000, 0.0000000000000000000 ) ) ;
#7 = EDGE_LOOP ( 'NONE', ( #331, #298, #106, #156 ) ) ;
#8 = CARTESIAN_POINT ( 'NONE',  ( -0.06250000000000000000, 0.0000000000000000000, 0.2214999999999998359 ) ) ;
#9 = ORIENTED_EDGE ( 'NONE', *, *, #172, .T. ) ;
#10 = CYLINDRICAL_SURFACE ( 'NONE', #92, 0.06250000000000000000 ) ;
#11 = PRESENTATION_STYLE_ASSIGNMENT (( #138 ) ) ;
#12 = DIRECTION ( 'NONE',  ( -1.000000000000000000, 0.0000000000000000000, 0.0000000000000000000 ) ) ;
#13 = EDGE_CURVE ( 'NONE', #33, #165, #336, .T. ) ;
#14 = VECTOR ( 'NONE', #346, 39.37007874015748143 ) ;
#15 = CARTESIAN_POINT ( 'NONE',  ( 0.0000000000000000000, 0.0000000000000000000, 0.1899999999999999745 ) ) ;
#16 = DIRECTION ( 'NONE',  ( 0.0000000000000000000, 0.0000000000000000000, 1.000000000000000000 ) ) ;
#17 = ORIENTED_EDGE ( 'NONE', *, *, #88, .T. ) ;
#18 = FILL_AREA_STYLE ('',( #253 ) ) ;
#19 = CARTESIAN_POINT ( 'NONE',  ( 0.0000000000000000000, 0.0000000000000000000, 0.0000000000000000000 ) ) ;
#20 = AXIS2_PLACEMENT_3D ( 'NONE', #166, #342, #168 ) ;
#21 = DIRECTION ( 'NONE',  ( 1.000000000000000000, 0.0000000000000000000, 0.0000000000000000000 ) ) ;
#22 =( CONVERSION_BASED_UNIT ( 'INCH', #249 ) LENGTH_UNIT ( ) NAMED_UNIT ( #265 ) );
#23 = CARTESIAN_POINT ( 'NONE',  ( -0.06250000000000000000, 0.0000000000000000000, 1.500000000000000222 ) ) ;
#24 = EDGE_CURVE ( 'NONE', #165, #149, #311, .T. ) ;
#25 = DIRECTION ( 'NONE',  ( -1.000000000000000000, 0.0000000000000000000, 0.0000000000000000000 ) ) ;
#26 = AXIS2_PLACEMENT_3D ( 'NONE', #114, #256, #231 ) ;
#27 = AXIS2_PLACEMENT_3D ( 'NONE', #330, #181, #134 ) ;
#28 = CARTESIAN_POINT ( 'NONE',  ( 0.0000000000000000000, 0.0000000000000000000, 0.05999999999999999778 ) ) ;
#29 = DIRECTION ( 'NONE',  ( -1.000000000000000000, 0.0000000000000000000, 0.0000000000000000000 ) ) ;
#30 = ADVANCED_FACE ( 'NONE', ( #276 ), #139, .T. ) ;
#31 = DIRECTION ( 'NONE',  ( -0.7071067811865489050, 8.659560562354950115E-17, 0.7071067811865461294 ) ) ;
#32 = ORIENTED_EDGE ( 'NONE', *, *, #363, .T. ) ;
#33 = VERTEX_POINT ( 'NONE', #80 ) ;
#34 = MANIFOLD_SOLID_BREP ( 'Cut-Revolve1', #37 ) ;
#35 = ADVANCED_FACE ( 'NONE', ( #246 ), #59, .T. ) ;
#36 = DIRECTION ( 'NONE',  ( 1.000000000000000000, 0.0000000000000000000, -0.0000000000000000000 ) ) ;
#37 = CLOSED_SHELL ( 'NONE', ( #133, #277, #35, #243, #309, #351, #323, #30, #300, #170, #353, #227, #161 ) ) ;
#38 = VERTEX_POINT ( 'NONE', #82 ) ;
#39 = CIRCLE ( 'NONE', #26, 0.06250000000000000000 ) ;
#40 = AXIS2_PLACEMENT_3D ( 'NONE', #337, #43, #36 ) ;
#41 = FACE_OUTER_BOUND ( 'NONE', #358, .T. ) ;
#42 = VERTEX_POINT ( 'NONE', #288 ) ;
#43 = DIRECTION ( 'NONE',  ( 0.0000000000000000000, 0.0000000000000000000, 1.000000000000000000 ) ) ;
#44 = CYLINDRICAL_SURFACE ( 'NONE', #167, 0.03100000000000001019 ) ;
#45 = EDGE_LOOP ( 'NONE', ( #248, #269, #100, #158 ) ) ;
#46 = AXIS2_PLACEMENT_3D ( 'NONE', #28, #147, #25 ) ;
#47 = STYLED_ITEM ( 'NONE', ( #81 ), #190 ) ;
#48 = DIRECTION ( 'NONE',  ( 1.000000000000000000, 0.0000000000000000000, 0.0000000000000000000 ) ) ;
#49 = LENGTH_MEASURE_WITH_UNIT ( LENGTH_MEASURE( 0.02539999999999999897 ), #132 );
#50 = FILL_AREA_STYLE ('',( #189 ) ) ;
#51 = CARTESIAN_POINT ( 'NONE',  ( 0.06250000000000000000, 7.654042494670956004E-18, 0.0000000000000000000 ) ) ;
#52 = PRESENTATION_LAYER_ASSIGNMENT (  '', '', ( #155 ) ) ;
#53 = DIRECTION ( 'NONE',  ( -1.000000000000000000, 0.0000000000000000000, 0.0000000000000000000 ) ) ;
#54 = SURFACE_STYLE_USAGE ( .BOTH. , #255 ) ;
#55 = DIRECTION ( 'NONE',  ( -0.0000000000000000000, -0.0000000000000000000, -1.000000000000000000 ) ) ;
#56 = EDGE_CURVE ( 'NONE', #73, #205, #375, .T. ) ;
#57 = EDGE_CURVE ( 'NONE', #205, #73, #349, .T. ) ;
#58 = CARTESIAN_POINT ( 'NONE',  ( 0.0000000000000000000, 0.0000000000000000000, 1.500000000000000222 ) ) ;
#59 = CONICAL_SURFACE ( 'NONE', #275, 0.03100000000000001713, 0.7853981633974502774 ) ;
#60 = DIRECTION ( 'NONE',  ( 0.0000000000000000000, 0.0000000000000000000, 1.000000000000000000 ) ) ;
#61 = DIRECTION ( 'NONE',  ( -0.0000000000000000000, -0.0000000000000000000, -1.000000000000000000 ) ) ;
#62 = ORIENTED_EDGE ( 'NONE', *, *, #101, .F. ) ;
#63 = EDGE_CURVE ( 'NONE', #38, #33, #163, .T. ) ;
#64 = PRESENTATION_LAYER_ASSIGNMENT (  '', '', ( #47 ) ) ;
#65 = ORIENTED_EDGE ( 'NONE', *, *, #101, .T. ) ;
#66 = PRODUCT_DEFINITION_CONTEXT ( 'detailed design', #335, 'design' ) ;
#67 = ORIENTED_EDGE ( 'NONE', *, *, #222, .T. ) ;
#68 = DIRECTION ( 'NONE',  ( 1.000000000000000000, 0.0000000000000000000, -0.0000000000000000000 ) ) ;
#69 = CARTESIAN_POINT ( 'NONE',  ( 0.0000000000000000000, 0.0000000000000000000, 0.0000000000000000000 ) ) ;
#70 = EDGE_LOOP ( 'NONE', ( #360, #136, #91, #211 ) ) ;
#71 = VECTOR ( 'NONE', #97, 39.37007874015748143 ) ;
#72 = FACE_OUTER_BOUND ( 'NONE', #217, .T. ) ;
#73 = VERTEX_POINT ( 'NONE', #286 ) ;
#74 = CARTESIAN_POINT ( 'NONE',  ( -0.06250000000000000000, 0.0000000000000000000, 1.485000000000000764 ) ) ;
#75 = ORIENTED_EDGE ( 'NONE', *, *, #379, .T. ) ;
#76 = SURFACE_STYLE_FILL_AREA ( #18 ) ;
#77 = DIRECTION ( 'NONE',  ( 1.000000000000000000, 0.0000000000000000000, 0.0000000000000000000 ) ) ;
#78 = CIRCLE ( 'NONE', #20, 0.03100000000000001713 ) ;
#79 = AXIS2_PLACEMENT_3D ( 'NONE', #218, #188, #48 ) ;
#80 = CARTESIAN_POINT ( 'NONE',  ( -0.06250000000000001388, 0.0000000000000000000, 0.05999999999999999778 ) ) ;
#81 = PRESENTATION_STYLE_ASSIGNMENT (( #54 ) ) ;
#82 = CARTESIAN_POINT ( 'NONE',  ( 0.06250000000000001388, 7.654042494670957545E-18, 0.05999999999999999778 ) ) ;
#83 = VECTOR ( 'NONE', #258, 39.37007874015748143 ) ;
#84 =( CONVERSION_BASED_UNIT ( 'INCH', #372 ) LENGTH_UNIT ( ) NAMED_UNIT ( #326 ) );
#85 = DIRECTION ( 'NONE',  ( -0.0000000000000000000, -0.0000000000000000000, -1.000000000000000000 ) ) ;
#86 = CARTESIAN_POINT ( 'NONE',  ( -0.03100000000000001019, 0.0000000000000000000, 0.0000000000000000000 ) ) ;
#87 = CYLINDRICAL_SURFACE ( 'NONE', #299, 0.06250000000000000000 ) ;
#88 = EDGE_CURVE ( 'NONE', #42, #204, #116, .T. ) ;
#89 = DIRECTION ( 'NONE',  ( -0.0000000000000000000, -0.0000000000000000000, -1.000000000000000000 ) ) ;
#90 = ORIENTED_EDGE ( 'NONE', *, *, #56, .T. ) ;
#91 = ORIENTED_EDGE ( 'NONE', *, *, #174, .T. ) ;
#92 = AXIS2_PLACEMENT_3D ( 'NONE', #127, #61, #185 ) ;
#93 = ORIENTED_EDGE ( 'NONE', *, *, #210, .F. ) ;
#94 = DIMENSIONAL_EXPONENTS ( 1.000000000000000000, 0.0000000000000000000, 0.0000000000000000000, 0.0000000000000000000, 0.0000000000000000000, 0.0000000000000000000, 0.0000000000000000000 ) ;
#95 = FACE_OUTER_BOUND ( 'NONE', #366, .T. ) ;
#96 = PLANE ( 'NONE',  #284 ) ;
#97 = DIRECTION ( 'NONE',  ( 0.7071067811865489050, 0.0000000000000000000, 0.7071067811865461294 ) ) ;
#98 = AXIS2_PLACEMENT_3D ( 'NONE', #257, #254, #113 ) ;
#99 = CARTESIAN_POINT ( 'NONE',  ( -0.03100000000000001713, 3.796405077356796551E-18, 0.1899999999999999745 ) ) ;
#100 = ORIENTED_EDGE ( 'NONE', *, *, #172, .F. ) ;
#101 = EDGE_CURVE ( 'NONE', #5, #3, #183, .T. ) ;
#102 = ORIENTED_EDGE ( 'NONE', *, *, #297, .F. ) ;
#103 = EDGE_CURVE ( 'NONE', #38, #149, #322, .T. ) ;
#104 = CARTESIAN_POINT ( 'NONE',  ( -0.03100000000000000672, 0.0000000000000000000, 0.05999999999999999778 ) ) ;
#105 = CARTESIAN_POINT ( 'NONE',  ( 0.0000000000000000000, 0.0000000000000000000, 1.500000000000000222 ) ) ;
#106 = ORIENTED_EDGE ( 'NONE', *, *, #345, .F. ) ;
#107 = CARTESIAN_POINT ( 'NONE',  ( 0.0000000000000000000, 0.0000000000000000000, 0.05999999999999999778 ) ) ;
#108 = SHAPE_DEFINITION_REPRESENTATION ( #296, #190 ) ;
#109 = FACE_OUTER_BOUND ( 'NONE', #354, .T. ) ;
#110 = AXIS2_PLACEMENT_3D ( 'NONE', #107, #295, #53 ) ;
#111 = AXIS2_PLACEMENT_3D ( 'NONE', #307, #162, #274 ) ;
#112 = DIRECTION ( 'NONE',  ( -0.0000000000000000000, -0.0000000000000000000, -1.000000000000000000 ) ) ;
#113 = DIRECTION ( 'NONE',  ( -1.000000000000000000, 0.0000000000000000000, 0.0000000000000000000 ) ) ;
#114 = CARTESIAN_POINT ( 'NONE',  ( 0.0000000000000000000, 0.0000000000000000000, 1.485000000000000764 ) ) ;
#115 = CIRCLE ( 'NONE', #46, 0.06250000000000001388 ) ;
#116 = CIRCLE ( 'NONE', #367, 0.04750000000000064587 ) ;
#117 = AXIS2_PLACEMENT_3D ( 'NONE', #303, #125, #157 ) ;
#118 = ORIENTED_EDGE ( 'NONE', *, *, #103, .T. ) ;
#119 = ORIENTED_EDGE ( 'NONE', *, *, #297, .T. ) ;
#120 = DIRECTION ( 'NONE',  ( 1.000000000000000000, 0.0000000000000000000, -0.0000000000000000000 ) ) ;
#121 = AXIS2_PLACEMENT_3D ( 'NONE', #19, #16, #77 ) ;
#122 = ORIENTED_EDGE ( 'NONE', *, *, #153, .F. ) ;
#123 = DIRECTION ( 'NONE',  ( -0.0000000000000000000, -0.0000000000000000000, -1.000000000000000000 ) ) ;
#124 = ORIENTED_EDGE ( 'NONE', *, *, #363, .F. ) ;
#125 = DIRECTION ( 'NONE',  ( 0.0000000000000000000, 0.0000000000000000000, 1.000000000000000000 ) ) ;
#126 =( CONVERSION_BASED_UNIT ( 'INCH', #49 ) LENGTH_UNIT ( ) NAMED_UNIT ( #94 ) );
#127 = CARTESIAN_POINT ( 'NONE',  ( 0.0000000000000000000, 0.0000000000000000000, 1.500000000000000222 ) ) ;
#128 = AXIS2_PLACEMENT_3D ( 'NONE', #131, #182, #304 ) ;
#129 = DIRECTION ( 'NONE',  ( -1.000000000000000000, 0.0000000000000000000, 0.0000000000000000000 ) ) ;
#130 = EDGE_CURVE ( 'NONE', #160, #3, #225, .T. ) ;
#131 = CARTESIAN_POINT ( 'NONE',  ( 0.0000000000000000000, 0.0000000000000000000, 1.485000000000000764 ) ) ;
#132 =( LENGTH_UNIT ( ) NAMED_UNIT ( * ) SI_UNIT ( $, .METRE. ) );
#133 = ADVANCED_FACE ( 'NONE', ( #109 ), #87, .T. ) ;
#134 = DIRECTION ( 'NONE',  ( 1.000000000000000000, 0.0000000000000000000, 0.0000000000000000000 ) ) ;
#135 = PRODUCT ( 'Micro_KC-125-190-060X', 'Micro_KC-125-190-060X', '', ( #251 ) ) ;
#136 = ORIENTED_EDGE ( 'NONE', *, *, #88, .F. ) ;
#137 = APPLICATION_PROTOCOL_DEFINITION ( 'draft international standard', 'automotive_design', 1998, #335 ) ;
#138 = SURFACE_STYLE_USAGE ( .BOTH. , #250 ) ;
#139 = CONICAL_SURFACE ( 'NONE', #339, 0.04750000000000064587, 0.7853981633974457255 ) ;
#140 = VECTOR ( 'NONE', #220, 39.37007874015748143 ) ;
#141 = CARTESIAN_POINT ( 'NONE',  ( 0.0000000000000000000, 0.0000000000000000000, 0.2214999999999998359 ) ) ;
#142 = PRODUCT_RELATED_PRODUCT_CATEGORY ( 'part', '', ( #135 ) ) ;
#143 = CARTESIAN_POINT ( 'NONE',  ( 0.04750000000000064587, 5.817072295950006528E-18, 1.500000000000000222 ) ) ;
#144 = UNCERTAINTY_MEASURE_WITH_UNIT (LENGTH_MEASURE( 1.000000000000000082E-05 ), #126, 'distance_accuracy_value', 'NONE');
#145 = CYLINDRICAL_SURFACE ( 'NONE', #98, 0.06250000000000000000 ) ;
#146 =( GEOMETRIC_REPRESENTATION_CONTEXT ( 3 ) GLOBAL_UNCERTAINTY_ASSIGNED_CONTEXT ( ( #329 ) ) GLOBAL_UNIT_ASSIGNED_CONTEXT ( ( #84, #196, #290 ) ) REPRESENTATION_CONTEXT ( 'NONE', 'WORKASPACE' ) );
#147 = DIRECTION ( 'NONE',  ( -0.0000000000000000000, -0.0000000000000000000, -1.000000000000000000 ) ) ;
#148 = CARTESIAN_POINT ( 'NONE',  ( -0.03100000000000001713, 5.725223786013877433E-18, 0.1899999999999999745 ) ) ;
#149 = VERTEX_POINT ( 'NONE', #51 ) ;
#150 = EDGE_LOOP ( 'NONE', ( #164, #67, #187, #62 ) ) ;
#151 = CARTESIAN_POINT ( 'NONE',  ( 0.0000000000000000000, 0.0000000000000000000, 0.05999999999999999778 ) ) ;
#152 = ORIENTED_EDGE ( 'NONE', *, *, #210, .T. ) ;
#153 = EDGE_CURVE ( 'NONE', #33, #38, #115, .T. ) ;
#154 = DIRECTION ( 'NONE',  ( -0.0000000000000000000, -0.0000000000000000000, -1.000000000000000000 ) ) ;
#155 = STYLED_ITEM ( 'NONE', ( #11 ), #34 ) ;
#156 = ORIENTED_EDGE ( 'NONE', *, *, #130, .F. ) ;
#157 = DIRECTION ( 'NONE',  ( 1.000000000000000000, 0.0000000000000000000, 0.0000000000000000000 ) ) ;
#158 = ORIENTED_EDGE ( 'NONE', *, *, #174, .F. ) ;
#159 = CARTESIAN_POINT ( 'NONE',  ( 0.0000000000000000000, 0.0000000000000000000, 1.500000000000000222 ) ) ;
#160 = VERTEX_POINT ( 'NONE', #148 ) ;
#161 = ADVANCED_FACE ( 'NONE', ( #230 ), #145, .T. ) ;
#162 = DIRECTION ( 'NONE',  ( -0.0000000000000000000, -0.0000000000000000000, -1.000000000000000000 ) ) ;
#163 = CIRCLE ( 'NONE', #110, 0.06250000000000001388 ) ;
#164 = ORIENTED_EDGE ( 'NONE', *, *, #315, .F. ) ;
#165 = VERTEX_POINT ( 'NONE', #347 ) ;
#166 = CARTESIAN_POINT ( 'NONE',  ( 0.0000000000000000000, 0.0000000000000000000, 0.1899999999999999745 ) ) ;
#167 = AXIS2_PLACEMENT_3D ( 'NONE', #69, #89, #325 ) ;
#168 = DIRECTION ( 'NONE',  ( -1.000000000000000000, 0.0000000000000000000, 0.0000000000000000000 ) ) ;
#169 = LINE ( 'NONE', #23, #362 ) ;
#170 = ADVANCED_FACE ( 'NONE', ( #378 ), #371, .T. ) ;
#171 = CARTESIAN_POINT ( 'NONE',  ( 0.0000000000000000000, 0.0000000000000000000, 0.2214999999999998359 ) ) ;
#172 = EDGE_CURVE ( 'NONE', #340, #261, #39, .T. ) ;
#173 = DIRECTION ( 'NONE',  ( 1.000000000000000000, 0.0000000000000000000, 0.0000000000000000000 ) ) ;
#174 = EDGE_CURVE ( 'NONE', #42, #340, #348, .T. ) ;
#175 = FACE_OUTER_BOUND ( 'NONE', #191, .T. ) ;
#176 = EDGE_CURVE ( 'NONE', #160, #233, #78, .T. ) ;
#177 = ORIENTED_EDGE ( 'NONE', *, *, #153, .T. ) ;
#178 = AXIS2_PLACEMENT_3D ( 'NONE', #141, #112, #21 ) ;
#179 = ORIENTED_EDGE ( 'NONE', *, *, #103, .F. ) ;
#180 = ORIENTED_EDGE ( 'NONE', *, *, #222, .F. ) ;
#181 = DIRECTION ( 'NONE',  ( 0.0000000000000000000, 0.0000000000000000000, 1.000000000000000000 ) ) ;
#182 = DIRECTION ( 'NONE',  ( 0.0000000000000000000, 0.0000000000000000000, -1.000000000000000000 ) ) ;
#183 = CIRCLE ( 'NONE', #200, 0.03100000000000000672 ) ;
#184 = ORIENTED_EDGE ( 'NONE', *, *, #13, .T. ) ;
#185 = DIRECTION ( 'NONE',  ( -1.000000000000000000, 0.0000000000000000000, 0.0000000000000000000 ) ) ;
#186 = CYLINDRICAL_SURFACE ( 'NONE', #111, 0.06250000000000000000 ) ;
#187 = ORIENTED_EDGE ( 'NONE', *, *, #130, .T. ) ;
#188 = DIRECTION ( 'NONE',  ( 0.0000000000000000000, 0.0000000000000000000, 1.000000000000000000 ) ) ;
#189 = FILL_AREA_STYLE_COLOUR ( '', #207 ) ;
#190 = ADVANCED_BREP_SHAPE_REPRESENTATION ( 'Micro_KC-125-190-060X', ( #34, #79 ), #201 ) ;
#191 = EDGE_LOOP ( 'NONE', ( #122, #219 ) ) ;
#192 = EDGE_CURVE ( 'NONE', #340, #205, #169, .T. ) ;
#193 = CARTESIAN_POINT ( 'NONE',  ( -0.04750000000000064587, 0.0000000000000000000, 1.500000000000000222 ) ) ;
#194 = DIRECTION ( 'NONE',  ( -0.0000000000000000000, -0.0000000000000000000, -1.000000000000000000 ) ) ;
#195 = AXIS2_PLACEMENT_3D ( 'NONE', #15, #123, #332 ) ;
#196 =( NAMED_UNIT ( * ) PLANE_ANGLE_UNIT ( ) SI_UNIT ( $, .RADIAN. ) );
#197 = CARTESIAN_POINT ( 'NONE',  ( 0.04750000000000064587, 6.735557395310482421E-18, 1.500000000000000222 ) ) ;
#198 = CARTESIAN_POINT ( 'NONE',  ( 0.06250000000000000000, 7.654042494670956004E-18, 1.500000000000000222 ) ) ;
#199 = DIRECTION ( 'NONE',  ( -1.000000000000000000, 0.0000000000000000000, 0.0000000000000000000 ) ) ;
#200 = AXIS2_PLACEMENT_3D ( 'NONE', #292, #229, #29 ) ;
#201 =( GEOMETRIC_REPRESENTATION_CONTEXT ( 3 ) GLOBAL_UNCERTAINTY_ASSIGNED_CONTEXT ( ( #206 ) ) GLOBAL_UNIT_ASSIGNED_CONTEXT ( ( #22, #314, #370 ) ) REPRESENTATION_CONTEXT ( 'NONE', 'WORKASPACE' ) );
#202 = FACE_BOUND ( 'NONE', #327, .T. ) ;
#203 = EDGE_CURVE ( 'NONE', #261, #73, #344, .T. ) ;
#204 = VERTEX_POINT ( 'NONE', #197 ) ;
#205 = VERTEX_POINT ( 'NONE', #8 ) ;
#206 = UNCERTAINTY_MEASURE_WITH_UNIT (LENGTH_MEASURE( 1.000000000000000082E-05 ), #22, 'distance_accuracy_value', 'NONE');
#207 = COLOUR_RGB ( '',0.7921568627450980005, 0.8196078431372548767, 0.9333333333333333481 ) ;
#208 = ORIENTED_EDGE ( 'NONE', *, *, #203, .T. ) ;
#209 = DIRECTION ( 'NONE',  ( 0.0000000000000000000, 0.0000000000000000000, 1.000000000000000000 ) ) ;
#210 = EDGE_CURVE ( 'NONE', #233, #73, #364, .T. ) ;
#211 = ORIENTED_EDGE ( 'NONE', *, *, #289, .F. ) ;
#212 = FACE_OUTER_BOUND ( 'NONE', #45, .T. ) ;
#213 = CARTESIAN_POINT ( 'NONE',  ( 0.0000000000000000000, 0.0000000000000000000, 0.0000000000000000000 ) ) ;
#214 = AXIS2_PLACEMENT_3D ( 'NONE', #159, #241, #12 ) ;
#215 = ORIENTED_EDGE ( 'NONE', *, *, #176, .F. ) ;
#216 = LINE ( 'NONE', #361, #287 ) ;
#217 = EDGE_LOOP ( 'NONE', ( #17, #75 ) ) ;
#218 = CARTESIAN_POINT ( 'NONE',  ( 0.0000000000000000000, 0.0000000000000000000, 0.0000000000000000000 ) ) ;
#219 = ORIENTED_EDGE ( 'NONE', *, *, #63, .F. ) ;
#220 = DIRECTION ( 'NONE',  ( 0.7071067811865456854, 8.659560562354911904E-17, -0.7071067811865493491 ) ) ;
#221 = ORIENTED_EDGE ( 'NONE', *, *, #24, .T. ) ;
#222 = EDGE_CURVE ( 'NONE', #233, #160, #285, .T. ) ;
#223 = AXIS2_PLACEMENT_3D ( 'NONE', #105, #310, #282 ) ;
#224 = ORIENTED_EDGE ( 'NONE', *, *, #345, .T. ) ;
#225 = LINE ( 'NONE', #86, #83 ) ;
#226 =( LENGTH_UNIT ( ) NAMED_UNIT ( * ) SI_UNIT ( $, .METRE. ) );
#227 = ADVANCED_FACE ( 'NONE', ( #239 ), #96, .F. ) ;
#228 = DIRECTION ( 'NONE',  ( -0.0000000000000000000, -0.0000000000000000000, -1.000000000000000000 ) ) ;
#229 = DIRECTION ( 'NONE',  ( -0.0000000000000000000, -0.0000000000000000000, -1.000000000000000000 ) ) ;
#230 = FACE_OUTER_BOUND ( 'NONE', #352, .T. ) ;
#231 = DIRECTION ( 'NONE',  ( 1.000000000000000000, 0.0000000000000000000, 0.0000000000000000000 ) ) ;
#232 = ORIENTED_EDGE ( 'NONE', *, *, #192, .T. ) ;
#233 = VERTEX_POINT ( 'NONE', #244 ) ;
#234 = ORIENTED_EDGE ( 'NONE', *, *, #63, .T. ) ;
#235 = AXIS2_PLACEMENT_3D ( 'NONE', #324, #194, #320 ) ;
#236 = PLANE ( 'NONE',  #305 ) ;
#237 = MECHANICAL_DESIGN_GEOMETRIC_PRESENTATION_REPRESENTATION (  '', ( #47 ), #146 ) ;
#238 = ORIENTED_EDGE ( 'NONE', *, *, #56, .F. ) ;
#239 = FACE_OUTER_BOUND ( 'NONE', #301, .T. ) ;
#240 = EDGE_LOOP ( 'NONE', ( #9, #208, #281, #4 ) ) ;
#241 = DIRECTION ( 'NONE',  ( 0.0000000000000000000, 0.0000000000000000000, -1.000000000000000000 ) ) ;
#242 =( NAMED_UNIT ( * ) PLANE_ANGLE_UNIT ( ) SI_UNIT ( $, .RADIAN. ) );
#243 = ADVANCED_FACE ( 'NONE', ( #212 ), #1, .T. ) ;
#244 = CARTESIAN_POINT ( 'NONE',  ( 0.03100000000000001713, 0.0000000000000000000, 0.1899999999999999745 ) ) ;
#245 = CIRCLE ( 'NONE', #128, 0.06250000000000000000 ) ;
#246 = FACE_OUTER_BOUND ( 'NONE', #264, .T. ) ;
#247 = FACE_OUTER_BOUND ( 'NONE', #240, .T. ) ;
#248 = ORIENTED_EDGE ( 'NONE', *, *, #379, .F. ) ;
#249 = LENGTH_MEASURE_WITH_UNIT ( LENGTH_MEASURE( 0.02539999999999999897 ), #226 );
#250 = SURFACE_SIDE_STYLE ('',( #252 ) ) ;
#251 = PRODUCT_CONTEXT ( 'NONE', #318, 'mechanical' ) ;
#252 = SURFACE_STYLE_FILL_AREA ( #50 ) ;
#253 = FILL_AREA_STYLE_COLOUR ( '', #350 ) ;
#254 = DIRECTION ( 'NONE',  ( -0.0000000000000000000, -0.0000000000000000000, -1.000000000000000000 ) ) ;
#255 = SURFACE_SIDE_STYLE ('',( #76 ) ) ;
#256 = DIRECTION ( 'NONE',  ( 0.0000000000000000000, 0.0000000000000000000, -1.000000000000000000 ) ) ;
#257 = CARTESIAN_POINT ( 'NONE',  ( 0.0000000000000000000, 0.0000000000000000000, 1.500000000000000222 ) ) ;
#258 = DIRECTION ( 'NONE',  ( -0.0000000000000000000, -0.0000000000000000000, -1.000000000000000000 ) ) ;
#259 = DIRECTION ( 'NONE',  ( 0.0000000000000000000, 0.0000000000000000000, 1.000000000000000000 ) ) ;
#260 = VECTOR ( 'NONE', #316, 39.37007874015748143 ) ;
#261 = VERTEX_POINT ( 'NONE', #359 ) ;
#262 = ORIENTED_EDGE ( 'NONE', *, *, #13, .F. ) ;
#263 = DIRECTION ( 'NONE',  ( 0.0000000000000000000, 0.0000000000000000000, 1.000000000000000000 ) ) ;
#264 = EDGE_LOOP ( 'NONE', ( #215, #119, #302, #93 ) ) ;
#265 = DIMENSIONAL_EXPONENTS ( 1.000000000000000000, 0.0000000000000000000, 0.0000000000000000000, 0.0000000000000000000, 0.0000000000000000000, 0.0000000000000000000, 0.0000000000000000000 ) ;
#266 = AXIS2_PLACEMENT_3D ( 'NONE', #171, #376, #173 ) ;
#267 = CARTESIAN_POINT ( 'NONE',  ( 0.03100000000000001713, 0.0000000000000000000, 0.1899999999999999745 ) ) ;
#268 = CIRCLE ( 'NONE', #27, 0.06250000000000000000 ) ;
#269 = ORIENTED_EDGE ( 'NONE', *, *, #374, .T. ) ;
#270 = FACE_OUTER_BOUND ( 'NONE', #7, .T. ) ;
#271 = CARTESIAN_POINT ( 'NONE',  ( -0.06250000000000000000, 0.0000000000000000000, 1.500000000000000222 ) ) ;
#272 = LINE ( 'NONE', #99, #343 ) ;
#273 = ORIENTED_EDGE ( 'NONE', *, *, #203, .F. ) ;
#274 = DIRECTION ( 'NONE',  ( -1.000000000000000000, 0.0000000000000000000, 0.0000000000000000000 ) ) ;
#275 = AXIS2_PLACEMENT_3D ( 'NONE', #369, #60, #373 ) ;
#276 = FACE_OUTER_BOUND ( 'NONE', #70, .T. ) ;
#277 = ADVANCED_FACE ( 'NONE', ( #270 ), #44, .T. ) ;
#278 =( NAMED_UNIT ( * ) SI_UNIT ( $, .STERADIAN. ) SOLID_ANGLE_UNIT ( ) );
#279 = PRODUCT_DEFINITION ( 'UNKNOWN', '', #356, #66 ) ;
#280 = LINE ( 'NONE', #143, #140 ) ;
#281 = ORIENTED_EDGE ( 'NONE', *, *, #57, .F. ) ;
#282 = DIRECTION ( 'NONE',  ( 1.000000000000000000, 0.0000000000000000000, 0.0000000000000000000 ) ) ;
#283 = VECTOR ( 'NONE', #338, 39.37007874015748143 ) ;
#284 = AXIS2_PLACEMENT_3D ( 'NONE', #213, #263, #120 ) ;
#285 = CIRCLE ( 'NONE', #195, 0.03100000000000001713 ) ;
#286 = CARTESIAN_POINT ( 'NONE',  ( 0.06250000000000000000, 7.654042494670956004E-18, 0.2214999999999998359 ) ) ;
#287 = VECTOR ( 'NONE', #333, 39.37007874015748143 ) ;
#288 = CARTESIAN_POINT ( 'NONE',  ( -0.04750000000000064587, 0.0000000000000000000, 1.500000000000000222 ) ) ;
#289 = EDGE_CURVE ( 'NONE', #261, #340, #245, .T. ) ;
#290 =( NAMED_UNIT ( * ) SI_UNIT ( $, .STERADIAN. ) SOLID_ANGLE_UNIT ( ) );
#291 = CARTESIAN_POINT ( 'NONE',  ( 0.06250000000000000000, 7.654042494670956004E-18, 1.500000000000000222 ) ) ;
#292 = CARTESIAN_POINT ( 'NONE',  ( 0.0000000000000000000, 0.0000000000000000000, 0.05999999999999999778 ) ) ;
#293 = VECTOR ( 'NONE', #85, 39.37007874015748143 ) ;
#294 = CONICAL_SURFACE ( 'NONE', #117, 0.03100000000000001713, 0.7853981633974502774 ) ;
#295 = DIRECTION ( 'NONE',  ( -0.0000000000000000000, -0.0000000000000000000, -1.000000000000000000 ) ) ;
#296 = PRODUCT_DEFINITION_SHAPE ( 'NONE', 'NONE',  #279 ) ;
#297 = EDGE_CURVE ( 'NONE', #160, #205, #272, .T. ) ;
#298 = ORIENTED_EDGE ( 'NONE', *, *, #315, .T. ) ;
#299 = AXIS2_PLACEMENT_3D ( 'NONE', #58, #55, #199 ) ;
#300 = ADVANCED_FACE ( 'NONE', ( #41 ), #294, .T. ) ;
#301 = EDGE_LOOP ( 'NONE', ( #365, #124 ) ) ;
#302 = ORIENTED_EDGE ( 'NONE', *, *, #57, .T. ) ;
#303 = CARTESIAN_POINT ( 'NONE',  ( 0.0000000000000000000, 0.0000000000000000000, 0.1899999999999999745 ) ) ;
#304 = DIRECTION ( 'NONE',  ( 1.000000000000000000, 0.0000000000000000000, 0.0000000000000000000 ) ) ;
#305 = AXIS2_PLACEMENT_3D ( 'NONE', #357, #209, #68 ) ;
#306 = PLANE ( 'NONE',  #40 ) ;
#307 = CARTESIAN_POINT ( 'NONE',  ( 0.0000000000000000000, 0.0000000000000000000, 1.500000000000000222 ) ) ;
#308 = DIRECTION ( 'NONE',  ( 0.0000000000000000000, 0.0000000000000000000, -1.000000000000000000 ) ) ;
#309 = ADVANCED_FACE ( 'NONE', ( #247 ), #10, .T. ) ;
#310 = DIRECTION ( 'NONE',  ( 0.0000000000000000000, 0.0000000000000000000, 1.000000000000000000 ) ) ;
#311 = CIRCLE ( 'NONE', #121, 0.06250000000000000000 ) ;
#312 = CARTESIAN_POINT ( 'NONE',  ( 0.0000000000000000000, 0.0000000000000000000, 1.500000000000000222 ) ) ;
#313 = CARTESIAN_POINT ( 'NONE',  ( 0.03100000000000000672, 3.796405077356796551E-18, 0.05999999999999999778 ) ) ;
#314 =( NAMED_UNIT ( * ) PLANE_ANGLE_UNIT ( ) SI_UNIT ( $, .RADIAN. ) );
#315 = EDGE_CURVE ( 'NONE', #233, #5, #216, .T. ) ;
#316 = DIRECTION ( 'NONE',  ( -0.7071067811865456854, 0.0000000000000000000, -0.7071067811865493491 ) ) ;
#317 =( LENGTH_UNIT ( ) NAMED_UNIT ( * ) SI_UNIT ( $, .METRE. ) );
#318 = APPLICATION_CONTEXT ( 'automotive_design' ) ;
#319 = MECHANICAL_DESIGN_GEOMETRIC_PRESENTATION_REPRESENTATION (  '', ( #155 ), #355 ) ;
#320 = DIRECTION ( 'NONE',  ( -1.000000000000000000, 0.0000000000000000000, 0.0000000000000000000 ) ) ;
#321 = DIRECTION ( 'NONE',  ( 1.000000000000000000, 0.0000000000000000000, 0.0000000000000000000 ) ) ;
#322 = LINE ( 'NONE', #198, #14 ) ;
#323 = ADVANCED_FACE ( 'NONE', ( #72 ), #306, .T. ) ;
#324 = CARTESIAN_POINT ( 'NONE',  ( 0.0000000000000000000, 0.0000000000000000000, 0.0000000000000000000 ) ) ;
#325 = DIRECTION ( 'NONE',  ( -1.000000000000000000, 0.0000000000000000000, 0.0000000000000000000 ) ) ;
#326 = DIMENSIONAL_EXPONENTS ( 1.000000000000000000, 0.0000000000000000000, 0.0000000000000000000, 0.0000000000000000000, 0.0000000000000000000, 0.0000000000000000000, 0.0000000000000000000 ) ;
#327 = EDGE_LOOP ( 'NONE', ( #224, #65 ) ) ;
#328 = ORIENTED_EDGE ( 'NONE', *, *, #289, .T. ) ;
#329 = UNCERTAINTY_MEASURE_WITH_UNIT (LENGTH_MEASURE( 1.000000000000000082E-05 ), #84, 'distance_accuracy_value', 'NONE');
#330 = CARTESIAN_POINT ( 'NONE',  ( 0.0000000000000000000, 0.0000000000000000000, 0.0000000000000000000 ) ) ;
#331 = ORIENTED_EDGE ( 'NONE', *, *, #176, .T. ) ;
#332 = DIRECTION ( 'NONE',  ( -1.000000000000000000, 0.0000000000000000000, 0.0000000000000000000 ) ) ;
#333 = DIRECTION ( 'NONE',  ( -0.0000000000000000000, -0.0000000000000000000, -1.000000000000000000 ) ) ;
#334 = CIRCLE ( 'NONE', #223, 0.04750000000000064587 ) ;
#335 = APPLICATION_CONTEXT ( 'automotive_design' ) ;
#336 = LINE ( 'NONE', #271, #283 ) ;
#337 = CARTESIAN_POINT ( 'NONE',  ( 0.0000000000000000000, 0.0000000000000000000, 1.500000000000000222 ) ) ;
#338 = DIRECTION ( 'NONE',  ( -0.0000000000000000000, -0.0000000000000000000, -1.000000000000000000 ) ) ;
#339 = AXIS2_PLACEMENT_3D ( 'NONE', #312, #308, #129 ) ;
#340 = VERTEX_POINT ( 'NONE', #74 ) ;
#341 = APPLICATION_PROTOCOL_DEFINITION ( 'draft international standard', 'automotive_design', 1998, #318 ) ;
#342 = DIRECTION ( 'NONE',  ( -0.0000000000000000000, -0.0000000000000000000, -1.000000000000000000 ) ) ;
#343 = VECTOR ( 'NONE', #31, 39.37007874015748143 ) ;
#344 = LINE ( 'NONE', #291, #293 ) ;
#345 = EDGE_CURVE ( 'NONE', #3, #5, #2, .T. ) ;
#346 = DIRECTION ( 'NONE',  ( -0.0000000000000000000, -0.0000000000000000000, -1.000000000000000000 ) ) ;
#347 = CARTESIAN_POINT ( 'NONE',  ( -0.06250000000000000000, 0.0000000000000000000, 0.0000000000000000000 ) ) ;
#348 = LINE ( 'NONE', #193, #260 ) ;
#349 = CIRCLE ( 'NONE', #266, 0.06250000000000000000 ) ;
#350 = COLOUR_RGB ( '',0.7921568627450980005, 0.8196078431372548767, 0.9333333333333333481 ) ;
#351 = ADVANCED_FACE ( 'NONE', ( #95 ), #186, .T. ) ;
#352 = EDGE_LOOP ( 'NONE', ( #179, #234, #184, #221 ) ) ;
#353 = ADVANCED_FACE ( 'NONE', ( #202, #175 ), #236, .T. ) ;
#354 = EDGE_LOOP ( 'NONE', ( #177, #118, #32, #262 ) ) ;
#355 =( GEOMETRIC_REPRESENTATION_CONTEXT ( 3 ) GLOBAL_UNCERTAINTY_ASSIGNED_CONTEXT ( ( #144 ) ) GLOBAL_UNIT_ASSIGNED_CONTEXT ( ( #126, #242, #278 ) ) REPRESENTATION_CONTEXT ( 'NONE', 'WORKASPACE' ) );
#356 = PRODUCT_DEFINITION_FORMATION_WITH_SPECIFIED_SOURCE ( 'ANY', '', #135, .NOT_KNOWN. ) ;
#357 = CARTESIAN_POINT ( 'NONE',  ( 0.06250000000000001388, 0.0000000000000000000, 0.05999999999999999778 ) ) ;
#358 = EDGE_LOOP ( 'NONE', ( #102, #180, #152, #90 ) ) ;
#359 = CARTESIAN_POINT ( 'NONE',  ( 0.06250000000000000000, 7.654042494670956004E-18, 1.485000000000000764 ) ) ;
#360 = ORIENTED_EDGE ( 'NONE', *, *, #374, .F. ) ;
#361 = CARTESIAN_POINT ( 'NONE',  ( 0.03100000000000001019, 3.796405077356796551E-18, 0.0000000000000000000 ) ) ;
#362 = VECTOR ( 'NONE', #228, 39.37007874015748143 ) ;
#363 = EDGE_CURVE ( 'NONE', #149, #165, #268, .T. ) ;
#364 = LINE ( 'NONE', #267, #71 ) ;
#365 = ORIENTED_EDGE ( 'NONE', *, *, #24, .F. ) ;
#366 = EDGE_LOOP ( 'NONE', ( #273, #328, #232, #238 ) ) ;
#367 = AXIS2_PLACEMENT_3D ( 'NONE', #377, #259, #321 ) ;
#368 = AXIS2_PLACEMENT_3D ( 'NONE', #151, #154, #6 ) ;
#369 = CARTESIAN_POINT ( 'NONE',  ( 0.0000000000000000000, 0.0000000000000000000, 0.1899999999999999745 ) ) ;
#370 =( NAMED_UNIT ( * ) SI_UNIT ( $, .STERADIAN. ) SOLID_ANGLE_UNIT ( ) );
#371 = CYLINDRICAL_SURFACE ( 'NONE', #235, 0.03100000000000001019 ) ;
#372 = LENGTH_MEASURE_WITH_UNIT ( LENGTH_MEASURE( 0.02539999999999999897 ), #317 );
#373 = DIRECTION ( 'NONE',  ( 1.000000000000000000, 0.0000000000000000000, 0.0000000000000000000 ) ) ;
#374 = EDGE_CURVE ( 'NONE', #204, #261, #280, .T. ) ;
#375 = CIRCLE ( 'NONE', #178, 0.06250000000000000000 ) ;
#376 = DIRECTION ( 'NONE',  ( -0.0000000000000000000, -0.0000000000000000000, -1.000000000000000000 ) ) ;
#377 = CARTESIAN_POINT ( 'NONE',  ( 0.0000000000000000000, 0.0000000000000000000, 1.500000000000000222 ) ) ;
#378 = FACE_OUTER_BOUND ( 'NONE', #150, .T. ) ;
#379 = EDGE_CURVE ( 'NONE', #204, #42, #334, .T. ) ;
ENDSEC;
END-ISO-10303-21;
