ISO-10303-21;
HEADER;
FILE_DESCRIPTION (( 'STEP AP214' ),
    '1' );
FILE_NAME ('Micro_GEM-187-4.STEP',
    '2021-09-01T20:04:30',
    ( '' ),
    ( '' ),
    'SwSTEP 2.0',
    'SolidWorks 2020',
    '' );
FILE_SCHEMA (( 'AUTOMOTIVE_DESIGN' ));
ENDSEC;

DATA;
#1 = DIRECTION ( 'NONE',  ( -0.0000000000000000000, -0.0000000000000000000, -1.000000000000000000 ) ) ;
#2 = ORIENTED_EDGE ( 'NONE', *, *, #191, .T. ) ;
#3 = LINE ( 'NONE', #115, #295 ) ;
#4 = VECTOR ( 'NONE', #111, 39.37007874015747433 ) ;
#5 = FACE_OUTER_BOUND ( 'NONE', #242, .T. ) ;
#6 =( CONVERSION_BASED_UNIT ( 'INCH', #150 ) LENGTH_UNIT ( ) NAMED_UNIT ( #47 ) );
#7 = SURFACE_SIDE_STYLE ('',( #53 ) ) ;
#8 = CIRCLE ( 'NONE', #193, 0.09365624999999999645 ) ;
#9 = VERTEX_POINT ( 'NONE', #197 ) ;
#10 = DIRECTION ( 'NONE',  ( 0.0000000000000000000, 0.0000000000000000000, -1.000000000000000000 ) ) ;
#11 = DIRECTION ( 'NONE',  ( -1.224646799147353207E-16, -0.0000000000000000000, -1.000000000000000000 ) ) ;
#12 = CARTESIAN_POINT ( 'NONE',  ( 7.654042494670957853E-17, 0.0000000000000000000, 0.6250000000000000000 ) ) ;
#13 = FACE_OUTER_BOUND ( 'NONE', #89, .T. ) ;
#14 = LENGTH_MEASURE_WITH_UNIT ( LENGTH_MEASURE( 0.02539999999999999897 ), #34 );
#15 = ORIENTED_EDGE ( 'NONE', *, *, #25, .T. ) ;
#16 = ORIENTED_EDGE ( 'NONE', *, *, #237, .F. ) ;
#17 = DIRECTION ( 'NONE',  ( -0.0000000000000000000, -0.0000000000000000000, -1.000000000000000000 ) ) ;
#18 = ORIENTED_EDGE ( 'NONE', *, *, #297, .F. ) ;
#19 = CIRCLE ( 'NONE', #206, 0.09365624999999999645 ) ;
#20 = ORIENTED_EDGE ( 'NONE', *, *, #279, .F. ) ;
#21 = DIRECTION ( 'NONE',  ( 1.000000000000000000, 0.0000000000000000000, 0.0000000000000000000 ) ) ;
#22 = DIRECTION ( 'NONE',  ( -1.224646799147353207E-16, -0.0000000000000000000, -1.000000000000000000 ) ) ;
#23 = EDGE_CURVE ( 'NONE', #243, #203, #285, .T. ) ;
#24 = FILL_AREA_STYLE_COLOUR ( '', #46 ) ;
#25 = EDGE_CURVE ( 'NONE', #243, #60, #27, .T. ) ;
#26 = SURFACE_STYLE_USAGE ( .BOTH. , #142 ) ;
#27 = CIRCLE ( 'NONE', #106, 0.07874999999999980627 ) ;
#29 = DIRECTION ( 'NONE',  ( 1.000000000000000000, 0.0000000000000000000, 0.0000000000000000000 ) ) ;
#28 = PRESENTATION_LAYER_ASSIGNMENT (  '', '', ( #162 ) ) ;
#30 =( LENGTH_UNIT ( ) NAMED_UNIT ( * ) SI_UNIT ( $, .METRE. ) );
#31 = ORIENTED_EDGE ( 'NONE', *, *, #23, .T. ) ;
#32 = AXIS2_PLACEMENT_3D ( 'NONE', #271, #275, #229 ) ;
#33 = ORIENTED_EDGE ( 'NONE', *, *, #112, .T. ) ;
#34 =( LENGTH_UNIT ( ) NAMED_UNIT ( * ) SI_UNIT ( $, .METRE. ) );
#35 = CARTESIAN_POINT ( 'NONE',  ( -0.07874999999999980627, 0.0000000000000000000, 2.000000000000000000 ) ) ;
#36 = DIRECTION ( 'NONE',  ( 1.000000000000000000, 0.0000000000000000000, 0.0000000000000000000 ) ) ;
#37 = DIRECTION ( 'NONE',  ( -1.000000000000000000, 0.0000000000000000000, 0.0000000000000000000 ) ) ;
#38 = PRODUCT_DEFINITION_FORMATION_WITH_SPECIFIED_SOURCE ( 'ANY', '', #293, .NOT_KNOWN. ) ;
#39 = EDGE_CURVE ( 'NONE', #149, #134, #200, .T. ) ;
#40 = CYLINDRICAL_SURFACE ( 'NONE', #52, 0.09375000000000001388 ) ;
#41 = AXIS2_PLACEMENT_3D ( 'NONE', #42, #277, #133 ) ;
#42 = CARTESIAN_POINT ( 'NONE',  ( 7.654042494670957853E-17, 0.0000000000000000000, 0.6250000000000000000 ) ) ;
#43 = PLANE ( 'NONE',  #187 ) ;
#44 = ADVANCED_FACE ( 'NONE', ( #198 ), #224, .T. ) ;
#45 = AXIS2_PLACEMENT_3D ( 'NONE', #12, #61, #55 ) ;
#46 = COLOUR_RGB ( '',0.7921568627450980005, 0.8196078431372548767, 0.9333333333333333481 ) ;
#47 = DIMENSIONAL_EXPONENTS ( 1.000000000000000000, 0.0000000000000000000, 0.0000000000000000000, 0.0000000000000000000, 0.0000000000000000000, 0.0000000000000000000, 0.0000000000000000000 ) ;
#48 = CARTESIAN_POINT ( 'NONE',  ( 0.07874999999999980627, 1.056257864264590573E-17, 2.000000000000000000 ) ) ;
#49 = DIRECTION ( 'NONE',  ( -1.000000000000000000, 0.0000000000000000000, 0.0000000000000000000 ) ) ;
#50 = PRODUCT_DEFINITION_CONTEXT ( 'detailed design', #85, 'design' ) ;
#51 = CARTESIAN_POINT ( 'NONE',  ( 0.0000000000000000000, 0.0000000000000000000, 1.984999999999999654 ) ) ;
#52 = AXIS2_PLACEMENT_3D ( 'NONE', #117, #248, #278 ) ;
#53 = SURFACE_STYLE_FILL_AREA ( #122 ) ;
#54 = APPLICATION_CONTEXT ( 'automotive_design' ) ;
#55 = DIRECTION ( 'NONE',  ( 1.000000000000000000, 0.0000000000000000000, 0.0000000000000000000 ) ) ;
#56 = CARTESIAN_POINT ( 'NONE',  ( -0.09365624999999999645, 0.0000000000000000000, 1.146958267826442798E-17 ) ) ;
#57 = EDGE_CURVE ( 'NONE', #131, #9, #258, .T. ) ;
#58 = CARTESIAN_POINT ( 'NONE',  ( 7.660553729477949085E-17, 0.0000000000000000000, 0.6255316826705892286 ) ) ;
#59 =( NAMED_UNIT ( * ) SI_UNIT ( $, .STERADIAN. ) SOLID_ANGLE_UNIT ( ) );
#60 = VERTEX_POINT ( 'NONE', #35 ) ;
#61 = DIRECTION ( 'NONE',  ( 1.224646799147353207E-16, 0.0000000000000000000, 1.000000000000000000 ) ) ;
#62 = DIRECTION ( 'NONE',  ( 0.0000000000000000000, 0.0000000000000000000, 1.000000000000000000 ) ) ;
#63 = AXIS2_PLACEMENT_3D ( 'NONE', #180, #287, #175 ) ;
#64 = AXIS2_PLACEMENT_3D ( 'NONE', #137, #196, #96 ) ;
#65 = EDGE_CURVE ( 'NONE', #167, #156, #8, .T. ) ;
#66 = ADVANCED_FACE ( 'NONE', ( #223 ), #98, .T. ) ;
#67 = VECTOR ( 'NONE', #1, 39.37007874015748143 ) ;
#68 = FACE_OUTER_BOUND ( 'NONE', #129, .T. ) ;
#69 = FACE_OUTER_BOUND ( 'NONE', #208, .T. ) ;
#70 = CARTESIAN_POINT ( 'NONE',  ( 0.0000000000000000000, 0.0000000000000000000, 1.984999999999999654 ) ) ;
#71 = UNCERTAINTY_MEASURE_WITH_UNIT (LENGTH_MEASURE( 1.000000000000000082E-05 ), #6, 'distance_accuracy_value', 'NONE');
#72 = CONICAL_SURFACE ( 'NONE', #41, 0.09365624999999999645, 0.1745329251994338637 ) ;
#73 = CONICAL_SURFACE ( 'NONE', #64, 0.07874999999999980627, 0.7853981633974466137 ) ;
#74 = CARTESIAN_POINT ( 'NONE',  ( 0.09365624999999999645, 1.146958267826442798E-17, 0.0000000000000000000 ) ) ;
#75 = AXIS2_PLACEMENT_3D ( 'NONE', #79, #221, #123 ) ;
#76 = ORIENTED_EDGE ( 'NONE', *, *, #177, .T. ) ;
#77 = DIRECTION ( 'NONE',  ( -1.224646799147353207E-16, -0.0000000000000000000, -1.000000000000000000 ) ) ;
#78 = DIRECTION ( 'NONE',  ( 0.7071067811865463515, 8.659560562354916834E-17, -0.7071067811865486830 ) ) ;
#79 = CARTESIAN_POINT ( 'NONE',  ( 0.0000000000000000000, 0.0000000000000000000, 0.0000000000000000000 ) ) ;
#80 = EDGE_CURVE ( 'NONE', #134, #167, #148, .T. ) ;
#81 = ORIENTED_EDGE ( 'NONE', *, *, #220, .F. ) ;
#82 = DIRECTION ( 'NONE',  ( -1.224646799147353207E-16, -0.0000000000000000000, -1.000000000000000000 ) ) ;
#83 = LINE ( 'NONE', #294, #67 ) ;
#84 = CARTESIAN_POINT ( 'NONE',  ( -0.09375000000000001388, 0.0000000000000000000, 1.984999999999999654 ) ) ;
#85 = APPLICATION_CONTEXT ( 'automotive_design' ) ;
#86 = FACE_OUTER_BOUND ( 'NONE', #165, .T. ) ;
#87 = ADVANCED_FACE ( 'NONE', ( #13 ), #107, .T. ) ;
#88 = AXIS2_PLACEMENT_3D ( 'NONE', #119, #22, #211 ) ;
#89 = EDGE_LOOP ( 'NONE', ( #259, #15 ) ) ;
#90 = CARTESIAN_POINT ( 'NONE',  ( -0.07874999999999980627, 0.0000000000000000000, 2.000000000000000000 ) ) ;
#91 = UNCERTAINTY_MEASURE_WITH_UNIT (LENGTH_MEASURE( 1.000000000000000082E-05 ), #262, 'distance_accuracy_value', 'NONE');
#92 = PRODUCT_DEFINITION_SHAPE ( 'NONE', 'NONE',  #244 ) ;
#93 = FACE_OUTER_BOUND ( 'NONE', #158, .T. ) ;
#94 = DIRECTION ( 'NONE',  ( 1.000000000000000000, 0.0000000000000000000, -0.0000000000000000000 ) ) ;
#95 = VECTOR ( 'NONE', #238, 39.37007874015748143 ) ;
#96 = DIRECTION ( 'NONE',  ( -1.000000000000000000, 0.0000000000000000000, 0.0000000000000000000 ) ) ;
#97 = ORIENTED_EDGE ( 'NONE', *, *, #296, .T. ) ;
#98 = CONICAL_SURFACE ( 'NONE', #45, 0.09365624999999999645, 0.1745329251994338637 ) ;
#99 = CIRCLE ( 'NONE', #228, 0.09375000000000001388 ) ;
#100 = SURFACE_STYLE_USAGE ( .BOTH. , #7 ) ;
#101 = EDGE_LOOP ( 'NONE', ( #145, #108, #97, #181 ) ) ;
#102 = EDGE_LOOP ( 'NONE', ( #2, #225 ) ) ;
#103 = EDGE_CURVE ( 'NONE', #203, #131, #83, .T. ) ;
#104 = CARTESIAN_POINT ( 'NONE',  ( 0.07874999999999980627, 9.644093543285380530E-18, 2.000000000000000000 ) ) ;
#105 = DIRECTION ( 'NONE',  ( 0.0000000000000000000, 0.0000000000000000000, 1.000000000000000000 ) ) ;
#106 = AXIS2_PLACEMENT_3D ( 'NONE', #199, #62, #255 ) ;
#107 = PLANE ( 'NONE',  #126 ) ;
#108 = ORIENTED_EDGE ( 'NONE', *, *, #279, .T. ) ;
#109 = DIRECTION ( 'NONE',  ( -1.224646799147353207E-16, -0.0000000000000000000, -1.000000000000000000 ) ) ;
#110 = ORIENTED_EDGE ( 'NONE', *, *, #57, .F. ) ;
#111 = DIRECTION ( 'NONE',  ( -0.1736481776669311639, 2.126576849575783008E-17, 0.9848077530122080203 ) ) ;
#112 = EDGE_CURVE ( 'NONE', #151, #9, #3, .T. ) ;
#113 = ORIENTED_EDGE ( 'NONE', *, *, #112, .F. ) ;
#114 = ADVANCED_FACE ( 'NONE', ( #68 ), #144, .T. ) ;
#115 = CARTESIAN_POINT ( 'NONE',  ( -0.09375000000000001388, 0.0000000000000000000, 2.000000000000000000 ) ) ;
#116 = AXIS2_PLACEMENT_3D ( 'NONE', #58, #11, #36 ) ;
#117 = CARTESIAN_POINT ( 'NONE',  ( 0.0000000000000000000, 0.0000000000000000000, 2.000000000000000000 ) ) ;
#118 = FILL_AREA_STYLE ('',( #24 ) ) ;
#119 = CARTESIAN_POINT ( 'NONE',  ( 1.404618771449245766E-33, 0.0000000000000000000, 1.146958267826442798E-17 ) ) ;
#120 = AXIS2_PLACEMENT_3D ( 'NONE', #222, #82, #37 ) ;
#121 = CIRCLE ( 'NONE', #135, 0.09375000000000001388 ) ;
#122 = FILL_AREA_STYLE ('',( #254 ) ) ;
#123 = DIRECTION ( 'NONE',  ( -1.000000000000000000, 0.0000000000000000000, 1.224646799147352961E-16 ) ) ;
#124 = ADVANCED_FACE ( 'NONE', ( #190 ), #43, .F. ) ;
#125 = ORIENTED_EDGE ( 'NONE', *, *, #273, .F. ) ;
#126 = AXIS2_PLACEMENT_3D ( 'NONE', #132, #201, #291 ) ;
#127 = ORIENTED_EDGE ( 'NONE', *, *, #177, .F. ) ;
#128 = EDGE_LOOP ( 'NONE', ( #127, #20, #178, #234 ) ) ;
#129 = EDGE_LOOP ( 'NONE', ( #274, #18, #265, #125 ) ) ;
#130 = AXIS2_PLACEMENT_3D ( 'NONE', #139, #268, #49 ) ;
#131 = VERTEX_POINT ( 'NONE', #299 ) ;
#132 = CARTESIAN_POINT ( 'NONE',  ( 0.0000000000000000000, 0.0000000000000000000, 2.000000000000000000 ) ) ;
#133 = DIRECTION ( 'NONE',  ( 1.000000000000000000, 0.0000000000000000000, 0.0000000000000000000 ) ) ;
#134 = VERTEX_POINT ( 'NONE', #241 ) ;
#135 = AXIS2_PLACEMENT_3D ( 'NONE', #51, #10, #195 ) ;
#136 = CARTESIAN_POINT ( 'NONE',  ( -0.09365624999999992706, 1.146958267826442798E-17, 0.6250000000000000000 ) ) ;
#137 = CARTESIAN_POINT ( 'NONE',  ( 0.0000000000000000000, 0.0000000000000000000, 2.000000000000000000 ) ) ;
#138 = CIRCLE ( 'NONE', #240, 0.07874999999999980627 ) ;
#139 = CARTESIAN_POINT ( 'NONE',  ( 0.0000000000000000000, 0.0000000000000000000, 2.000000000000000000 ) ) ;
#140 = CLOSED_SHELL ( 'NONE', ( #272, #170, #270, #183, #159, #87, #114, #66, #44, #124 ) ) ;
#141 = PRODUCT_RELATED_PRODUCT_CATEGORY ( 'part', '', ( #293 ) ) ;
#142 = SURFACE_SIDE_STYLE ('',( #214 ) ) ;
#143 = CARTESIAN_POINT ( 'NONE',  ( 7.654042494670957853E-17, 0.0000000000000000000, 0.6250000000000000000 ) ) ;
#144 = CONICAL_SURFACE ( 'NONE', #32, 0.07874999999999980627, 0.7853981633974466137 ) ;
#145 = ORIENTED_EDGE ( 'NONE', *, *, #80, .F. ) ;
#146 = MECHANICAL_DESIGN_GEOMETRIC_PRESENTATION_REPRESENTATION (  '', ( #162 ), #185 ) ;
#147 = ORIENTED_EDGE ( 'NONE', *, *, #296, .F. ) ;
#148 = LINE ( 'NONE', #154, #95 ) ;
#149 = VERTEX_POINT ( 'NONE', #192 ) ;
#150 = LENGTH_MEASURE_WITH_UNIT ( LENGTH_MEASURE( 0.02539999999999999897 ), #30 );
#151 = VERTEX_POINT ( 'NONE', #84 ) ;
#152 =( GEOMETRIC_REPRESENTATION_CONTEXT ( 3 ) GLOBAL_UNCERTAINTY_ASSIGNED_CONTEXT ( ( #215 ) ) GLOBAL_UNIT_ASSIGNED_CONTEXT ( ( #232, #256, #59 ) ) REPRESENTATION_CONTEXT ( 'NONE', 'WORKASPACE' ) );
#153 = ORIENTED_EDGE ( 'NONE', *, *, #273, .T. ) ;
#154 = CARTESIAN_POINT ( 'NONE',  ( 0.09365624999999999645, 1.146958267826442798E-17, -1.146958267826442798E-17 ) ) ;
#155 = ORIENTED_EDGE ( 'NONE', *, *, #103, .T. ) ;
#156 = VERTEX_POINT ( 'NONE', #163 ) ;
#157 =( LENGTH_UNIT ( ) NAMED_UNIT ( * ) SI_UNIT ( $, .METRE. ) );
#158 = EDGE_LOOP ( 'NONE', ( #245, #153, #33, #110 ) ) ;
#159 = ADVANCED_FACE ( 'NONE', ( #93 ), #40, .T. ) ;
#160 = ORIENTED_EDGE ( 'NONE', *, *, #191, .F. ) ;
#161 =( NAMED_UNIT ( * ) SI_UNIT ( $, .STERADIAN. ) SOLID_ANGLE_UNIT ( ) );
#162 = STYLED_ITEM ( 'NONE', ( #284 ), #209 ) ;
#163 = CARTESIAN_POINT ( 'NONE',  ( -0.09365624999999999645, 0.0000000000000000000, 2.293916535652885596E-17 ) ) ;
#164 = DIRECTION ( 'NONE',  ( -1.224646799147353207E-16, -0.0000000000000000000, -1.000000000000000000 ) ) ;
#165 = EDGE_LOOP ( 'NONE', ( #218, #155, #257, #113 ) ) ;
#166 = LINE ( 'NONE', #231, #171 ) ;
#167 = VERTEX_POINT ( 'NONE', #74 ) ;
#168 = DIRECTION ( 'NONE',  ( 0.0000000000000000000, 0.0000000000000000000, 1.000000000000000000 ) ) ;
#169 = DIRECTION ( 'NONE',  ( -1.000000000000000000, 0.0000000000000000000, 0.0000000000000000000 ) ) ;
#170 = ADVANCED_FACE ( 'NONE', ( #69 ), #72, .T. ) ;
#171 = VECTOR ( 'NONE', #250, 39.37007874015748143 ) ;
#172 = CYLINDRICAL_SURFACE ( 'NONE', #75, 0.09365624999999999645 ) ;
#173 = ORIENTED_EDGE ( 'NONE', *, *, #39, .F. ) ;
#174 = DIRECTION ( 'NONE',  ( -1.224646799147353207E-16, -0.0000000000000000000, -1.000000000000000000 ) ) ;
#175 = DIRECTION ( 'NONE',  ( -1.000000000000000000, 0.0000000000000000000, 1.224646799147352961E-16 ) ) ;
#176 = CARTESIAN_POINT ( 'NONE',  ( 0.0000000000000000000, 0.0000000000000000000, 2.000000000000000000 ) ) ;
#177 = EDGE_CURVE ( 'NONE', #149, #9, #226, .T. ) ;
#178 = ORIENTED_EDGE ( 'NONE', *, *, #237, .T. ) ;
#179 = COLOUR_RGB ( '',0.7921568627450980005, 0.8196078431372548767, 0.9333333333333333481 ) ;
#180 = CARTESIAN_POINT ( 'NONE',  ( 0.0000000000000000000, 0.0000000000000000000, 0.0000000000000000000 ) ) ;
#181 = ORIENTED_EDGE ( 'NONE', *, *, #65, .F. ) ;
#182 = PRODUCT_CONTEXT ( 'NONE', #54, 'mechanical' ) ;
#183 = ADVANCED_FACE ( 'NONE', ( #86 ), #227, .T. ) ;
#184 = SHAPE_DEFINITION_REPRESENTATION ( #92, #209 ) ;
#185 =( GEOMETRIC_REPRESENTATION_CONTEXT ( 3 ) GLOBAL_UNCERTAINTY_ASSIGNED_CONTEXT ( ( #91 ) ) GLOBAL_UNIT_ASSIGNED_CONTEXT ( ( #262, #288, #161 ) ) REPRESENTATION_CONTEXT ( 'NONE', 'WORKASPACE' ) );
#186 = LINE ( 'NONE', #90, #298 ) ;
#187 = AXIS2_PLACEMENT_3D ( 'NONE', #249, #168, #94 ) ;
#188 = CARTESIAN_POINT ( 'NONE',  ( 7.660553729477949085E-17, 0.0000000000000000000, 0.6255316826705892286 ) ) ;
#189 = EDGE_CURVE ( 'NONE', #151, #203, #216, .T. ) ;
#190 = FACE_OUTER_BOUND ( 'NONE', #102, .T. ) ;
#191 = EDGE_CURVE ( 'NONE', #156, #167, #246, .T. ) ;
#192 = CARTESIAN_POINT ( 'NONE',  ( -0.09365624999999992706, 1.147532321013543253E-17, 0.6250000000000000000 ) ) ;
#193 = AXIS2_PLACEMENT_3D ( 'NONE', #264, #109, #239 ) ;
#194 =( NAMED_UNIT ( * ) SI_UNIT ( $, .STERADIAN. ) SOLID_ANGLE_UNIT ( ) );
#195 = DIRECTION ( 'NONE',  ( 1.000000000000000000, 0.0000000000000000000, 0.0000000000000000000 ) ) ;
#196 = DIRECTION ( 'NONE',  ( 0.0000000000000000000, 0.0000000000000000000, -1.000000000000000000 ) ) ;
#197 = CARTESIAN_POINT ( 'NONE',  ( -0.09374999999999994449, 0.0000000000000000000, 0.6255316826705892286 ) ) ;
#198 = FACE_OUTER_BOUND ( 'NONE', #101, .T. ) ;
#199 = CARTESIAN_POINT ( 'NONE',  ( 0.0000000000000000000, 0.0000000000000000000, 2.000000000000000000 ) ) ;
#200 = CIRCLE ( 'NONE', #120, 0.09365624999999999645 ) ;
#201 = DIRECTION ( 'NONE',  ( 0.0000000000000000000, 0.0000000000000000000, 1.000000000000000000 ) ) ;
#202 = APPLICATION_PROTOCOL_DEFINITION ( 'draft international standard', 'automotive_design', 1998, #85 ) ;
#203 = VERTEX_POINT ( 'NONE', #204 ) ;
#204 = CARTESIAN_POINT ( 'NONE',  ( 0.09375000000000001388, 1.148106374200643863E-17, 1.984999999999999654 ) ) ;
#205 = CARTESIAN_POINT ( 'NONE',  ( 0.0000000000000000000, 0.0000000000000000000, 0.0000000000000000000 ) ) ;
#206 = AXIS2_PLACEMENT_3D ( 'NONE', #143, #77, #169 ) ;
#207 = VECTOR ( 'NONE', #78, 39.37007874015748143 ) ;
#208 = EDGE_LOOP ( 'NONE', ( #173, #76, #282, #16 ) ) ;
#209 = ADVANCED_BREP_SHAPE_REPRESENTATION ( 'Micro_GEM-187-4', ( #263, #219 ), #253 ) ;
#210 = ORIENTED_EDGE ( 'NONE', *, *, #25, .F. ) ;
#212 = AXIS2_PLACEMENT_3D ( 'NONE', #70, #230, #21 ) ;
#211 = DIRECTION ( 'NONE',  ( -1.000000000000000000, 0.0000000000000000000, 1.224646799147352961E-16 ) ) ;
#213 = DIRECTION ( 'NONE',  ( -0.7071067811865463515, 0.0000000000000000000, -0.7071067811865486830 ) ) ;
#214 = SURFACE_STYLE_FILL_AREA ( #118 ) ;
#215 = UNCERTAINTY_MEASURE_WITH_UNIT (LENGTH_MEASURE( 1.000000000000000082E-05 ), #232, 'distance_accuracy_value', 'NONE');
#216 = CIRCLE ( 'NONE', #212, 0.09375000000000001388 ) ;
#217 = DIRECTION ( 'NONE',  ( 0.0000000000000000000, 0.0000000000000000000, 1.000000000000000000 ) ) ;
#218 = ORIENTED_EDGE ( 'NONE', *, *, #189, .T. ) ;
#219 = AXIS2_PLACEMENT_3D ( 'NONE', #205, #105, #267 ) ;
#220 = EDGE_CURVE ( 'NONE', #60, #151, #186, .T. ) ;
#221 = DIRECTION ( 'NONE',  ( -1.224646799147353207E-16, -0.0000000000000000000, -1.000000000000000000 ) ) ;
#222 = CARTESIAN_POINT ( 'NONE',  ( 7.654042494670957853E-17, 0.0000000000000000000, 0.6250000000000000000 ) ) ;
#223 = FACE_OUTER_BOUND ( 'NONE', #128, .T. ) ;
#224 = CYLINDRICAL_SURFACE ( 'NONE', #63, 0.09365624999999999645 ) ;
#225 = ORIENTED_EDGE ( 'NONE', *, *, #65, .T. ) ;
#226 = LINE ( 'NONE', #136, #4 ) ;
#227 = CYLINDRICAL_SURFACE ( 'NONE', #130, 0.09375000000000001388 ) ;
#229 = DIRECTION ( 'NONE',  ( -1.000000000000000000, 0.0000000000000000000, 0.0000000000000000000 ) ) ;
#228 = AXIS2_PLACEMENT_3D ( 'NONE', #188, #164, #251 ) ;
#230 = DIRECTION ( 'NONE',  ( 0.0000000000000000000, 0.0000000000000000000, -1.000000000000000000 ) ) ;
#231 = CARTESIAN_POINT ( 'NONE',  ( 0.09365625000000006584, 0.0000000000000000000, 0.6250000000000000000 ) ) ;
#232 =( CONVERSION_BASED_UNIT ( 'INCH', #252 ) LENGTH_UNIT ( ) NAMED_UNIT ( #266 ) );
#233 = APPLICATION_PROTOCOL_DEFINITION ( 'draft international standard', 'automotive_design', 1998, #54 ) ;
#234 = ORIENTED_EDGE ( 'NONE', *, *, #57, .T. ) ;
#235 = ORIENTED_EDGE ( 'NONE', *, *, #39, .T. ) ;
#236 = EDGE_LOOP ( 'NONE', ( #210, #31, #289, #81 ) ) ;
#237 = EDGE_CURVE ( 'NONE', #134, #131, #166, .T. ) ;
#238 = DIRECTION ( 'NONE',  ( -1.224646799147353207E-16, -0.0000000000000000000, -1.000000000000000000 ) ) ;
#239 = DIRECTION ( 'NONE',  ( -1.000000000000000000, 0.0000000000000000000, 1.224646799147352961E-16 ) ) ;
#240 = AXIS2_PLACEMENT_3D ( 'NONE', #176, #217, #29 ) ;
#241 = CARTESIAN_POINT ( 'NONE',  ( 0.09365625000000006584, 0.0000000000000000000, 0.6250000000000000000 ) ) ;
#242 = EDGE_LOOP ( 'NONE', ( #235, #276, #160, #147 ) ) ;
#243 = VERTEX_POINT ( 'NONE', #48 ) ;
#244 = PRODUCT_DEFINITION ( 'UNKNOWN', '', #38, #50 ) ;
#245 = ORIENTED_EDGE ( 'NONE', *, *, #103, .F. ) ;
#246 = CIRCLE ( 'NONE', #88, 0.09365624999999999645 ) ;
#247 = VECTOR ( 'NONE', #174, 39.37007874015748143 ) ;
#248 = DIRECTION ( 'NONE',  ( -0.0000000000000000000, -0.0000000000000000000, -1.000000000000000000 ) ) ;
#249 = CARTESIAN_POINT ( 'NONE',  ( 0.0000000000000000000, 0.0000000000000000000, 0.0000000000000000000 ) ) ;
#250 = DIRECTION ( 'NONE',  ( 0.1736481776669313581, 0.0000000000000000000, 0.9848077530122077983 ) ) ;
#251 = DIRECTION ( 'NONE',  ( 1.000000000000000000, 0.0000000000000000000, 0.0000000000000000000 ) ) ;
#252 = LENGTH_MEASURE_WITH_UNIT ( LENGTH_MEASURE( 0.02539999999999999897 ), #157 );
#253 =( GEOMETRIC_REPRESENTATION_CONTEXT ( 3 ) GLOBAL_UNCERTAINTY_ASSIGNED_CONTEXT ( ( #71 ) ) GLOBAL_UNIT_ASSIGNED_CONTEXT ( ( #6, #281, #194 ) ) REPRESENTATION_CONTEXT ( 'NONE', 'WORKASPACE' ) );
#254 = FILL_AREA_STYLE_COLOUR ( '', #179 ) ;
#255 = DIRECTION ( 'NONE',  ( 1.000000000000000000, 0.0000000000000000000, 0.0000000000000000000 ) ) ;
#256 =( NAMED_UNIT ( * ) PLANE_ANGLE_UNIT ( ) SI_UNIT ( $, .RADIAN. ) );
#257 = ORIENTED_EDGE ( 'NONE', *, *, #260, .F. ) ;
#258 = CIRCLE ( 'NONE', #116, 0.09375000000000001388 ) ;
#259 = ORIENTED_EDGE ( 'NONE', *, *, #297, .T. ) ;
#260 = EDGE_CURVE ( 'NONE', #9, #131, #99, .T. ) ;
#261 = STYLED_ITEM ( 'NONE', ( #292 ), #263 ) ;
#262 =( CONVERSION_BASED_UNIT ( 'INCH', #14 ) LENGTH_UNIT ( ) NAMED_UNIT ( #290 ) );
#263 = MANIFOLD_SOLID_BREP ( 'Cut-Revolve1', #140 ) ;
#264 = CARTESIAN_POINT ( 'NONE',  ( 1.404618771449245766E-33, 0.0000000000000000000, 1.146958267826442798E-17 ) ) ;
#265 = ORIENTED_EDGE ( 'NONE', *, *, #220, .T. ) ;
#266 = DIMENSIONAL_EXPONENTS ( 1.000000000000000000, 0.0000000000000000000, 0.0000000000000000000, 0.0000000000000000000, 0.0000000000000000000, 0.0000000000000000000, 0.0000000000000000000 ) ;
#267 = DIRECTION ( 'NONE',  ( 1.000000000000000000, 0.0000000000000000000, 0.0000000000000000000 ) ) ;
#268 = DIRECTION ( 'NONE',  ( -0.0000000000000000000, -0.0000000000000000000, -1.000000000000000000 ) ) ;
#269 = MECHANICAL_DESIGN_GEOMETRIC_PRESENTATION_REPRESENTATION (  '', ( #261 ), #152 ) ;
#270 = ADVANCED_FACE ( 'NONE', ( #286 ), #73, .T. ) ;
#271 = CARTESIAN_POINT ( 'NONE',  ( 0.0000000000000000000, 0.0000000000000000000, 2.000000000000000000 ) ) ;
#272 = ADVANCED_FACE ( 'NONE', ( #5 ), #172, .T. ) ;
#273 = EDGE_CURVE ( 'NONE', #203, #151, #121, .T. ) ;
#274 = ORIENTED_EDGE ( 'NONE', *, *, #23, .F. ) ;
#275 = DIRECTION ( 'NONE',  ( 0.0000000000000000000, 0.0000000000000000000, -1.000000000000000000 ) ) ;
#276 = ORIENTED_EDGE ( 'NONE', *, *, #80, .T. ) ;
#277 = DIRECTION ( 'NONE',  ( 1.224646799147353207E-16, 0.0000000000000000000, 1.000000000000000000 ) ) ;
#278 = DIRECTION ( 'NONE',  ( -1.000000000000000000, 0.0000000000000000000, 0.0000000000000000000 ) ) ;
#279 = EDGE_CURVE ( 'NONE', #134, #149, #19, .T. ) ;
#280 = LINE ( 'NONE', #56, #247 ) ;
#281 =( NAMED_UNIT ( * ) PLANE_ANGLE_UNIT ( ) SI_UNIT ( $, .RADIAN. ) );
#282 = ORIENTED_EDGE ( 'NONE', *, *, #260, .T. ) ;
#283 = PRESENTATION_LAYER_ASSIGNMENT (  '', '', ( #261 ) ) ;
#284 = PRESENTATION_STYLE_ASSIGNMENT (( #100 ) ) ;
#285 = LINE ( 'NONE', #104, #207 ) ;
#286 = FACE_OUTER_BOUND ( 'NONE', #236, .T. ) ;
#287 = DIRECTION ( 'NONE',  ( -1.224646799147353207E-16, -0.0000000000000000000, -1.000000000000000000 ) ) ;
#288 =( NAMED_UNIT ( * ) PLANE_ANGLE_UNIT ( ) SI_UNIT ( $, .RADIAN. ) );
#289 = ORIENTED_EDGE ( 'NONE', *, *, #189, .F. ) ;
#290 = DIMENSIONAL_EXPONENTS ( 1.000000000000000000, 0.0000000000000000000, 0.0000000000000000000, 0.0000000000000000000, 0.0000000000000000000, 0.0000000000000000000, 0.0000000000000000000 ) ;
#291 = DIRECTION ( 'NONE',  ( 1.000000000000000000, 0.0000000000000000000, -0.0000000000000000000 ) ) ;
#292 = PRESENTATION_STYLE_ASSIGNMENT (( #26 ) ) ;
#293 = PRODUCT ( 'Micro_GEM-187-4', 'Micro_GEM-187-4', '', ( #182 ) ) ;
#294 = CARTESIAN_POINT ( 'NONE',  ( 0.09375000000000001388, 1.148106374200643863E-17, 2.000000000000000000 ) ) ;
#295 = VECTOR ( 'NONE', #17, 39.37007874015748143 ) ;
#296 = EDGE_CURVE ( 'NONE', #149, #156, #280, .T. ) ;
#297 = EDGE_CURVE ( 'NONE', #60, #243, #138, .T. ) ;
#298 = VECTOR ( 'NONE', #213, 39.37007874015748143 ) ;
#299 = CARTESIAN_POINT ( 'NONE',  ( 0.09375000000000006939, 1.148106374200644633E-17, 0.6255316826705892286 ) ) ;
ENDSEC;
END-ISO-10303-21;
